999
DXF file: C:\Users\64ciro\Desktop\FILE 3D-2D\ARMATEC\H340LLTAB_3077.dxf
999
Pro/ENGINEER 2017260 by Parametric Technology Corporation
  0
SECTION
  2
HEADER
  9
$ACADVER
  1
AC1014
  9
$DWGCODEPAGE
  3
ANSI_1252
  9
$EXTMAX
 10
297.0
 20
210.0
 30
0.0
  9
$EXTMIN
 10
0.0
 20
0.0
 30
0.0
  9
$LIMMIN
 10
0.0
 20
0.0
  9
$LIMMAX
 10
297.0
 20
210.0
  9
$VIEWCTR
 10
148.5
 20
105.0
  9
$VIEWSIZE
 40
210.0
  9
$CLAYER
  8
0
  9
$LTSCALE
 40
16.335
  9
$CELTYPE
  6
BYLAYER
  9
$DIMSCALE
 40
1.0
  9
$DIMASZ
 40
2.5
  9
$DIMEXO
 40
0.0625
  9
$DIMDLI
 40
11.286
  9
$DIMEXE
 40
0.125
  9
$DIMCEN
 40
2.673
  9
$DIMLFAC
 40
1.0
  9
$DIMBLK
  1
_CLOSED
  9
$DIMALT
 70
0
  9
$DIMALTF
 40
25.4
  9
$DIMTXT
 40
2.4
  9
$DIMTOL
 70
1
  9
$DIMLIM
 70
0
  9
$DIMTFAC
 40
1.0
  9
$DIMTP
 40
0.01
  9
$DIMTM
 40
0.01
  9
$DIMGAP
 40
0.625
  9
$AUNITS
 70
0
  9
$PDMODE
 70
3
  9
$PDSIZE
 40
0.3125
  9
$HANDSEED
  5
4D7
  9
$TILEMODE
 70
1
  9
$MEASUREMENT
 70
1
  0
ENDSEC
  0
SECTION
  2
CLASSES
  0
ENDSEC
  0
SECTION
  2
TABLES
  0
TABLE
  2
VPORT
  5
8
100
AcDbSymbolTable
 70
2
  0
VPORT
  5
1F4
100
AcDbSymbolTableRecord
100
AcDbViewportTableRecord
  2
*ACTIVE
 70
0
 10
0.0
 20
0.0
 11
1.0
 21
1.0
 12
148.5
 22
105.0
 13
0.0
 23
0.0
 14
1.0
 24
1.0
 15
0.0
 25
0.0
 16
0.0
 26
0.0
 36
1.0
 17
0.0
 27
0.0
 37
0.0
 40
210.0
 41
1.4142857143
 42
50.0
 43
0.0
 44
0.0
 50
0.0
 51
0.0
 71
0
 72
100
 73
1
 74
1
 75
0
 76
0
 77
0
 78
0
  0
ENDTAB
  0
TABLE
  2
LTYPE
  5
5
100
AcDbSymbolTable
 70
6
  0
LTYPE
  5
14
100
AcDbSymbolTableRecord
100
AcDbLinetypeTableRecord
  2
BYBLOCK
 70
0
  3

 72
65
 73
0
 40
0.0
  0
LTYPE
  5
15
100
AcDbSymbolTableRecord
100
AcDbLinetypeTableRecord
  2
BYLAYER
 70
0
  3

 72
65
 73
0
 40
0.0
  0
LTYPE
  5
16
100
AcDbSymbolTableRecord
100
AcDbLinetypeTableRecord
  2
CONTINUOUS
 70
64
  3
Solid line
 72
65
 73
0
 40
0.0
  0
LTYPE
  5
1F5
100
AcDbSymbolTableRecord
100
AcDbLinetypeTableRecord
  2
CENTER
 70
64
  3
____ _ ____ _ ____ _ ____ _ ____ _ ____ _ ____
 72
65
 73
4
 40
0.6
 49
0.375
 74
0
 49
-0.075
 74
0
 49
0.075
 74
0
 49
-0.075
 74
0
  0
LTYPE
  5
1F6
100
AcDbSymbolTableRecord
100
AcDbLinetypeTableRecord
  2
HIDDEN
 70
64
  3
- - - - - - - - - - - - - - - - - - - -
 72
65
 73
2
 40
0.2
 49
0.1
 74
0
 49
-0.1
 74
0
  0
LTYPE
  5
1F7
100
AcDbSymbolTableRecord
100
AcDbLinetypeTableRecord
  2
PHANTOM
 70
64
  3
_____ _ _ _____ _ _ _____ _ _ _____
 72
65
 73
6
 40
0.8
 49
0.45
 74
0
 49
-0.05
 74
0
 49
0.1
 74
0
 49
-0.05
 74
0
 49
0.1
 74
0
 49
-0.05
 74
0
  0
LTYPE
  5
1F8
100
AcDbSymbolTableRecord
100
AcDbLinetypeTableRecord
  2
DOT
 70
64
  3
. . . . . . . . . . . . . . . . . . . .
 72
65
 73
2
 40
0.2
 49
0.1
 74
0
 49
-0.1
 74
0
  0
LTYPE
  5
1F9
100
AcDbSymbolTableRecord
100
AcDbLinetypeTableRecord
  2
DASHED
 70
64
  3
- - - - - - - - - - - - - - - - - - - -
 72
65
 73
2
 40
0.2
 49
0.1
 74
0
 49
-0.1
 74
0
  0
ENDTAB
  0
TABLE
  2
LAYER
  5
2
100
AcDbSymbolTable
 70
36
  0
LAYER
  5
10
100
AcDbSymbolTableRecord
100
AcDbLayerTableRecord
  2
0
 70
0
 62
7
  6
CONTINUOUS
  0
LAYER
  5
1FA
100
AcDbSymbolTableRecord
100
AcDbLayerTableRecord
  2
DEFAULT_1
 70
0
 62
7
  6
CENTER
  0
LAYER
  5
1FB
100
AcDbSymbolTableRecord
100
AcDbLayerTableRecord
  2
DEFAULT_2
 70
0
 62
8
  6
HIDDEN
  0
LAYER
  5
1FC
100
AcDbSymbolTableRecord
100
AcDbLayerTableRecord
  2
DEFAULT_3
 70
0
 62
7
  6
PHANTOM
  0
LAYER
  5
1FD
100
AcDbSymbolTableRecord
100
AcDbLayerTableRecord
  2
ASSI
 70
0
 62
7
  6
CONTINUOUS
  0
LAYER
  5
1FE
100
AcDbSymbolTableRecord
100
AcDbLayerTableRecord
  2
COSMETICA
 70
0
 62
7
  6
CONTINUOUS
  0
LAYER
  5
1FF
100
AcDbSymbolTableRecord
100
AcDbLayerTableRecord
  2
CURVE
 70
0
 62
7
  6
CONTINUOUS
  0
LAYER
  5
200
100
AcDbSymbolTableRecord
100
AcDbLayerTableRecord
  2
DETTAGLI
 70
0
 62
7
  6
CONTINUOUS
  0
LAYER
  5
201
100
AcDbSymbolTableRecord
100
AcDbLayerTableRecord
  2
FILETTI
 70
0
 62
7
  6
CONTINUOUS
  0
LAYER
  5
202
100
AcDbSymbolTableRecord
100
AcDbLayerTableRecord
  2
GEOM
 70
0
 62
7
  6
CONTINUOUS
  0
LAYER
  5
203
100
AcDbSymbolTableRecord
100
AcDbLayerTableRecord
  2
GEOMETRIA_SOLIDA
 70
0
 62
7
  6
CONTINUOUS
  0
LAYER
  5
204
100
AcDbSymbolTableRecord
100
AcDbLayerTableRecord
  2
LAY0001
 70
0
 62
7
  6
CONTINUOUS
  0
LAYER
  5
205
100
AcDbSymbolTableRecord
100
AcDbLayerTableRecord
  2
LAY0002
 70
0
 62
7
  6
CONTINUOUS
  0
LAYER
  5
206
100
AcDbSymbolTableRecord
100
AcDbLayerTableRecord
  2
LAY0003
 70
0
 62
7
  6
CONTINUOUS
  0
LAYER
  5
207
100
AcDbSymbolTableRecord
100
AcDbLayerTableRecord
  2
NOGEOM
 70
0
 62
7
  6
CONTINUOUS
  0
LAYER
  5
208
100
AcDbSymbolTableRecord
100
AcDbLayerTableRecord
  2
PIANI
 70
0
 62
7
  6
CONTINUOUS
  0
LAYER
  5
209
100
AcDbSymbolTableRecord
100
AcDbLayerTableRecord
  2
PIANI_OFFSET
 70
0
 62
7
  6
CONTINUOUS
  0
LAYER
  5
20A
100
AcDbSymbolTableRecord
100
AcDbLayerTableRecord
  2
QUOTE
 70
0
 62
7
  6
CONTINUOUS
  0
LAYER
  5
20B
100
AcDbSymbolTableRecord
100
AcDbLayerTableRecord
  2
RACCORDI
 70
0
 62
7
  6
CONTINUOUS
  0
LAYER
  5
20C
100
AcDbSymbolTableRecord
100
AcDbLayerTableRecord
  2
RIF
 70
0
 62
7
  6
CONTINUOUS
  0
LAYER
  5
20D
100
AcDbSymbolTableRecord
100
AcDbLayerTableRecord
  2
SKETCH
 70
0
 62
7
  6
CONTINUOUS
  0
LAYER
  5
20E
100
AcDbSymbolTableRecord
100
AcDbLayerTableRecord
  2
TABELLE
 70
0
 62
7
  6
CONTINUOUS
  0
ENDTAB
  0
TABLE
  2
STYLE
  5
3
100
AcDbSymbolTable
 70
1
  0
STYLE
  5
11
100
AcDbSymbolTableRecord
100
AcDbTextStyleTableRecord
  2
STANDARD
 70
0
 40
0.0
 41
1.0
 50
0.0
 71
0
 42
0.2
  3
arial.ttf
  4

  0
STYLE
  5
20F
100
AcDbSymbolTableRecord
100
AcDbTextStyleTableRecord
  2
TEXTSTYLE_1
 70
0
 40
0.0
 41
0.8
 50
0.0
 71
0
 42
0.2
  3
gdt
  4

  0
ENDTAB
  0
TABLE
  2
VIEW
  5
6
100
AcDbSymbolTable
 70
0
  0
ENDTAB
  0
TABLE
  2
UCS
  5
7
100
AcDbSymbolTable
 70
0
  0
ENDTAB
  0
TABLE
  2
APPID
  5
9
100
AcDbSymbolTable
 70
1
  0
APPID
  5
210
100
AcDbSymbolTableRecord
100
AcDbRegAppTableRecord
  2
ACAD
 70
0
  0
ENDTAB
  0
TABLE
  2
BLOCK_RECORD
  5
1
100
AcDbSymbolTable
 70
0
  0
BLOCK_RECORD
  5
1F
100
AcDbSymbolTableRecord
100
AcDbBlockTableRecord
  2
*MODEL_SPACE
  0
BLOCK_RECORD
  5
1B
100
AcDbSymbolTableRecord
100
AcDbBlockTableRecord
  2
*PAPER_SPACE
  0
ENDTAB
  0
TABLE
  2
DIMSTYLE
  5
A
100
AcDbSymbolTable
 70
1
  0
DIMSTYLE
105
211
100
AcDbSymbolTableRecord
100
AcDbDimStyleTableRecord
  2
STANDARD
 70
0
  3

  4

  5
_CLOSED
  6
_CLOSED
  7
_CLOSED
 40
1.0
 41
2.5
 42
0.0625
 43
0.38
 44
0.125
 45
0.0
 46
0.0
 47
0.01
 48
0.01
140
2.4
141
0.09
142
0.0
143
25.4
144
1.0
145
0.0
146
1.0
147
0.625
 71
1.0
 72
0.0
 73
0
 74
0
 75
0
 76
0
 77
1
 78
8
 79
2
170
0
171
1
172
0
173
0
174
0
175
0
176
0
177
0
178
0
270
2
179
2
271
2
272
2
273
2
274
2
275
0
280
0
281
0
282
0
283
1
284
8
285
0
286
0
287
3
288
0
340
11
  0
ENDTAB
  0
ENDSEC
  0
SECTION
  2
BLOCKS
  0
BLOCK
  5
20
100
AcDbEntity
  8
0
100
AcDbBlockBegin
  2
*MODEL_SPACE
 70
0
 10
0.0
 20
0.0
 30
0.0
  3
*MODEL_SPACE
  1

  0
ENDBLK
  5
21
100
AcDbEntity
  8
0
100
AcDbBlockEnd
  0
BLOCK
  5
1C
100
AcDbEntity
  8
0
100
AcDbBlockBegin
  2
*PAPER_SPACE
 70
0
 10
0.0
 20
0.0
 30
0.0
  3
*PAPER_SPACE
  1

  0
ENDBLK
  5
1D
100
AcDbEntity
  8
0
100
AcDbBlockEnd
  0
ENDSEC
  0
SECTION
  2
ENTITIES
  0
LINE
  5
212
100
AcDbEntity
  8
0
100
AcDbLine
 62
7
  6
CONTINUOUS
 10
0.0
 20
0.0
 11
0.0
 21
210.0
  0
LINE
  5
213
100
AcDbEntity
  8
0
100
AcDbLine
 62
7
  6
CONTINUOUS
 10
0.0
 20
0.0
 11
297.0
 21
0.0
  0
LINE
  5
214
100
AcDbEntity
  8
0
100
AcDbLine
 62
7
  6
CONTINUOUS
 10
0.0
 20
210.0
 11
297.0
 21
210.0
  0
LINE
  5
215
100
AcDbEntity
  8
0
100
AcDbLine
 62
7
  6
CONTINUOUS
 10
297.0
 20
0.0
 11
297.0
 21
210.0
  0
LINE
  5
216
100
AcDbEntity
  8
0
100
AcDbLine
 62
7
  6
CONTINUOUS
 10
92.3795971386
 20
72.6387161145
 11
93.2456225424
 21
71.1387161145
  0
LINE
  5
217
100
AcDbEntity
  8
0
100
AcDbLine
 62
7
  6
CONTINUOUS
 10
92.3795971386
 20
72.6387161145
 11
92.3795971386
 21
103.6387161145
  0
LINE
  5
218
100
AcDbEntity
  8
0
100
AcDbLine
 62
7
  6
CONTINUOUS
 10
93.2456225424
 20
71.1387161145
 11
93.2456225424
 21
71.2242623449
  0
LINE
  5
219
100
AcDbEntity
  8
0
100
AcDbLine
 62
7
  6
CONTINUOUS
 10
93.2456225424
 20
78.2063823667
 11
93.2456225424
 21
81.1565960926
  0
LINE
  5
21A
100
AcDbEntity
  8
0
100
AcDbLine
 62
7
  6
CONTINUOUS
 10
93.2456225424
 20
95.1208361363
 11
93.2456225424
 21
98.0710498622
  0
LINE
  5
21B
100
AcDbEntity
  8
0
100
AcDbLine
 62
7
  6
CONTINUOUS
 10
93.2456225424
 20
105.0531698841
 11
93.2456225424
 21
105.1387161145
  0
LINE
  5
21C
100
AcDbEntity
  8
0
100
AcDbLine
 62
7
  6
CONTINUOUS
 10
94.7095971386
 20
88.8987161145
 11
94.7095971386
 21
87.4587161145
  0
LINE
  5
21D
100
AcDbEntity
  8
0
100
AcDbLine
 62
7
  6
CONTINUOUS
 10
95.3395971386
 20
87.4587161145
 11
95.3395971386
 21
88.8987161145
  0
LINE
  5
21E
100
AcDbEntity
  8
0
100
AcDbLine
 62
7
  6
CONTINUOUS
 10
97.6291473282
 20
90.2487161145
 11
97.6291473282
 21
86.1087161145
  0
LINE
  5
21F
100
AcDbEntity
  8
0
100
AcDbLine
 62
7
  6
CONTINUOUS
 10
98.2591473282
 20
85.4787161145
 11
98.2591473282
 21
87.8273149244
  0
LINE
  5
220
100
AcDbEntity
  8
0
100
AcDbLine
 62
7
  6
CONTINUOUS
 10
98.2591473282
 20
88.4487161145
 11
98.2591473282
 21
90.2487161145
  0
LINE
  5
221
100
AcDbEntity
  8
0
100
AcDbLine
 62
7
  6
CONTINUOUS
 10
111.7452825635
 20
70.2730306895
 11
109.1139117136
 21
72.9044015394
  0
LINE
  5
222
100
AcDbEntity
  8
0
100
AcDbLine
 62
7
  6
CONTINUOUS
 10
99.1986975178
 20
87.8273149244
 11
100.6662649341
 21
85.4787161145
  0
LINE
  5
223
100
AcDbEntity
  8
0
100
AcDbLine
 62
7
  6
CONTINUOUS
 10
101.4091473282
 20
85.4787161145
 11
99.9415799119
 21
87.8273149244
  0
LINE
  5
224
100
AcDbEntity
  8
0
100
AcDbLine
 62
7
  6
CONTINUOUS
 10
102.9362214656
 20
98.0697323456
 11
102.9362214656
 21
95.1223162195
  0
LINE
  5
225
100
AcDbEntity
  8
0
100
AcDbLine
 62
7
  6
CONTINUOUS
 10
102.9362214656
 20
81.1551159988
 11
102.9362214656
 21
78.2076998741
  0
LINE
  5
226
100
AcDbEntity
  8
0
100
AcDbLine
 62
7
  6
CONTINUOUS
 10
102.9362214656
 20
71.1387161145
 11
102.9362214656
 21
71.2240997701
  0
LINE
  5
227
100
AcDbEntity
  8
0
100
AcDbLine
 62
7
  6
CONTINUOUS
 10
102.9362214656
 20
105.0533324578
 11
102.9362214656
 21
105.1387161145
  0
LINE
  5
228
100
AcDbEntity
  8
0
100
AcDbLine
 62
7
  6
CONTINUOUS
 10
103.3692341675
 20
97.8369154408
 11
103.3692341675
 21
95.1167282445
  0
LINE
  5
229
100
AcDbEntity
  8
0
100
AcDbLine
 62
7
  6
CONTINUOUS
 10
103.3692341675
 20
81.1607040396
 11
103.3692341675
 21
78.4405168371
  0
LINE
  5
22A
100
AcDbEntity
  8
0
100
AcDbLine
 62
7
  6
CONTINUOUS
 10
103.3692341675
 20
71.3887161145
 11
103.3692341675
 21
71.4625046996
  0
LINE
  5
22B
100
AcDbEntity
  8
0
100
AcDbLine
 62
7
  6
CONTINUOUS
 10
103.3692341675
 20
104.8149275344
 11
103.3692341675
 21
104.8887161145
  0
LINE
  5
22C
100
AcDbEntity
  8
0
100
AcDbLine
 62
7
  6
CONTINUOUS
 10
104.1486532968
 20
73.8531056364
 11
104.1486570309
 21
72.7387161145
  0
LINE
  5
22D
100
AcDbEntity
  8
0
100
AcDbLine
 62
7
  6
CONTINUOUS
 10
104.1486532305
 20
100.262599723
 11
104.1486533281
 21
90.300442267
  0
LINE
  5
22E
100
AcDbEntity
  8
0
100
AcDbLine
 62
7
  6
CONTINUOUS
 10
104.1486533379
 20
85.9769904181
 11
104.1486532192
 21
76.0148326026
  0
LINE
  5
22F
100
AcDbEntity
  8
0
100
AcDbLine
 62
7
  6
CONTINUOUS
 10
104.1486570309
 20
103.5387161145
 11
104.1486532811
 21
102.4243265893
  0
LINE
  5
230
100
AcDbEntity
  8
0
100
AcDbLine
 62
7
  6
CONTINUOUS
 10
104.8414630741
 20
74.2241868513
 11
104.8414773539
 21
73.1387161145
  0
LINE
  5
231
100
AcDbEntity
  8
0
100
AcDbLine
 62
7
  6
CONTINUOUS
 10
104.8414629026
 20
99.9477236772
 11
104.8414632943
 21
90.2442387244
  0
LINE
  5
232
100
AcDbEntity
  8
0
100
AcDbLine
 62
7
  6
CONTINUOUS
 10
104.8414632625
 20
86.033193588
 11
104.8414629281
 21
76.3297085924
  0
LINE
  5
233
100
AcDbEntity
  8
0
100
AcDbLine
 62
7
  6
CONTINUOUS
 10
104.8414773539
 20
103.1387161145
 11
104.8414630805
 21
102.0532453824
  0
LINE
  5
234
100
AcDbEntity
  8
0
100
AcDbLine
 62
7
  6
CONTINUOUS
 10
92.3795971386
 20
103.6387161145
 11
93.2456225424
 21
105.1387161145
  0
LINE
  5
235
100
AcDbEntity
  8
0
100
AcDbLine
 62
7
  6
CONTINUOUS
 10
107.3795971386
 20
112.7387161145
 11
107.3795971386
 21
110.2119211952
  0
LINE
  5
236
100
AcDbEntity
  8
0
100
AcDbLine
 62
7
  6
CONTINUOUS
 10
107.6795971386
 20
110.2119211952
 11
107.6795971386
 21
113.0387161145
  0
LINE
  5
237
100
AcDbEntity
  8
0
100
AcDbLine
 62
7
  6
CONTINUOUS
 10
107.8795971386
 20
109.1387161145
 11
107.8795971386
 21
109.7500409799
  0
LINE
  5
238
100
AcDbEntity
  8
0
100
AcDbLine
 62
7
  6
CONTINUOUS
 10
107.8795971386
 20
113.0387161145
 11
107.8795971386
 21
123.1387161145
  0
LINE
  5
239
100
AcDbEntity
  8
0
100
AcDbLine
 62
7
  6
CONTINUOUS
 10
108.5482262887
 20
103.1387161145
 11
108.5482262887
 21
73.1387161145
  0
LINE
  5
23A
100
AcDbEntity
  8
0
100
AcDbLine
 62
7
  6
CONTINUOUS
 10
109.1139117136
 20
103.3730306895
 11
109.1139117136
 21
72.9044015394
  0
LINE
  5
23B
100
AcDbEntity
  8
0
100
AcDbLine
 62
7
  6
CONTINUOUS
 10
109.0964791468
 20
123.1387161145
 11
107.8795971386
 21
121.8337699251
  0
LINE
  5
23C
100
AcDbEntity
  8
0
100
AcDbLine
 62
7
  6
CONTINUOUS
 10
127.6139117136
 20
69.8044015394
 11
128.0452825635
 21
69.3730306895
  0
LINE
  5
23D
100
AcDbEntity
  8
0
100
AcDbLine
 62
7
  6
CONTINUOUS
 10
103.3692341675
 20
104.8887161145
 11
104.1486570309
 21
103.5387161145
  0
LINE
  5
23E
100
AcDbEntity
  8
0
100
AcDbLine
 62
7
  6
CONTINUOUS
 10
110.8795971386
 20
113.0387161145
 11
110.8795971386
 21
122.6387161145
  0
LINE
  5
23F
100
AcDbEntity
  8
0
100
AcDbLine
 62
7
  6
CONTINUOUS
 10
111.6295971386
 20
116.7387161145
 11
111.6295971386
 21
113.7887161145
  0
LINE
  5
240
100
AcDbEntity
  8
0
100
AcDbLine
 62
7
  6
CONTINUOUS
 10
111.7452825635
 20
70.2730306895
 11
111.7452825635
 21
106.0044015394
  0
LINE
  5
241
100
AcDbEntity
  8
0
100
AcDbLine
 62
7
  6
CONTINUOUS
 10
111.8795971386
 20
113.3316093333
 11
111.8795971386
 21
113.2387161145
  0
LINE
  5
242
100
AcDbEntity
  8
0
100
AcDbLine
 62
7
  6
CONTINUOUS
 10
112.0629453795
 20
112.7387161145
 11
112.0629453795
 21
110.2958228956
  0
LINE
  5
243
100
AcDbEntity
  8
0
100
AcDbLine
 62
7
  6
CONTINUOUS
 10
112.255041292
 20
112.7387161145
 11
112.255041292
 21
110.2958228956
  0
LINE
  5
244
100
AcDbEntity
  8
0
100
AcDbLine
 62
7
  6
CONTINUOUS
 10
112.3109679885
 20
70.0387161145
 11
112.3109679885
 21
106.0102074951
  0
LINE
  5
245
100
AcDbEntity
  8
0
100
AcDbLine
 62
7
  6
CONTINUOUS
 10
112.8465730556
 20
109.1316093333
 11
112.8465730556
 21
107.2287662586
  0
LINE
  5
246
100
AcDbEntity
  8
0
100
AcDbLine
 62
7
  6
CONTINUOUS
 10
113.037255158
 20
109.1316093333
 11
113.037255158
 21
107.2287662586
  0
LINE
  5
247
100
AcDbEntity
  8
0
100
AcDbLine
 62
7
  6
CONTINUOUS
 10
113.3795971386
 20
117.3387161145
 11
113.3795971386
 21
117.0387161145
  0
LINE
  5
248
100
AcDbEntity
  8
0
100
AcDbLine
 62
7
  6
CONTINUOUS
 10
113.5454660792
 20
91.9387161145
 11
113.5454660792
 21
84.3787161145
  0
LINE
  5
249
100
AcDbEntity
  8
0
100
AcDbLine
 62
2
  6
CONTINUOUS
 10
114.0795971386
 20
117.0387161145
 11
114.0795971386
 21
118.0387161145
  0
LINE
  5
24A
100
AcDbEntity
  8
0
100
AcDbLine
 62
7
  6
CONTINUOUS
 10
114.1295971386
 20
120.6057034126
 11
114.1295971386
 21
118.0387161145
  0
LINE
  5
24B
100
AcDbEntity
  8
0
100
AcDbLine
 62
7
  6
CONTINUOUS
 10
114.1447779416
 20
120.6057034126
 11
114.1447779416
 21
118.0387161145
  0
LINE
  5
24C
100
AcDbEntity
  8
0
100
AcDbLine
 62
7
  6
CONTINUOUS
 10
114.1754660792
 20
91.3087161145
 11
114.1754660792
 21
85.0087161145
  0
LINE
  5
24D
100
AcDbEntity
  8
0
100
AcDbLine
 62
7
  6
CONTINUOUS
 10
107.6795971386
 20
110.2119211952
 11
107.5295971386
 21
109.9521135741
  0
LINE
  5
24E
100
AcDbEntity
  8
0
100
AcDbLine
 62
7
  6
CONTINUOUS
 10
109.7680194171
 20
123.1387161145
 11
107.8795971386
 21
121.1136311517
  0
LINE
  5
24F
100
AcDbEntity
  8
0
100
AcDbLine
 62
7
  6
CONTINUOUS
 10
116.7607949851
 20
130.8814505245
 11
117.3795971386
 21
131.2387161145
  0
LINE
  5
250
100
AcDbEntity
  8
0
100
AcDbLine
 62
7
  6
CONTINUOUS
 10
128.6109679885
 20
69.1387161145
 11
137.5294933695
 21
69.1387161145
  0
LINE
  5
251
100
AcDbEntity
  8
0
100
AcDbLine
 62
7
  6
CONTINUOUS
 10
115.0554660792
 20
89.1687161145
 11
116.3884172846
 21
86.5526520753
  0
LINE
  5
252
100
AcDbEntity
  8
0
100
AcDbLine
 62
7
  6
CONTINUOUS
 10
115.7625316089
 20
89.1687161145
 11
116.7419500495
 21
87.2464991937
  0
LINE
  5
253
100
AcDbEntity
  8
0
100
AcDbLine
 62
7
  6
CONTINUOUS
 10
117.8528856248
 20
126.2387161145
 11
117.8615141608
 21
126.1387161145
  0
LINE
  5
254
100
AcDbEntity
  8
0
100
AcDbLine
 62
7
  6
CONTINUOUS
 10
115.3795971386
 20
126.8923059529
 11
115.3795971386
 21
126.2387161145
  0
LINE
  5
255
100
AcDbEntity
  8
0
100
AcDbLine
 62
7
  6
CONTINUOUS
 10
116.7607949851
 20
128.0361510629
 11
116.7607949851
 21
130.8814505245
  0
LINE
  5
256
100
AcDbEntity
  8
0
100
AcDbLine
 62
7
  6
CONTINUOUS
 10
116.8795971386
 20
122.6387161145
 11
116.8795971386
 21
121.0387161145
  0
LINE
  5
257
100
AcDbEntity
  8
0
100
AcDbLine
 62
7
  6
CONTINUOUS
 10
117.3560860863
 20
120.6057034126
 11
117.3560860863
 21
118.0387161145
  0
LINE
  5
258
100
AcDbEntity
  8
0
100
AcDbLine
 62
7
  6
CONTINUOUS
 10
118.1682889939
 20
120.6057034126
 11
118.1682889939
 21
118.0387161145
  0
LINE
  5
259
100
AcDbEntity
  8
0
100
AcDbLine
 62
7
  6
CONTINUOUS
 10
118.8989838838
 20
123.1387161145
 11
118.8989838838
 21
122.1877699245
  0
LINE
  5
25A
100
AcDbEntity
  8
0
100
AcDbLine
 62
7
  6
CONTINUOUS
 10
119.0701960618
 20
128.0361510629
 11
119.0701960618
 21
130.8814505245
  0
LINE
  5
25B
100
AcDbEntity
  8
0
100
AcDbLine
 62
7
  6
CONTINUOUS
 10
119.8695971386
 20
90.4287161145
 11
119.8695971386
 21
89.7987161145
  0
LINE
  5
25C
100
AcDbEntity
  8
0
100
AcDbLine
 62
7
  6
CONTINUOUS
 10
119.8695971386
 20
89.1687161145
 11
119.8695971386
 21
85.9587161145
  0
LINE
  5
25D
100
AcDbEntity
  8
0
100
AcDbLine
 62
7
  6
CONTINUOUS
 10
119.5254951723
 20
126.2387161145
 11
119.5164974191
 21
126.1387161145
  0
LINE
  5
25E
100
AcDbEntity
  8
0
100
AcDbLine
 62
7
  6
CONTINUOUS
 10
121.3795971386
 20
126.2387161145
 11
121.3538538589
 21
126.1387161145
  0
LINE
  5
25F
100
AcDbEntity
  8
0
100
AcDbLine
 62
7
  6
CONTINUOUS
 10
123.2336991048
 20
126.2387161145
 11
123.1937302302
 21
126.1387161145
  0
LINE
  5
260
100
AcDbEntity
  8
0
100
AcDbLine
 62
7
  6
CONTINUOUS
 10
124.9063086523
 20
126.2387161145
 11
124.8560266148
 21
126.1387161145
  0
LINE
  5
261
100
AcDbEntity
  8
0
100
AcDbLine
 62
7
  6
CONTINUOUS
 10
117.3657943371
 20
123.124913313
 11
116.8795971386
 21
122.6387161145
  0
LINE
  5
262
100
AcDbEntity
  8
0
100
AcDbLine
 62
7
  6
CONTINUOUS
 10
111.9295971386
 20
117.0387161145
 11
111.6295971386
 21
116.7387161145
  0
LINE
  5
263
100
AcDbEntity
  8
0
100
AcDbLine
 62
7
  6
CONTINUOUS
 10
114.0795971386
 20
118.0387161145
 11
114.0177514134
 21
117.9768703893
  0
LINE
  5
264
100
AcDbEntity
  8
0
100
AcDbLine
 62
7
  6
CONTINUOUS
 10
113.6234734103
 20
117.5825923862
 11
113.3795971386
 21
117.3387161145
  0
LINE
  5
265
100
AcDbEntity
  8
0
100
AcDbLine
 62
7
  6
CONTINUOUS
 10
116.7607949851
 20
128.0361510629
 11
115.6795971386
 21
127.4119211952
  0
LINE
  5
266
100
AcDbEntity
  8
0
100
AcDbLine
 62
7
  6
CONTINUOUS
 10
112.3109679885
 20
70.0387161145
 11
127.0482262887
 21
70.0387161145
  0
LINE
  5
267
100
AcDbEntity
  8
0
100
AcDbLine
 62
7
  6
CONTINUOUS
 10
149.5135717348
 20
71.1387161145
 11
138.9576413762
 21
71.1387161145
  0
LINE
  5
268
100
AcDbEntity
  8
0
100
AcDbLine
 62
7
  6
CONTINUOUS
 10
102.9362214656
 20
71.1387161145
 11
93.2456225424
 21
71.1387161145
  0
LINE
  5
269
100
AcDbEntity
  8
GEOM
100
AcDbLine
 62
7
  6
CONTINUOUS
 10
149.5135717348
 20
71.2242623449
 11
138.9732608069
 21
71.2242623449
  0
LINE
  5
26A
100
AcDbEntity
  8
0
100
AcDbLine
 62
7
  6
CONTINUOUS
 10
102.91001432
 20
71.2242623449
 11
93.2456225424
 21
71.2242623449
  0
LINE
  5
26B
100
AcDbEntity
  8
0
100
AcDbLine
 62
7
  6
CONTINUOUS
 10
104.8414773539
 20
73.1387161145
 11
108.5482262887
 21
73.1387161145
  0
LINE
  5
26C
100
AcDbEntity
  8
0
100
AcDbLine
 62
7
  6
CONTINUOUS
 10
120.4995971386
 20
90.4287161145
 11
120.4995971386
 21
89.7987161145
  0
LINE
  5
26D
100
AcDbEntity
  8
0
100
AcDbLine
 62
7
  6
CONTINUOUS
 10
120.4995971386
 20
89.1687161145
 11
120.4995971386
 21
85.9587161145
  0
LINE
  5
26E
100
AcDbEntity
  8
0
100
AcDbLine
 62
7
  6
CONTINUOUS
 10
121.3795971386
 20
89.1687161145
 11
121.3795971386
 21
88.058114945
  0
LINE
  5
26F
100
AcDbEntity
  8
0
100
AcDbLine
 62
7
  6
CONTINUOUS
 10
121.3795971386
 20
86.1187161145
 11
121.3795971386
 21
85.9587161145
  0
LINE
  5
270
100
AcDbEntity
  8
0
100
AcDbLine
 62
7
  6
CONTINUOUS
 10
122.0095971386
 20
89.1687161145
 11
122.0095971386
 21
88.5387161145
  0
LINE
  5
271
100
AcDbEntity
  8
0
100
AcDbLine
 62
7
  6
CONTINUOUS
 10
123.6889982153
 20
128.0361510629
 11
123.6889982153
 21
130.8814505245
  0
LINE
  5
272
100
AcDbEntity
  8
0
100
AcDbLine
 62
7
  6
CONTINUOUS
 10
123.7695971386
 20
88.7887161145
 11
123.7695971386
 21
88.1387161145
  0
LINE
  5
273
100
AcDbEntity
  8
0
100
AcDbLine
 62
7
  6
CONTINUOUS
 10
123.8795971386
 20
109.1387161145
 11
123.8795971386
 21
116.1387161145
  0
LINE
  5
274
100
AcDbEntity
  8
0
100
AcDbLine
 62
7
  6
CONTINUOUS
 10
124.3995971386
 20
88.7887161145
 11
124.3995971386
 21
87.9565399305
  0
LINE
  5
275
100
AcDbEntity
  8
0
100
AcDbLine
 62
7
  6
CONTINUOUS
 10
127.3795971386
 20
126.2387161145
 11
127.3294848116
 21
126.1387161145
  0
LINE
  5
276
100
AcDbEntity
  8
0
100
AcDbLine
 62
7
  6
CONTINUOUS
 10
127.0859362363
 20
126.2387161145
 11
127.0303214703
 21
126.1387161145
  0
LINE
  5
277
100
AcDbEntity
  8
0
100
AcDbLine
 62
7
  6
CONTINUOUS
 10
126.2336991048
 20
126.2387161145
 11
126.1780258605
 21
126.1387161145
  0
LINE
  5
278
100
AcDbEntity
  8
0
100
AcDbLine
 62
7
  6
CONTINUOUS
 10
112.7544561331
 20
109.3437413676
 11
112.8894193303
 21
109.4851627723
  0
LINE
  5
279
100
AcDbEntity
  8
0
100
AcDbLine
 62
7
  6
CONTINUOUS
 10
112.2766006296
 20
109.8008481488
 11
112.4121837267
 21
109.9422695019
  0
LWPOLYLINE
  5
27A
100
AcDbEntity
  8
0
100
AcDbPolyline
 62
7
  6
CONTINUOUS
 90
3
 70
0
 10
114.0417286543
 20
117.8066315091
 10
114.0392506389
 20
117.8050360734
 10
114.0370614223
 20
117.8037993276
  0
LINE
  5
27B
100
AcDbEntity
  8
0
100
AcDbLine
 62
7
  6
CONTINUOUS
 10
114.8795971386
 20
121.0387161145
 11
114.1295971386
 21
120.6057034126
  0
LINE
  5
27C
100
AcDbEntity
  8
0
100
AcDbLine
 62
7
  6
CONTINUOUS
 10
130.5795971386
 20
77.6387161145
 11
133.5795971386
 21
77.6387161145
  0
LINE
  5
27D
100
AcDbEntity
  8
0
100
AcDbLine
 62
7
  6
CONTINUOUS
 10
131.1396786801
 20
77.9356312754
 11
133.5795971386
 21
77.9356312754
  0
LINE
  5
27E
100
AcDbEntity
  8
GEOM
100
AcDbLine
 62
7
  6
CONTINUOUS
 10
149.5135717348
 20
78.2063823667
 11
138.9732608172
 21
78.2063823667
  0
LINE
  5
27F
100
AcDbEntity
  8
0
100
AcDbLine
 62
7
  6
CONTINUOUS
 10
102.91001432
 20
78.2063823667
 11
93.2456225424
 21
78.2063823667
  0
LINE
  5
280
100
AcDbEntity
  8
0
100
AcDbLine
 62
7
  6
CONTINUOUS
 10
131.133568608
 20
79.3477540625
 11
133.5795971386
 21
79.3477540625
  0
LINE
  5
281
100
AcDbEntity
  8
0
100
AcDbLine
 62
7
  6
CONTINUOUS
 10
130.5795971386
 20
79.2184752531
 11
133.1437519423
 21
78.6416927001
  0
LINE
  5
282
100
AcDbEntity
  8
0
100
AcDbLine
 62
7
  6
CONTINUOUS
 10
131.133568608
 20
79.3477540625
 11
133.5795971386
 21
78.7908606146
  0
LINE
  5
283
100
AcDbEntity
  8
0
100
AcDbLine
 62
7
  6
CONTINUOUS
 10
132.7119800381
 20
80.4586998712
 11
133.5795971386
 21
80.2527059776
  0
LINE
  5
284
100
AcDbEntity
  8
0
100
AcDbLine
 62
7
  6
CONTINUOUS
 10
131.0276623003
 20
80.8607427318
 11
132.3290879957
 21
80.5467798021
  0
LINE
  5
285
100
AcDbEntity
  8
0
100
AcDbLine
 62
7
  6
CONTINUOUS
 10
130.5795971386
 20
80.6860032888
 11
133.5795971386
 21
79.9216952791
  0
LINE
  5
286
100
AcDbEntity
  8
0
100
AcDbLine
 62
7
  6
CONTINUOUS
 10
116.5254951723
 20
126.2387161145
 11
116.5509053763
 21
126.1387161145
  0
LINE
  5
287
100
AcDbEntity
  8
0
100
AcDbLine
 62
7
  6
CONTINUOUS
 10
125.5154660792
 20
91.3087161145
 11
125.5154660792
 21
85.0087161145
  0
LINE
  5
288
100
AcDbEntity
  8
0
100
AcDbLine
 62
7
  6
CONTINUOUS
 10
125.9983992921
 20
128.0361510629
 11
125.9983992921
 21
130.8814505245
  0
LINE
  5
289
100
AcDbEntity
  8
0
100
AcDbLine
 62
7
  6
CONTINUOUS
 10
126.1454660792
 20
91.9387161145
 11
126.1454660792
 21
84.3787161145
  0
LINE
  5
28A
100
AcDbEntity
  8
0
100
AcDbLine
 62
7
  6
CONTINUOUS
 10
127.0482260074
 20
104.6746034722
 11
127.0482262887
 21
70.0387161145
  0
LINE
  5
28B
100
AcDbEntity
  8
0
100
AcDbLine
 62
7
  6
CONTINUOUS
 10
127.3795971386
 20
126.8923059529
 11
127.3795971386
 21
126.2387161145
  0
LINE
  5
28C
100
AcDbEntity
  8
0
100
AcDbLine
 62
7
  6
CONTINUOUS
 10
127.6139117136
 20
104.8886702329
 11
127.6139117136
 21
69.8044015394
  0
LINE
  5
28D
100
AcDbEntity
  8
0
100
AcDbLine
 62
7
  6
CONTINUOUS
 10
128.0452825635
 20
69.3730306895
 11
128.0452825635
 21
105.4959086729
  0
LINE
  5
28E
100
AcDbEntity
  8
0
100
AcDbLine
 62
7
  6
CONTINUOUS
 10
128.6109679885
 20
69.1387161145
 11
128.6109679885
 21
106.1712125855
  0
LINE
  5
28F
100
AcDbEntity
  8
0
100
AcDbLine
 62
7
  6
CONTINUOUS
 10
103.3692341675
 20
71.3887161145
 11
104.1486570309
 21
72.7387161145
  0
LINE
  5
290
100
AcDbEntity
  8
0
100
AcDbLine
 62
7
  6
CONTINUOUS
 10
111.7452825635
 20
106.0044015394
 11
109.1139117136
 21
103.3730306895
  0
LINE
  5
291
100
AcDbEntity
  8
0
100
AcDbLine
 62
7
  6
CONTINUOUS
 10
114.0370896059
 20
117.8038140308
 11
113.6576440055
 21
117.6059975966
  0
LINE
  5
292
100
AcDbEntity
  8
0
100
AcDbLine
 62
7
  6
CONTINUOUS
 10
133.5795971386
 20
78.4939454537
 11
131.1396786801
 21
77.9356312754
  0
LINE
  5
293
100
AcDbEntity
  8
0
100
AcDbLine
 62
7
  6
CONTINUOUS
 10
133.1437519423
 20
78.6416927001
 11
130.5795971386
 21
78.0649100847
  0
LINE
  5
294
100
AcDbEntity
  8
0
100
AcDbLine
 62
7
  6
CONTINUOUS
 10
130.5795971386
 20
79.6446692234
 11
133.5795971386
 21
79.6446692234
  0
LINE
  5
295
100
AcDbEntity
  8
GEOM
100
AcDbLine
 62
7
  6
CONTINUOUS
 10
149.5135717348
 20
81.1565960926
 11
138.9732607799
 21
81.1565960926
  0
LINE
  5
296
100
AcDbEntity
  8
0
100
AcDbLine
 62
7
  6
CONTINUOUS
 10
102.91001432
 20
81.1565960926
 11
93.2456225424
 21
81.1565960926
  0
LINE
  5
297
100
AcDbEntity
  8
0
100
AcDbLine
 62
7
  6
CONTINUOUS
 10
130.5795971386
 20
82.0597684714
 11
133.5795971386
 21
82.0597684714
  0
LINE
  5
298
100
AcDbEntity
  8
0
100
AcDbLine
 62
7
  6
CONTINUOUS
 10
130.9624892704
 20
82.3566838818
 11
133.1967050962
 21
82.3566838818
  0
LINE
  5
299
100
AcDbEntity
  8
0
100
AcDbLine
 62
7
  6
CONTINUOUS
 10
130.5795971386
 20
84.162325458
 11
133.5795971386
 21
84.162325458
  0
LINE
  5
29A
100
AcDbEntity
  8
0
100
AcDbLine
 62
7
  6
CONTINUOUS
 10
111.6295971386
 20
113.7887161145
 11
111.7331505292
 21
113.6851627239
  0
LWPOLYLINE
  5
29B
100
AcDbEntity
  8
0
100
AcDbPolyline
 62
7
  6
CONTINUOUS
 90
11
 70
0
 10
114.0554605662
 20
117.9426367831
 10
114.0652533229
 20
117.929586821
 10
114.0740188099
 20
117.9115914924
 10
114.0788840027
 20
117.8917279276
 10
114.0790235807
 20
117.8708478267
 10
114.0740931508
 20
117.8500483881
 10
114.0661233216
 20
117.8332721306
 10
114.0578350586
 20
117.8215439919
 10
114.0501161282
 20
117.81336362
 10
114.0436152274
 20
117.8079681157
 10
114.0417286543
 20
117.8066315091
  0
LINE
  5
29C
100
AcDbEntity
  8
0
100
AcDbLine
 62
7
  6
CONTINUOUS
 10
115.3795971386
 20
126.2387161145
 11
115.4297094655
 21
126.1387161145
  0
LINE
  5
29D
100
AcDbEntity
  8
0
100
AcDbLine
 62
7
  6
CONTINUOUS
 10
115.6732580408
 20
126.2387161145
 11
115.712962585
 21
126.1387161145
  0
LINE
  5
29E
100
AcDbEntity
  8
0
100
AcDbLine
 62
7
  6
CONTINUOUS
 10
130.1295971386
 20
109.1316093333
 11
130.1295971386
 21
107.9387161145
  0
LINE
  5
29F
100
AcDbEntity
  8
0
100
AcDbLine
 62
7
  6
CONTINUOUS
 10
130.5795971386
 20
98.6387152621
 11
130.5795971386
 21
98.2764511108
  0
LINE
  5
2A0
100
AcDbEntity
  8
0
100
AcDbLine
 62
7
  6
CONTINUOUS
 10
130.5795971386
 20
97.0987338973
 11
130.5795971386
 21
96.736469746
  0
LINE
  5
2A1
100
AcDbEntity
  8
0
100
AcDbLine
 62
7
  6
CONTINUOUS
 10
130.5795971386
 20
95.5715387955
 11
130.5795971386
 21
95.2746248819
  0
LINE
  5
2A2
100
AcDbEntity
  8
0
100
AcDbLine
 62
7
  6
CONTINUOUS
 10
130.5795971386
 20
94.231868901
 11
130.5795971386
 21
93.8838109327
  0
LINE
  5
2A3
100
AcDbEntity
  8
0
100
AcDbLine
 62
7
  6
CONTINUOUS
 10
130.5795971386
 20
93.0456291751
 11
130.5795971386
 21
91.3763692503
  0
LINE
  5
2A4
100
AcDbEntity
  8
0
100
AcDbLine
 62
7
  6
CONTINUOUS
 10
130.5795971386
 20
91.0723507485
 11
130.5795971386
 21
90.7754358371
  0
LINE
  5
2A5
100
AcDbEntity
  8
0
100
AcDbLine
 62
7
  6
CONTINUOUS
 10
130.5795971386
 20
89.3988290686
 11
130.5795971386
 21
89.1019141572
  0
LINE
  5
2A6
100
AcDbEntity
  8
0
100
AcDbLine
 62
7
  6
CONTINUOUS
 10
130.5795971386
 20
88.0691036019
 11
130.5795971386
 21
87.7409344893
  0
LINE
  5
2A7
100
AcDbEntity
  8
0
100
AcDbLine
 62
7
  6
CONTINUOUS
 10
130.5795971386
 20
87.2635969632
 11
130.5795971386
 21
86.9666820518
  0
LINE
  5
2A8
100
AcDbEntity
  8
0
100
AcDbLine
 62
7
  6
CONTINUOUS
 10
130.5795971386
 20
85.6923618961
 11
130.5795971386
 21
84.162325458
  0
LINE
  5
2A9
100
AcDbEntity
  8
0
100
AcDbLine
 62
7
  6
CONTINUOUS
 10
130.5795971386
 20
82.9277835126
 11
130.5795971386
 21
82.0597684714
  0
LINE
  5
2AA
100
AcDbEntity
  8
0
100
AcDbLine
 62
7
  6
CONTINUOUS
 10
130.5795971386
 20
81.0340617561
 11
130.5795971386
 21
80.6860032888
  0
LINE
  5
2AB
100
AcDbEntity
  8
0
100
AcDbLine
 62
7
  6
CONTINUOUS
 10
130.5795971386
 20
79.6446692234
 11
130.5795971386
 21
79.2184752531
  0
LINE
  5
2AC
100
AcDbEntity
  8
0
100
AcDbLine
 62
7
  6
CONTINUOUS
 10
130.5795971386
 20
78.0649100847
 11
130.5795971386
 21
77.6387161145
  0
LINE
  5
2AD
100
AcDbEntity
  8
0
100
AcDbLine
 62
7
  6
CONTINUOUS
 10
130.8795971386
 20
113.3316093333
 11
130.8795971386
 21
110.2958228956
  0
LINE
  5
2AE
100
AcDbEntity
  8
0
100
AcDbLine
 62
7
  6
CONTINUOUS
 10
130.9624892704
 20
93.0456291751
 11
130.9624892704
 21
92.3594566684
  0
LINE
  5
2AF
100
AcDbEntity
  8
0
100
AcDbLine
 62
7
  6
CONTINUOUS
 10
130.9624892704
 20
92.062541757
 11
130.9624892704
 21
91.3763692503
  0
LINE
  5
2B0
100
AcDbEntity
  8
0
100
AcDbLine
 62
7
  6
CONTINUOUS
 10
130.9624892704
 20
85.6923618961
 11
130.9624892704
 21
84.4592408683
  0
LINE
  5
2B1
100
AcDbEntity
  8
0
100
AcDbLine
 62
7
  6
CONTINUOUS
 10
130.9624892704
 20
82.7757742616
 11
130.9624892704
 21
82.3566838818
  0
LINE
  5
2B2
100
AcDbEntity
  8
0
100
AcDbLine
 62
7
  6
CONTINUOUS
 10
131.1295971386
 20
114.4181755813
 11
131.1295971386
 21
113.7887161145
  0
LINE
  5
2B3
100
AcDbEntity
  8
0
100
AcDbLine
 62
7
  6
CONTINUOUS
 10
131.8402895562
 20
85.6000202101
 11
131.8402895562
 21
84.4592408683
  0
LINE
  5
2B4
100
AcDbEntity
  8
0
100
AcDbLine
 62
7
  6
CONTINUOUS
 10
132.223181688
 20
85.6000202101
 11
132.223181688
 21
84.4592408683
  0
LINE
  5
2B5
100
AcDbEntity
  8
0
100
AcDbLine
 62
7
  6
CONTINUOUS
 10
132.3290879957
 20
94.3710928867
 11
132.3290879957
 21
93.7445879449
  0
LINE
  5
2B6
100
AcDbEntity
  8
0
100
AcDbLine
 62
7
  6
CONTINUOUS
 10
132.3290879957
 20
81.1732849933
 11
132.3290879957
 21
80.5467798021
  0
LINE
  5
2B7
100
AcDbEntity
  8
0
100
AcDbLine
 62
7
  6
CONTINUOUS
 10
132.7119800381
 20
94.4591718197
 11
132.7119800381
 21
93.6565070162
  0
LINE
  5
2B8
100
AcDbEntity
  8
0
100
AcDbLine
 62
7
  6
CONTINUOUS
 10
132.7119800381
 20
81.2613651736
 11
132.7119800381
 21
80.4586998712
  0
LINE
  5
2B9
100
AcDbEntity
  8
0
100
AcDbLine
 62
7
  6
CONTINUOUS
 10
133.1967050962
 20
96.6142947764
 11
133.1967050962
 21
95.5715387955
  0
LINE
  5
2BA
100
AcDbEntity
  8
0
100
AcDbLine
 62
7
  6
CONTINUOUS
 10
133.1967050962
 20
85.7079894956
 11
133.1967050962
 21
84.4592408683
  0
LINE
  5
2BB
100
AcDbEntity
  8
0
100
AcDbLine
 62
7
  6
CONTINUOUS
 10
133.1967050962
 20
82.7842982708
 11
133.1967050962
 21
82.3566838818
  0
LINE
  5
2BC
100
AcDbEntity
  8
0
100
AcDbLine
 62
7
  6
CONTINUOUS
 10
133.2683449459
 20
123.1387161145
 11
133.2683449459
 21
119.7966428802
  0
LINE
  5
2BD
100
AcDbEntity
  8
0
100
AcDbLine
 62
7
  6
CONTINUOUS
 10
133.5795971386
 20
97.8360504587
 11
133.5795971386
 21
97.5391345494
  0
LINE
  5
2BE
100
AcDbEntity
  8
0
100
AcDbLine
 62
7
  6
CONTINUOUS
 10
133.5795971386
 20
96.6142947764
 11
133.5795971386
 21
95.2746248819
  0
LINE
  5
2BF
100
AcDbEntity
  8
0
100
AcDbLine
 62
7
  6
CONTINUOUS
 10
133.5795971386
 20
94.9961769107
 11
133.5795971386
 21
94.6651669606
  0
LINE
  5
2C0
100
AcDbEntity
  8
0
100
AcDbLine
 62
7
  6
CONTINUOUS
 10
133.5795971386
 20
93.4505138709
 11
133.5795971386
 21
93.119502923
  0
LINE
  5
2C1
100
AcDbEntity
  8
0
100
AcDbLine
 62
7
  6
CONTINUOUS
 10
133.5795971386
 20
92.3594566684
 11
133.5795971386
 21
92.062541757
  0
LINE
  5
2C2
100
AcDbEntity
  8
0
100
AcDbLine
 62
7
  6
CONTINUOUS
 10
133.5795971386
 20
91.0723507485
 11
133.5795971386
 21
90.7754358371
  0
LINE
  5
2C3
100
AcDbEntity
  8
0
100
AcDbLine
 62
7
  6
CONTINUOUS
 10
133.5795971386
 20
89.3988290686
 11
133.5795971386
 21
89.070659956
  0
LINE
  5
2C4
100
AcDbEntity
  8
0
100
AcDbLine
 62
7
  6
CONTINUOUS
 10
133.5795971386
 20
88.0378494007
 11
133.5795971386
 21
87.7409344893
  0
LINE
  5
2C5
100
AcDbEntity
  8
0
100
AcDbLine
 62
7
  6
CONTINUOUS
 10
133.5795971386
 20
87.2635969632
 11
133.5795971386
 21
86.9666820518
  0
LINE
  5
2C6
100
AcDbEntity
  8
0
100
AcDbLine
 62
7
  6
CONTINUOUS
 10
133.5795971386
 20
85.7079894956
 11
133.5795971386
 21
84.162325458
  0
LINE
  5
2C7
100
AcDbEntity
  8
0
100
AcDbLine
 62
7
  6
CONTINUOUS
 10
133.5795971386
 20
82.7956636163
 11
133.5795971386
 21
82.0597684714
  0
LINE
  5
2C8
100
AcDbEntity
  8
0
100
AcDbLine
 62
7
  6
CONTINUOUS
 10
133.5795971386
 20
81.7983695163
 11
133.5795971386
 21
81.4673588178
  0
LINE
  5
2C9
100
AcDbEntity
  8
0
100
AcDbLine
 62
7
  6
CONTINUOUS
 10
133.5795971386
 20
80.2527059776
 11
133.5795971386
 21
79.9216952791
  0
LINE
  5
2CA
100
AcDbEntity
  8
0
100
AcDbLine
 62
7
  6
CONTINUOUS
 10
133.5795971386
 20
79.6446692234
 11
133.5795971386
 21
79.3477540625
  0
LINE
  5
2CB
100
AcDbEntity
  8
0
100
AcDbLine
 62
7
  6
CONTINUOUS
 10
133.5795971386
 20
78.7908606146
 11
133.5795971386
 21
78.4939454537
  0
LINE
  5
2CC
100
AcDbEntity
  8
0
100
AcDbLine
 62
7
  6
CONTINUOUS
 10
133.5795971386
 20
77.9356312754
 11
133.5795971386
 21
77.6387161145
  0
LINE
  5
2CD
100
AcDbEntity
  8
0
100
AcDbLine
 62
7
  6
CONTINUOUS
 10
134.4633376178
 20
122.600605269
 11
133.2683449459
 21
119.7966428802
  0
LINE
  5
2CE
100
AcDbEntity
  8
0
100
AcDbLine
 62
7
  6
CONTINUOUS
 10
134.2687317514
 20
121.7839240031
 11
128.8795971386
 21
109.1387161145
  0
LINE
  5
2CF
100
AcDbEntity
  8
0
100
AcDbLine
 62
7
  6
CONTINUOUS
 10
116.7419500495
 20
87.2464991937
 11
116.3884172846
 21
86.5526520753
  0
LINE
  5
2D0
100
AcDbEntity
  8
0
100
AcDbLine
 62
7
  6
CONTINUOUS
 10
118.2825316089
 20
89.1687161145
 11
116.646954916
 21
85.9587161145
  0
LINE
  5
2D1
100
AcDbEntity
  8
0
100
AcDbLine
 62
7
  6
CONTINUOUS
 10
118.9895971386
 20
89.1687161145
 11
117.3540204457
 21
85.9587161145
  0
LINE
  5
2D2
100
AcDbEntity
  8
0
100
AcDbLine
 62
7
  6
CONTINUOUS
 10
154.2507510181
 20
142.7098665532
 11
140.6456415817
 21
126.4959285048
  0
LINE
  5
2D3
100
AcDbEntity
  8
0
100
AcDbLine
 62
7
  6
CONTINUOUS
 10
142.943774911
 20
124.5675656757
 11
156.2491475625
 21
140.4242913338
  0
LINE
  5
2D4
100
AcDbEntity
  8
0
100
AcDbLine
 62
7
  6
CONTINUOUS
 10
131.1295971386
 20
113.7887161145
 11
131.026043748
 21
113.6851627239
  0
LINE
  5
2D5
100
AcDbEntity
  8
0
100
AcDbLine
 62
7
  6
CONTINUOUS
 10
133.5795971386
 20
81.7983695163
 11
130.5795971386
 21
81.0340617561
  0
LINE
  5
2D6
100
AcDbEntity
  8
0
100
AcDbLine
 62
7
  6
CONTINUOUS
 10
132.3290879957
 20
81.1732849933
 11
131.0276623003
 21
80.8607427318
  0
LINE
  5
2D7
100
AcDbEntity
  8
0
100
AcDbLine
 62
7
  6
CONTINUOUS
 10
133.5795971386
 20
81.4673588178
 11
132.7119800381
 21
81.2613651736
  0
LINE
  5
2D8
100
AcDbEntity
  8
0
100
AcDbLine
 62
7
  6
CONTINUOUS
 10
113.5454660792
 20
84.3787161145
 11
126.1454660792
 21
84.3787161145
  0
LINE
  5
2D9
100
AcDbEntity
  8
0
100
AcDbLine
 62
7
  6
CONTINUOUS
 10
130.9624892704
 20
84.4592408683
 11
131.8402895562
 21
84.4592408683
  0
LINE
  5
2DA
100
AcDbEntity
  8
0
100
AcDbLine
 62
7
  6
CONTINUOUS
 10
132.223181688
 20
84.4592408683
 11
133.1967050962
 21
84.4592408683
  0
LINE
  5
2DB
100
AcDbEntity
  8
0
100
AcDbLine
 62
7
  6
CONTINUOUS
 10
114.1754660792
 20
85.0087161145
 11
125.5154660792
 21
85.0087161145
  0
LINE
  5
2DC
100
AcDbEntity
  8
0
100
AcDbLine
 62
7
  6
CONTINUOUS
 10
96.6895971386
 20
85.4787161145
 11
98.2591473282
 21
85.4787161145
  0
LINE
  5
2DD
100
AcDbEntity
  8
0
100
AcDbLine
 62
7
  6
CONTINUOUS
 10
100.6662649341
 20
85.4787161145
 11
101.4091473282
 21
85.4787161145
  0
LINE
  5
2DE
100
AcDbEntity
  8
0
100
AcDbLine
 62
7
  6
CONTINUOUS
 10
131.8402895562
 20
85.6000202101
 11
132.223181688
 21
85.6000202101
  0
LINE
  5
2DF
100
AcDbEntity
  8
0
100
AcDbLine
 62
7
  6
CONTINUOUS
 10
130.5795971386
 20
85.6923618961
 11
130.9624892704
 21
85.6923618961
  0
LINE
  5
2E0
100
AcDbEntity
  8
0
100
AcDbLine
 62
7
  6
CONTINUOUS
 10
133.1967050962
 20
85.7079894956
 11
133.5795971386
 21
85.7079894956
  0
LINE
  5
2E1
100
AcDbEntity
  8
0
100
AcDbLine
 62
7
  6
CONTINUOUS
 10
116.646954916
 20
85.9587161145
 11
117.3540204457
 21
85.9587161145
  0
LINE
  5
2E2
100
AcDbEntity
  8
0
100
AcDbLine
 62
7
  6
CONTINUOUS
 10
119.8695971386
 20
85.9587161145
 11
120.4995971386
 21
85.9587161145
  0
LINE
  5
2E3
100
AcDbEntity
  8
0
100
AcDbLine
 62
7
  6
CONTINUOUS
 10
121.3795971386
 20
85.9587161145
 11
122.0095971386
 21
85.9587161145
  0
LINE
  5
2E4
100
AcDbEntity
  8
0
100
AcDbLine
 62
7
  6
CONTINUOUS
 10
97.6291473282
 20
86.1087161145
 11
96.6895971386
 21
86.1087161145
  0
LINE
  5
2E5
100
AcDbEntity
  8
0
100
AcDbLine
 62
7
  6
CONTINUOUS
 10
130.5795971386
 20
86.9666820518
 11
133.5795971386
 21
86.9666820518
  0
LINE
  5
2E6
100
AcDbEntity
  8
0
100
AcDbLine
 62
7
  6
CONTINUOUS
 10
130.5795971386
 20
87.2635969632
 11
133.5795971386
 21
87.2635969632
  0
LINE
  5
2E7
100
AcDbEntity
  8
0
100
AcDbLine
 62
7
  6
CONTINUOUS
 10
130.5795971386
 20
87.7409344893
 11
133.5795971386
 21
87.7409344893
  0
LINE
  5
2E8
100
AcDbEntity
  8
0
100
AcDbLine
 62
7
  6
CONTINUOUS
 10
98.2591473282
 20
87.8273149244
 11
99.1986975178
 21
87.8273149244
  0
LINE
  5
2E9
100
AcDbEntity
  8
0
100
AcDbLine
 62
7
  6
CONTINUOUS
 10
131.1905950538
 20
88.0378494007
 11
133.5795971386
 21
88.0378494007
  0
LINE
  5
2EA
100
AcDbEntity
  8
0
100
AcDbLine
 62
7
  6
CONTINUOUS
 10
123.3995971386
 20
88.1387161145
 11
123.7695971386
 21
88.1387161145
  0
LINE
  5
2EB
100
AcDbEntity
  8
0
100
AcDbLine
 62
7
  6
CONTINUOUS
 10
99.7795971386
 20
88.4487161145
 11
98.2591473282
 21
88.4487161145
  0
LINE
  5
2EC
100
AcDbEntity
  8
0
100
AcDbLine
 62
7
  6
CONTINUOUS
 10
123.7695971386
 20
88.7887161145
 11
124.3995971386
 21
88.7887161145
  0
LINE
  5
2ED
100
AcDbEntity
  8
0
100
AcDbLine
 62
7
  6
CONTINUOUS
 10
130.5795971386
 20
93.8838109327
 11
133.5795971386
 21
93.119502923
  0
LINE
  5
2EE
100
AcDbEntity
  8
0
100
AcDbLine
 62
7
  6
CONTINUOUS
 10
107.5295971386
 20
109.9521135741
 11
112.7876434667
 21
106.9163791111
  0
LINE
  5
2EF
100
AcDbEntity
  8
0
100
AcDbLine
 62
7
  6
CONTINUOUS
 10
107.6795971386
 20
110.2119211952
 11
112.8465730556
 21
107.2287662586
  0
LINE
  5
2F0
100
AcDbEntity
  8
0
100
AcDbLine
 62
7
  6
CONTINUOUS
 10
114.047648201
 20
117.9502648585
 11
114.0554605662
 21
117.9426367831
  0
LINE
  5
2F1
100
AcDbEntity
  8
0
100
AcDbLine
 62
7
  6
CONTINUOUS
 10
135.2564474046
 20
126.1387161145
 11
135.2564474046
 21
123.1387161145
  0
LINE
  5
2F2
100
AcDbEntity
  8
0
100
AcDbLine
 62
7
  6
CONTINUOUS
 10
135.7232376179
 20
126.1387161145
 11
135.7232376179
 21
123.1387161145
  0
LINE
  5
2F3
100
AcDbEntity
  8
0
100
AcDbLine
 62
7
  6
CONTINUOUS
 10
136.3795971386
 20
107.1387161145
 11
136.3795971386
 21
69.1387161145
  0
LINE
  5
2F4
100
AcDbEntity
  8
0
100
AcDbLine
 62
7
  6
CONTINUOUS
 10
137.5294933695
 20
107.1387161145
 11
137.5294933695
 21
69.1387161145
  0
LINE
  5
2F5
100
AcDbEntity
  8
0
100
AcDbLine
 62
7
  6
CONTINUOUS
 10
137.9993396821
 20
106.8097261801
 11
137.9993396821
 21
69.4677060488
  0
LINE
  5
2F6
100
AcDbEntity
  8
0
100
AcDbLine
 62
7
  6
CONTINUOUS
 10
138.4877950658
 20
70.8097261861
 11
138.4877950658
 21
70.9079883121
  0
LINE
  5
2F7
100
AcDbEntity
  8
0
100
AcDbLine
 62
7
  6
CONTINUOUS
 10
138.4877950658
 20
77.927440717
 11
138.4877950658
 21
81.1192637096
  0
LINE
  5
2F8
100
AcDbEntity
  8
0
100
AcDbLine
 62
7
  6
CONTINUOUS
 10
138.4877950658
 20
95.1581685194
 11
138.4877950658
 21
98.3499915119
  0
LINE
  5
2F9
100
AcDbEntity
  8
0
100
AcDbLine
 62
7
  6
CONTINUOUS
 10
138.4877950658
 20
105.3694439168
 11
138.4877950658
 21
105.4677060428
  0
LINE
  5
2FA
100
AcDbEntity
  8
0
100
AcDbLine
 62
7
  6
CONTINUOUS
 10
138.9576413762
 20
71.1387161145
 11
138.9576413762
 21
71.2243211831
  0
LINE
  5
2FB
100
AcDbEntity
  8
0
100
AcDbLine
 62
7
  6
CONTINUOUS
 10
138.9576413762
 20
78.2059058695
 11
138.9576413762
 21
81.1571314334
  0
LINE
  5
2FC
100
AcDbEntity
  8
0
100
AcDbLine
 62
7
  6
CONTINUOUS
 10
138.9576413762
 20
95.1203007955
 11
138.9576413762
 21
98.0715263594
  0
LINE
  5
2FD
100
AcDbEntity
  8
0
100
AcDbLine
 62
7
  6
CONTINUOUS
 10
138.9576413762
 20
105.0531110458
 11
138.9576413762
 21
105.1387161145
  0
LINE
  5
2FE
100
AcDbEntity
  8
0
100
AcDbLine
 62
7
  6
CONTINUOUS
 10
130.7331505292
 20
109.9422695051
 11
130.276043748
 21
109.4851627239
  0
LINE
  5
2FF
100
AcDbEntity
  8
0
100
AcDbLine
 62
7
  6
CONTINUOUS
 10
130.5795971386
 20
89.1019141572
 11
132.9421226017
 21
89.1019141572
  0
LINE
  5
300
100
AcDbEntity
  8
0
100
AcDbLine
 62
7
  6
CONTINUOUS
 10
115.0554660792
 20
89.1687161145
 11
115.7625316089
 21
89.1687161145
  0
LINE
  5
301
100
AcDbEntity
  8
0
100
AcDbLine
 62
7
  6
CONTINUOUS
 10
118.2825316089
 20
89.1687161145
 11
118.9895971386
 21
89.1687161145
  0
LINE
  5
302
100
AcDbEntity
  8
0
100
AcDbLine
 62
7
  6
CONTINUOUS
 10
119.8695971386
 20
89.1687161145
 11
120.4995971386
 21
89.1687161145
  0
LINE
  5
303
100
AcDbEntity
  8
0
100
AcDbLine
 62
7
  6
CONTINUOUS
 10
121.3795971386
 20
89.1687161145
 11
122.0095971386
 21
89.1687161145
  0
LINE
  5
304
100
AcDbEntity
  8
0
100
AcDbLine
 62
7
  6
CONTINUOUS
 10
130.5795971386
 20
89.3988290686
 11
133.5795971386
 21
89.3988290686
  0
LINE
  5
305
100
AcDbEntity
  8
0
100
AcDbLine
 62
7
  6
CONTINUOUS
 10
119.8695971386
 20
89.7987161145
 11
120.4995971386
 21
89.7987161145
  0
LINE
  5
306
100
AcDbEntity
  8
0
100
AcDbLine
 62
7
  6
CONTINUOUS
 10
96.6895971386
 20
90.2487161145
 11
97.6291473282
 21
90.2487161145
  0
LINE
  5
307
100
AcDbEntity
  8
0
100
AcDbLine
 62
7
  6
CONTINUOUS
 10
98.2591473282
 20
90.2487161145
 11
99.7795971386
 21
90.2487161145
  0
LINE
  5
308
100
AcDbEntity
  8
0
100
AcDbLine
 62
7
  6
CONTINUOUS
 10
119.8695971386
 20
90.4287161145
 11
120.4995971386
 21
90.4287161145
  0
LINE
  5
309
100
AcDbEntity
  8
0
100
AcDbLine
 62
7
  6
CONTINUOUS
 10
130.5795971386
 20
90.7754358371
 11
133.5795971386
 21
90.7754358371
  0
LINE
  5
30A
100
AcDbEntity
  8
0
100
AcDbLine
 62
7
  6
CONTINUOUS
 10
99.7795971386
 20
90.8787161145
 11
96.6895971386
 21
90.8787161145
  0
LINE
  5
30B
100
AcDbEntity
  8
0
100
AcDbLine
 62
7
  6
CONTINUOUS
 10
130.5795971386
 20
91.0723507485
 11
133.5795971386
 21
91.0723507485
  0
LINE
  5
30C
100
AcDbEntity
  8
0
100
AcDbLine
 62
7
  6
CONTINUOUS
 10
114.1754660792
 20
91.3087161145
 11
125.5154660792
 21
91.3087161145
  0
LINE
  5
30D
100
AcDbEntity
  8
0
100
AcDbLine
 62
7
  6
CONTINUOUS
 10
130.5795971386
 20
91.3763692503
 11
130.9624892704
 21
91.3763692503
  0
LINE
  5
30E
100
AcDbEntity
  8
0
100
AcDbLine
 62
7
  6
CONTINUOUS
 10
113.5454660792
 20
91.9387161145
 11
126.1454660792
 21
91.9387161145
  0
LINE
  5
30F
100
AcDbEntity
  8
0
100
AcDbLine
 62
7
  6
CONTINUOUS
 10
130.9624892704
 20
92.062541757
 11
133.5795971386
 21
92.062541757
  0
LINE
  5
310
100
AcDbEntity
  8
0
100
AcDbLine
 62
7
  6
CONTINUOUS
 10
130.9624892704
 20
92.3594566684
 11
133.5795971386
 21
92.3594566684
  0
LINE
  5
311
100
AcDbEntity
  8
0
100
AcDbLine
 62
7
  6
CONTINUOUS
 10
130.5795971386
 20
93.0456291751
 11
130.9624892704
 21
93.0456291751
  0
LINE
  5
312
100
AcDbEntity
  8
0
100
AcDbLine
 62
7
  6
CONTINUOUS
 10
132.7119800381
 20
93.6565070162
 11
133.5795971386
 21
93.4505138709
  0
LINE
  5
313
100
AcDbEntity
  8
0
100
AcDbLine
 62
7
  6
CONTINUOUS
 10
131.0276623003
 20
94.0585508746
 11
132.3290879957
 21
93.7445879449
  0
LINE
  5
314
100
AcDbEntity
  8
0
100
AcDbLine
 62
7
  6
CONTINUOUS
 10
130.5795971386
 20
98.2764511108
 11
132.0093323819
 21
97.6883029629
  0
LINE
  5
315
100
AcDbEntity
  8
0
100
AcDbLine
 62
7
  6
CONTINUOUS
 10
130.5795971386
 20
98.6387152621
 11
132.3962977163
 21
97.8360504587
  0
LINE
  5
316
100
AcDbEntity
  8
0
100
AcDbLine
 62
7
  6
CONTINUOUS
 10
114.0421067338
 20
117.954542939
 11
114.047648201
 21
117.9502648585
  0
LINE
  5
317
100
AcDbEntity
  8
0
100
AcDbLine
 62
7
  6
CONTINUOUS
 10
123.8795971386
 20
116.1387161145
 11
117.3519915356
 21
123.1387161145
  0
LINE
  5
318
100
AcDbEntity
  8
0
100
AcDbLine
 62
7
  6
CONTINUOUS
 10
118.8989838838
 20
122.1877699245
 11
118.0122122155
 21
123.1387161145
  0
LINE
  5
319
100
AcDbEntity
  8
0
100
AcDbLine
 62
7
  6
CONTINUOUS
 10
138.4877950658
 20
105.4677060428
 11
137.9993396817
 21
106.8097261811
  0
LINE
  5
31A
100
AcDbEntity
  8
GEOM
100
AcDbLine
 62
7
  6
CONTINUOUS
 10
149.5135717348
 20
95.1208361363
 11
138.9732607799
 21
95.1208361363
  0
LINE
  5
31B
100
AcDbEntity
  8
0
100
AcDbLine
 62
7
  6
CONTINUOUS
 10
102.91001432
 20
95.1208361363
 11
93.2456225424
 21
95.1208361363
  0
LINE
  5
31C
100
AcDbEntity
  8
0
100
AcDbLine
 62
7
  6
CONTINUOUS
 10
130.5795971386
 20
95.2746248819
 11
133.5795971386
 21
95.2746248819
  0
LINE
  5
31D
100
AcDbEntity
  8
0
100
AcDbLine
 62
7
  6
CONTINUOUS
 10
130.5795971386
 20
95.5715387955
 11
133.1967050962
 21
95.5715387955
  0
LINE
  5
31E
100
AcDbEntity
  8
0
100
AcDbLine
 62
7
  6
CONTINUOUS
 10
133.1967050962
 20
96.6142947764
 11
133.5795971386
 21
96.6142947764
  0
LINE
  5
31F
100
AcDbEntity
  8
0
100
AcDbLine
 62
7
  6
CONTINUOUS
 10
132.3962977163
 20
97.5391345494
 11
133.5795971386
 21
97.5391345494
  0
LINE
  5
320
100
AcDbEntity
  8
0
100
AcDbLine
 62
7
  6
CONTINUOUS
 10
132.3962977163
 20
97.8360504587
 11
133.5795971386
 21
97.8360504587
  0
LINE
  5
321
100
AcDbEntity
  8
GEOM
100
AcDbLine
 62
7
  6
CONTINUOUS
 10
149.5135717348
 20
98.0710498622
 11
138.9732608172
 21
98.0710498622
  0
LINE
  5
322
100
AcDbEntity
  8
0
100
AcDbLine
 62
7
  6
CONTINUOUS
 10
102.91001432
 20
98.0710498622
 11
93.2456225424
 21
98.0710498622
  0
LWPOLYLINE
  5
323
100
AcDbEntity
  8
0
100
AcDbPolyline
 62
7
  6
CONTINUOUS
 90
3
 70
0
 10
114.0369058618
 20
117.9577159409
 10
114.0382173059
 20
117.9570036417
 10
114.0421067338
 20
117.954542939
  0
LINE
  5
324
100
AcDbEntity
  8
0
100
AcDbLine
 62
7
  6
CONTINUOUS
 10
133.5795971386
 20
94.9961769107
 11
130.5795971386
 21
94.231868901
  0
LINE
  5
325
100
AcDbEntity
  8
0
100
AcDbLine
 62
7
  6
CONTINUOUS
 10
132.3290879957
 20
94.3710928867
 11
131.0276623003
 21
94.0585508746
  0
LINE
  5
326
100
AcDbEntity
  8
0
100
AcDbLine
 62
7
  6
CONTINUOUS
 10
133.5795971386
 20
94.6651669606
 11
132.7119800381
 21
94.4591718197
  0
LINE
  5
327
100
AcDbEntity
  8
0
100
AcDbLine
 62
7
  6
CONTINUOUS
 10
108.5482262887
 20
103.1387161145
 11
104.8414773539
 21
103.1387161145
  0
LINE
  5
328
100
AcDbEntity
  8
0
100
AcDbLine
 62
7
  6
CONTINUOUS
 10
114.0191461035
 20
117.9669749094
 11
114.0323139911
 21
117.9601096009
  0
LINE
  5
329
100
AcDbEntity
  8
0
100
AcDbLine
 62
7
  6
CONTINUOUS
 10
114.0370896066
 20
117.9576197502
 11
114.0369058618
 21
117.9577159409
  0
LINE
  5
32A
100
AcDbEntity
  8
0
100
AcDbLine
 62
7
  6
CONTINUOUS
 10
127.0859362363
 20
126.2387161145
 11
127.1817557961
 21
126.1387161145
  0
LINE
  5
32B
100
AcDbEntity
  8
GEOM
100
AcDbLine
 62
7
  6
CONTINUOUS
 10
149.5135717348
 20
71.1387161145
 11
149.5135717348
 21
71.2242623449
  0
LINE
  5
32C
100
AcDbEntity
  8
GEOM
100
AcDbLine
 62
7
  6
CONTINUOUS
 10
149.5135717348
 20
78.2063823667
 11
149.5135717348
 21
81.1565960926
  0
LINE
  5
32D
100
AcDbEntity
  8
GEOM
100
AcDbLine
 62
7
  6
CONTINUOUS
 10
149.5135717348
 20
95.1208361363
 11
149.5135717348
 21
98.0710498622
  0
LINE
  5
32E
100
AcDbEntity
  8
GEOM
100
AcDbLine
 62
7
  6
CONTINUOUS
 10
149.5135717348
 20
105.0531698841
 11
149.5135717348
 21
105.1387161145
  0
LINE
  5
32F
100
AcDbEntity
  8
GEOM
100
AcDbLine
 62
7
  6
CONTINUOUS
 10
150.3795971386
 20
72.6388984702
 11
150.3795971386
 21
103.6385337587
  0
LINE
  5
330
100
AcDbEntity
  8
0
100
AcDbLine
 62
7
  6
CONTINUOUS
 10
138.4877950658
 20
70.8097261861
 11
137.9993396817
 21
69.4677060479
  0
LINE
  5
331
100
AcDbEntity
  8
GEOM
100
AcDbLine
 62
7
  6
CONTINUOUS
 10
149.5135717348
 20
105.0531698841
 11
138.9732608069
 21
105.0531698841
  0
LINE
  5
332
100
AcDbEntity
  8
0
100
AcDbLine
 62
7
  6
CONTINUOUS
 10
102.91001432
 20
105.0531698841
 11
93.2456225424
 21
105.0531698841
  0
LINE
  5
333
100
AcDbEntity
  8
0
100
AcDbLine
 62
7
  6
CONTINUOUS
 10
149.5135717348
 20
105.1387161145
 11
138.9576413762
 21
105.1387161145
  0
LINE
  5
334
100
AcDbEntity
  8
0
100
AcDbLine
 62
7
  6
CONTINUOUS
 10
102.9362214656
 20
105.1387161145
 11
93.2456225424
 21
105.1387161145
  0
LINE
  5
335
100
AcDbEntity
  8
0
100
AcDbLine
 62
7
  6
CONTINUOUS
 10
137.5294933695
 20
107.1387161145
 11
130.9295971386
 21
107.1387161145
  0
LINE
  5
336
100
AcDbEntity
  8
0
100
AcDbLine
 62
7
  6
CONTINUOUS
 10
112.8465730556
 20
107.2287662586
 11
113.037255158
 21
107.2287662586
  0
LINE
  5
337
100
AcDbEntity
  8
0
100
AcDbLine
 62
7
  6
CONTINUOUS
 10
115.3795971386
 20
126.2387161145
 11
115.5510789207
 21
126.1387161145
  0
LINE
  5
338
100
AcDbEntity
  8
GEOM
100
AcDbLine
 62
7
  6
CONTINUOUS
 10
150.3795971386
 20
103.6387161145
 11
149.5135717348
 21
105.1387161145
  0
LINE
  5
339
100
AcDbEntity
  8
0
100
AcDbLine
 62
7
  6
CONTINUOUS
 10
155.8795971386
 20
141.4753911564
 11
155.8795971386
 21
143.8020410725
  0
LINE
  5
33A
100
AcDbEntity
  8
0
100
AcDbLine
 62
7
  6
CONTINUOUS
 10
155.8795971386
 20
144.1387161145
 11
155.8795971386
 21
144.3387161145
  0
LINE
  5
33B
100
AcDbEntity
  8
0
100
AcDbLine
 62
7
  6
CONTINUOUS
 10
157.1795971386
 20
139.6387161145
 11
157.1795971386
 21
145.6387161145
  0
LINE
  5
33C
100
AcDbEntity
  8
GEOM
100
AcDbLine
 62
7
  6
CONTINUOUS
 10
157.8795971386
 20
145.6387161145
 11
157.8795971386
 21
145.6487161145
  0
LINE
  5
33D
100
AcDbEntity
  8
0
100
AcDbLine
 62
7
  6
CONTINUOUS
 10
132.3962977163
 20
97.5391345494
 11
130.5795971386
 21
96.736469746
  0
LINE
  5
33E
100
AcDbEntity
  8
0
100
AcDbLine
 62
7
  6
CONTINUOUS
 10
132.0093323819
 20
97.6883029629
 11
130.5795971386
 21
97.0987338973
  0
LINE
  5
33F
100
AcDbEntity
  8
0
100
AcDbLine
 62
7
  6
CONTINUOUS
 10
130.1295971386
 20
109.1316093333
 11
128.9221155286
 21
109.1316093333
  0
LINE
  5
340
100
AcDbEntity
  8
0
100
AcDbLine
 62
7
  6
CONTINUOUS
 10
112.8465730556
 20
109.1316093333
 11
123.8795971386
 21
109.1316093333
  0
LINE
  5
341
100
AcDbEntity
  8
0
100
AcDbLine
 62
7
  6
CONTINUOUS
 10
107.8795971386
 20
109.1387161145
 11
108.9384428654
 21
109.1387161145
  0
LINE
  5
342
100
AcDbEntity
  8
0
100
AcDbLine
 62
7
  6
CONTINUOUS
 10
123.8795971386
 20
109.1387161145
 11
128.8795971386
 21
109.1387161145
  0
LINE
  5
343
100
AcDbEntity
  8
0
100
AcDbLine
 62
7
  6
CONTINUOUS
 10
112.8894192841
 20
109.4851627239
 11
123.8795971386
 21
109.4851627239
  0
LINE
  5
344
100
AcDbEntity
  8
0
100
AcDbLine
 62
7
  6
CONTINUOUS
 10
129.0272457522
 20
109.4851627239
 11
130.276043748
 21
109.4851627239
  0
LINE
  5
345
100
AcDbEntity
  8
0
100
AcDbLine
 62
7
  6
CONTINUOUS
 10
130.7331505292
 20
109.9422695051
 11
129.2220555172
 21
109.9422695051
  0
LINE
  5
346
100
AcDbEntity
  8
0
100
AcDbLine
 62
7
  6
CONTINUOUS
 10
123.8795971386
 20
109.9422695051
 11
112.4121837297
 21
109.9422695051
  0
LINE
  5
347
100
AcDbEntity
  8
0
100
AcDbLine
 62
7
  6
CONTINUOUS
 10
107.6795971386
 20
110.2119211952
 11
107.3795971386
 21
110.2119211952
  0
LINE
  5
348
100
AcDbEntity
  8
0
100
AcDbLine
 62
7
  6
CONTINUOUS
 10
112.0629453795
 20
110.2958228956
 11
123.8795971386
 21
110.2958228956
  0
LINE
  5
349
100
AcDbEntity
  8
0
100
AcDbLine
 62
7
  6
CONTINUOUS
 10
129.3727328988
 20
110.2958228956
 11
130.8795971386
 21
110.2958228956
  0
LINE
  5
34A
100
AcDbEntity
  8
0
100
AcDbLine
 62
7
  6
CONTINUOUS
 10
107.3795971386
 20
112.7387161145
 11
112.255041292
 21
112.7387161145
  0
LINE
  5
34B
100
AcDbEntity
  8
0
100
AcDbLine
 62
7
  6
CONTINUOUS
 10
125.9983992921
 20
128.0361510629
 11
127.0795971386
 21
127.4119211952
  0
LINE
  5
34C
100
AcDbEntity
  8
GEOM
100
AcDbLine
 62
7
  6
CONTINUOUS
 10
159.0323938839
 20
145.6387161145
 11
159.0323938839
 21
145.6487161145
  0
LINE
  5
34D
100
AcDbEntity
  8
GEOM
100
AcDbLine
 62
7
  6
CONTINUOUS
 10
159.8795971386
 20
145.6387161145
 11
159.8795971386
 21
145.6487161145
  0
LINE
  5
34E
100
AcDbEntity
  8
GEOM
100
AcDbLine
 62
7
  6
CONTINUOUS
 10
160.5703069078
 20
145.6387161145
 11
160.5703069078
 21
145.6487161145
  0
LINE
  5
34F
100
AcDbEntity
  8
GEOM
100
AcDbLine
 62
7
  6
CONTINUOUS
 10
161.5226346528
 20
145.6387161145
 11
161.5226346528
 21
145.6487161145
  0
LINE
  5
350
100
AcDbEntity
  8
GEOM
100
AcDbLine
 62
7
  6
CONTINUOUS
 10
162.0911374195
 20
145.6387161145
 11
162.0911374195
 21
145.6487161145
  0
LINE
  5
351
100
AcDbEntity
  8
GEOM
100
AcDbLine
 62
7
  6
CONTINUOUS
 10
162.1520535979
 20
145.6387161145
 11
162.1520535979
 21
145.6487161145
  0
LINE
  5
352
100
AcDbEntity
  8
0
100
AcDbLine
 62
7
  6
CONTINUOUS
 10
132.9421226017
 20
89.1019141572
 11
130.5795971386
 21
88.0691036019
  0
LINE
  5
353
100
AcDbEntity
  8
0
100
AcDbLine
 62
7
  6
CONTINUOUS
 10
133.5795971386
 20
89.070659956
 11
131.1905950538
 21
88.0378494007
  0
LINE
  5
354
100
AcDbEntity
  8
0
100
AcDbLine
 62
7
  6
CONTINUOUS
 10
111.9323753247
 20
113.0387161145
 11
107.6795971386
 21
113.0387161145
  0
LINE
  5
355
100
AcDbEntity
  8
0
100
AcDbLine
 62
7
  6
CONTINUOUS
 10
111.8795971386
 20
113.2387161145
 11
112.1271634034
 21
113.2387161145
  0
LINE
  5
356
100
AcDbEntity
  8
0
100
AcDbLine
 62
7
  6
CONTINUOUS
 10
130.8795971386
 20
113.3316093333
 11
130.6665243423
 21
113.3316093333
  0
LINE
  5
357
100
AcDbEntity
  8
0
100
AcDbLine
 62
7
  6
CONTINUOUS
 10
123.8795971386
 20
113.3316093333
 11
111.8795971386
 21
113.3316093333
  0
LINE
  5
358
100
AcDbEntity
  8
0
100
AcDbLine
 62
7
  6
CONTINUOUS
 10
123.8795971386
 20
113.6851627002
 11
111.7331505292
 21
113.6851627239
  0
LINE
  5
359
100
AcDbEntity
  8
0
100
AcDbLine
 62
7
  6
CONTINUOUS
 10
131.026043748
 20
113.6851627239
 11
130.8172015175
 21
113.6851622395
  0
LINE
  5
35A
100
AcDbEntity
  8
0
100
AcDbLine
 62
7
  6
CONTINUOUS
 10
131.1295971386
 20
113.7887161145
 11
130.8613341072
 21
113.7887161145
  0
LINE
  5
35B
100
AcDbEntity
  8
0
100
AcDbLine
 62
7
  6
CONTINUOUS
 10
123.8795971386
 20
113.7887161145
 11
111.6295971386
 21
113.7887161145
  0
LINE
  5
35C
100
AcDbEntity
  8
0
100
AcDbLine
 62
7
  6
CONTINUOUS
 10
107.8795971386
 20
116.1387161145
 11
110.8795971386
 21
116.1387161145
  0
LINE
  5
35D
100
AcDbEntity
  8
0
100
AcDbLine
 62
7
  6
CONTINUOUS
 10
111.6295971386
 20
116.7387161145
 11
123.3200880869
 21
116.7387161145
  0
LINE
  5
35E
100
AcDbEntity
  8
0
100
AcDbLine
 62
7
  6
CONTINUOUS
 10
111.9295971386
 20
117.0387161145
 11
123.040333561
 21
117.0387161145
  0
LINE
  5
35F
100
AcDbEntity
  8
0
100
AcDbLine
 62
7
  6
CONTINUOUS
 10
113.3795971386
 20
117.3387161145
 11
122.6875550398
 21
117.3387161145
  0
LINE
  5
360
100
AcDbEntity
  8
0
100
AcDbLine
 62
7
  6
CONTINUOUS
 10
115.6732580408
 20
126.2387161145
 11
116.0952553333
 21
126.1387161145
  0
LINE
  5
361
100
AcDbEntity
  8
0
100
AcDbLine
 62
7
  6
CONTINUOUS
 10
125.9983992921
 20
130.8814505245
 11
125.3795971386
 21
131.2387161145
  0
LINE
  5
362
100
AcDbEntity
  8
GEOM
100
AcDbLine
 62
7
  6
CONTINUOUS
 10
163.5079811692
 20
145.6387161145
 11
163.5079811692
 21
145.6487161145
  0
LINE
  5
363
100
AcDbEntity
  8
GEOM
100
AcDbLine
 62
7
  6
CONTINUOUS
 10
163.5688008849
 20
145.6387161145
 11
163.5688008849
 21
145.6487161145
  0
LINE
  5
364
100
AcDbEntity
  8
GEOM
100
AcDbLine
 62
7
  6
CONTINUOUS
 10
164.1479627771
 20
145.6387161145
 11
164.1479627771
 21
145.6487161145
  0
LINE
  5
365
100
AcDbEntity
  8
GEOM
100
AcDbLine
 62
7
  6
CONTINUOUS
 10
165.079792204
 20
145.6387161145
 11
165.079792204
 21
145.6487161145
  0
LINE
  5
366
100
AcDbEntity
  8
GEOM
100
AcDbLine
 62
7
  6
CONTINUOUS
 10
165.804564502
 20
145.6387161145
 11
165.804564502
 21
145.6487161145
  0
LINE
  5
367
100
AcDbEntity
  8
GEOM
100
AcDbLine
 62
7
  6
CONTINUOUS
 10
166.4409528753
 20
145.6387161145
 11
166.4409528753
 21
145.6487161145
  0
LINE
  5
368
100
AcDbEntity
  8
GEOM
100
AcDbLine
 62
7
  6
CONTINUOUS
 10
167.0750743758
 20
145.6387161145
 11
167.0750743758
 21
145.6487161145
  0
LINE
  5
369
100
AcDbEntity
  8
0
100
AcDbLine
 62
7
  6
CONTINUOUS
 10
114.0795971386
 20
118.0387161145
 11
122.1078221089
 21
118.0387161145
  0
LINE
  5
36A
100
AcDbEntity
  8
0
100
AcDbLine
 62
7
  6
CONTINUOUS
 10
118.1682889939
 20
120.6057034126
 11
117.3560860863
 21
120.6057034126
  0
LINE
  5
36B
100
AcDbEntity
  8
0
100
AcDbLine
 62
7
  6
CONTINUOUS
 10
114.1447779416
 20
120.6057034126
 11
114.1295971386
 21
120.6057034126
  0
LINE
  5
36C
100
AcDbEntity
  8
0
100
AcDbLine
 62
7
  6
CONTINUOUS
 10
119.3102732165
 20
121.0387161145
 11
114.8795971386
 21
121.0387161145
  0
LINE
  5
36D
100
AcDbEntity
  8
0
100
AcDbLine
 62
7
  6
CONTINUOUS
 10
119.5254951723
 20
126.2387161145
 11
120.3753241579
 21
126.1387161145
  0
LINE
  5
36E
100
AcDbEntity
  8
0
100
AcDbLine
 62
7
  6
CONTINUOUS
 10
117.8528856248
 20
126.2387161145
 11
118.631511147
 21
126.1387161145
  0
LINE
  5
36F
100
AcDbEntity
  8
0
100
AcDbLine
 62
7
  6
CONTINUOUS
 10
123.2336991048
 20
126.2387161145
 11
123.9775465206
 21
126.1387161145
  0
LINE
  5
370
100
AcDbEntity
  8
0
100
AcDbLine
 62
7
  6
CONTINUOUS
 10
116.5254951723
 20
126.2387161145
 11
117.1566999399
 21
126.1387161145
  0
LINE
  5
371
100
AcDbEntity
  8
0
100
AcDbLine
 62
7
  6
CONTINUOUS
 10
124.9063086523
 20
126.2387161145
 11
125.4833452493
 21
126.1387161145
  0
LINE
  5
372
100
AcDbEntity
  8
0
100
AcDbLine
 62
7
  6
CONTINUOUS
 10
126.2336991048
 20
126.2387161145
 11
126.5874405204
 21
126.1387161145
  0
LINE
  5
373
100
AcDbEntity
  8
GEOM
100
AcDbLine
 62
7
  6
CONTINUOUS
 10
167.7529658144
 20
145.6387161145
 11
167.7529658144
 21
145.6487161145
  0
LINE
  5
374
100
AcDbEntity
  8
GEOM
100
AcDbLine
 62
7
  6
CONTINUOUS
 10
168.4812107686
 20
145.6387161145
 11
168.4812107686
 21
145.6487161145
  0
LINE
  5
375
100
AcDbEntity
  8
GEOM
100
AcDbLine
 62
7
  6
CONTINUOUS
 10
169.8872024675
 20
145.6387161145
 11
169.8872024675
 21
145.6487161145
  0
LINE
  5
376
100
AcDbEntity
  8
GEOM
100
AcDbLine
 62
7
  6
CONTINUOUS
 10
170.8358646309
 20
145.6387161145
 11
170.8358646309
 21
145.6487161145
  0
LINE
  5
377
100
AcDbEntity
  8
GEOM
100
AcDbLine
 62
7
  6
CONTINUOUS
 10
171.4461839667
 20
145.6387161145
 11
171.4461839667
 21
145.6487161145
  0
LINE
  5
378
100
AcDbEntity
  8
GEOM
100
AcDbLine
 62
7
  6
CONTINUOUS
 10
172.0812942096
 20
145.6387161145
 11
172.0812942096
 21
145.6487161145
  0
LINE
  5
379
100
AcDbEntity
  8
GEOM
100
AcDbLine
 62
7
  6
CONTINUOUS
 10
150.3795971386
 20
72.6387161145
 11
149.5135717348
 21
71.1387161145
  0
LINE
  5
37A
100
AcDbEntity
  8
0
100
AcDbLine
 62
7
  6
CONTINUOUS
 10
116.8795971386
 20
122.6387161145
 11
117.8182490787
 21
122.6387161145
  0
LINE
  5
37B
100
AcDbEntity
  8
0
100
AcDbLine
 62
7
  6
CONTINUOUS
 10
109.0964791468
 20
123.1387161145
 11
118.0122122155
 21
123.1387161145
  0
LINE
  5
37C
100
AcDbEntity
  8
0
100
AcDbLine
 62
7
  6
CONTINUOUS
 10
118.8989838838
 20
123.1387161145
 11
133.2683449459
 21
123.1387161145
  0
LINE
  5
37D
100
AcDbEntity
  8
0
100
AcDbLine
 62
7
  6
CONTINUOUS
 10
134.803801086
 20
123.1387161145
 11
139.8795971386
 21
123.1387161145
  0
LINE
  5
37E
100
AcDbEntity
  8
0
100
AcDbLine
 62
7
  6
CONTINUOUS
 10
110.8795971386
 20
126.1387161145
 11
139.8795971386
 21
126.1387161145
  0
LINE
  5
37F
100
AcDbEntity
  8
0
100
AcDbLine
 62
7
  6
CONTINUOUS
 10
127.3795971386
 20
126.2387161145
 11
115.3795971472
 21
126.2387161145
  0
LINE
  5
380
100
AcDbEntity
  8
0
100
AcDbLine
 62
7
  6
CONTINUOUS
 10
115.3795971386
 20
126.8923059529
 11
127.3795971386
 21
126.8923059529
  0
LINE
  5
381
100
AcDbEntity
  8
0
100
AcDbLine
 62
7
  6
CONTINUOUS
 10
121.3795971386
 20
126.2387161145
 11
122.2174424054
 21
126.1387161145
  0
LINE
  5
382
100
AcDbEntity
  8
GEOM
100
AcDbLine
 62
7
  6
CONTINUOUS
 10
172.9099085757
 20
145.6387161145
 11
172.9099085757
 21
145.6487161145
  0
LINE
  5
383
100
AcDbEntity
  8
GEOM
100
AcDbLine
 62
7
  6
CONTINUOUS
 10
173.4654371129
 20
145.6387161145
 11
173.4654371129
 21
145.6487161145
  0
LINE
  5
384
100
AcDbEntity
  8
GEOM
100
AcDbLine
 62
7
  6
CONTINUOUS
 10
174.0369302226
 20
145.6387161145
 11
174.0369302226
 21
145.6487161145
  0
LINE
  5
385
100
AcDbEntity
  8
GEOM
100
AcDbLine
 62
7
  6
CONTINUOUS
 10
174.7276994281
 20
145.6387161145
 11
174.7276994281
 21
145.6487161145
  0
LINE
  5
386
100
AcDbEntity
  8
GEOM
100
AcDbLine
 62
7
  6
CONTINUOUS
 10
175.353645717
 20
145.6387161145
 11
175.353645717
 21
145.6487161145
  0
LINE
  5
387
100
AcDbEntity
  8
GEOM
100
AcDbLine
 62
7
  6
CONTINUOUS
 10
175.9829681995
 20
145.6387161145
 11
175.9829681995
 21
145.6487161145
  0
LINE
  5
388
100
AcDbEntity
  8
GEOM
100
AcDbLine
 62
7
  6
CONTINUOUS
 10
176.7011328043
 20
145.6387161145
 11
176.7011328043
 21
145.6487161145
  0
LINE
  5
389
100
AcDbEntity
  8
0
100
AcDbLine
 62
7
  6
CONTINUOUS
 10
115.6795971386
 20
127.4119211952
 11
127.0795971386
 21
127.4119211952
  0
LINE
  5
38A
100
AcDbEntity
  8
0
100
AcDbLine
 62
7
  6
CONTINUOUS
 10
117.3796442144
 20
131.2387161145
 11
125.3795500627
 21
131.2387161145
  0
LINE
  5
38B
100
AcDbEntity
  8
GEOM
100
AcDbLine
 62
7
  6
CONTINUOUS
 10
177.6535087807
 20
145.6387161145
 11
177.6535087807
 21
145.6487161145
  0
LINE
  5
38C
100
AcDbEntity
  8
GEOM
100
AcDbLine
 62
7
  6
CONTINUOUS
 10
178.2220597788
 20
145.6387161145
 11
178.2220597788
 21
145.6487161145
  0
LINE
  5
38D
100
AcDbEntity
  8
GEOM
100
AcDbLine
 62
7
  6
CONTINUOUS
 10
178.2829277258
 20
145.6387161145
 11
178.2829277258
 21
145.6487161145
  0
LINE
  5
38E
100
AcDbEntity
  8
GEOM
100
AcDbLine
 62
7
  6
CONTINUOUS
 10
179.6389035284
 20
145.6387161145
 11
179.6389035284
 21
145.6487161145
  0
LINE
  5
38F
100
AcDbEntity
  8
GEOM
100
AcDbLine
 62
7
  6
CONTINUOUS
 10
179.6997714755
 20
145.6387161145
 11
179.6997714755
 21
145.6487161145
  0
LINE
  5
390
100
AcDbEntity
  8
GEOM
100
AcDbLine
 62
7
  6
CONTINUOUS
 10
180.278836905
 20
145.6387161145
 11
180.278836905
 21
145.6487161145
  0
LINE
  5
391
100
AcDbEntity
  8
GEOM
100
AcDbLine
 62
7
  6
CONTINUOUS
 10
181.1795971386
 20
145.6387161145
 11
181.1795971386
 21
145.6987161145
  0
LINE
  5
392
100
AcDbEntity
  8
GEOM
100
AcDbLine
 62
7
  6
CONTINUOUS
 10
181.377541143
 20
145.6387161145
 11
181.377541143
 21
145.6987161145
  0
LINE
  5
393
100
AcDbEntity
  8
GEOM
100
AcDbLine
 62
7
  6
CONTINUOUS
 10
181.7611851758
 20
145.6387161145
 11
181.7611851758
 21
145.6987161145
  0
LINE
  5
394
100
AcDbEntity
  8
GEOM
100
AcDbLine
 62
7
  6
CONTINUOUS
 10
182.1996514952
 20
145.6387161145
 11
182.1996514952
 21
145.6987161145
  0
LINE
  5
395
100
AcDbEntity
  8
GEOM
100
AcDbLine
 62
7
  6
CONTINUOUS
 10
182.3213462939
 20
145.6387161145
 11
182.3213462939
 21
145.6987161145
  0
LINE
  5
396
100
AcDbEntity
  8
GEOM
100
AcDbLine
 62
7
  6
CONTINUOUS
 10
182.39329871
 20
145.6387161145
 11
182.39329871
 21
145.6487161145
  0
LINE
  5
397
100
AcDbEntity
  8
GEOM
100
AcDbLine
 62
7
  6
CONTINUOUS
 10
182.5488799053
 20
145.6387161145
 11
182.5488799053
 21
145.6987161145
  0
LINE
  5
398
100
AcDbEntity
  8
GEOM
100
AcDbLine
 62
7
  6
CONTINUOUS
 10
182.7192748577
 20
145.6387161145
 11
182.7192748577
 21
145.6987161145
  0
LINE
  5
399
100
AcDbEntity
  8
GEOM
100
AcDbLine
 62
7
  6
CONTINUOUS
 10
183.0202722807
 20
145.6387161145
 11
183.0202722807
 21
145.6987161145
  0
LINE
  5
39A
100
AcDbEntity
  8
GEOM
100
AcDbLine
 62
7
  6
CONTINUOUS
 10
183.3511126407
 20
145.6387161145
 11
183.3511126407
 21
145.6987161145
  0
LINE
  5
39B
100
AcDbEntity
  8
GEOM
100
AcDbLine
 62
7
  6
CONTINUOUS
 10
183.4886037234
 20
145.6387161145
 11
183.4886037234
 21
145.6987161145
  0
LINE
  5
39C
100
AcDbEntity
  8
GEOM
100
AcDbLine
 62
7
  6
CONTINUOUS
 10
183.6735995452
 20
145.6387161145
 11
183.6735995452
 21
145.6487161145
  0
LINE
  5
39D
100
AcDbEntity
  8
GEOM
100
AcDbLine
 62
7
  6
CONTINUOUS
 10
183.6739371646
 20
145.6387161145
 11
183.6739371646
 21
145.6487161145
  0
LINE
  5
39E
100
AcDbEntity
  8
GEOM
100
AcDbLine
 62
7
  6
CONTINUOUS
 10
184.3099693368
 20
145.6387161145
 11
184.3099693368
 21
145.6987161145
  0
LINE
  5
39F
100
AcDbEntity
  8
GEOM
100
AcDbLine
 62
7
  6
CONTINUOUS
 10
184.5007710423
 20
145.6387161145
 11
184.5007710423
 21
145.6987161145
  0
LINE
  5
3A0
100
AcDbEntity
  8
GEOM
100
AcDbLine
 62
7
  6
CONTINUOUS
 10
184.9333907118
 20
145.6387161145
 11
184.9333907118
 21
145.6987161145
  0
LINE
  5
3A1
100
AcDbEntity
  8
GEOM
100
AcDbLine
 62
7
  6
CONTINUOUS
 10
185.1119483298
 20
145.6387161145
 11
185.1119483298
 21
145.6987161145
  0
LINE
  5
3A2
100
AcDbEntity
  8
GEOM
100
AcDbLine
 62
7
  6
CONTINUOUS
 10
185.5466089777
 20
145.6387161145
 11
185.5466089777
 21
145.6987161145
  0
LINE
  5
3A3
100
AcDbEntity
  8
GEOM
100
AcDbLine
 62
7
  6
CONTINUOUS
 10
185.7374106832
 20
145.6387161145
 11
185.7374106832
 21
145.6987161145
  0
LINE
  5
3A4
100
AcDbEntity
  8
GEOM
100
AcDbLine
 62
7
  6
CONTINUOUS
 10
185.97106616
 20
145.6387161145
 11
185.97106616
 21
145.6987161145
  0
LINE
  5
3A5
100
AcDbEntity
  8
GEOM
100
AcDbLine
 62
7
  6
CONTINUOUS
 10
186.0667450938
 20
145.6387161145
 11
186.0667450938
 21
145.6987161145
  0
LINE
  5
3A6
100
AcDbEntity
  8
GEOM
100
AcDbLine
 62
7
  6
CONTINUOUS
 10
186.341446151
 20
145.6387161145
 11
186.341446151
 21
145.6987161145
  0
LINE
  5
3A7
100
AcDbEntity
  8
GEOM
100
AcDbLine
 62
7
  6
CONTINUOUS
 10
186.5434712762
 20
145.6387161145
 11
186.5434712762
 21
145.6987161145
  0
LINE
  5
3A8
100
AcDbEntity
  8
0
100
AcDbLine
 62
7
  6
CONTINUOUS
 10
157.1795971386
 20
139.6387161145
 11
210.3795971386
 21
139.6387161145
  0
LINE
  5
3A9
100
AcDbEntity
  8
GEOM
100
AcDbLine
 62
7
  6
CONTINUOUS
 10
186.7403948474
 20
145.6387161145
 11
186.7403948474
 21
145.6987161145
  0
LINE
  5
3AA
100
AcDbEntity
  8
GEOM
100
AcDbLine
 62
7
  6
CONTINUOUS
 10
186.7771267532
 20
145.6387161145
 11
186.7771267532
 21
145.6987161145
  0
LINE
  5
3AB
100
AcDbEntity
  8
GEOM
100
AcDbLine
 62
7
  6
CONTINUOUS
 10
186.9689487696
 20
145.6387161145
 11
186.9689487696
 21
145.6987161145
  0
LINE
  5
3AC
100
AcDbEntity
  8
GEOM
100
AcDbLine
 62
7
  6
CONTINUOUS
 10
187.0730226217
 20
145.6387161145
 11
187.0730226217
 21
145.6987161145
  0
LINE
  5
3AD
100
AcDbEntity
  8
GEOM
100
AcDbLine
 62
7
  6
CONTINUOUS
 10
187.2954546785
 20
145.6387161145
 11
187.2954546785
 21
145.6987161145
  0
LINE
  5
3AE
100
AcDbEntity
  8
GEOM
100
AcDbLine
 62
7
  6
CONTINUOUS
 10
187.5801267704
 20
145.6387161145
 11
187.5801267704
 21
145.6987161145
  0
LINE
  5
3AF
100
AcDbEntity
  8
GEOM
100
AcDbLine
 62
7
  6
CONTINUOUS
 10
187.6393055161
 20
145.6387161145
 11
187.6393055161
 21
145.6987161145
  0
LINE
  5
3B0
100
AcDbEntity
  8
GEOM
100
AcDbLine
 62
7
  6
CONTINUOUS
 10
187.8617375729
 20
145.6387161145
 11
187.8617375729
 21
145.6987161145
  0
LINE
  5
3B1
100
AcDbEntity
  8
GEOM
100
AcDbLine
 62
7
  6
CONTINUOUS
 10
188.0872302058
 20
145.6387161145
 11
188.0872302058
 21
145.6987161145
  0
LINE
  5
3B2
100
AcDbEntity
  8
GEOM
100
AcDbLine
 62
7
  6
CONTINUOUS
 10
188.7698313964
 20
145.6387161145
 11
188.7698313964
 21
145.6987161145
  0
LINE
  5
3B3
100
AcDbEntity
  8
GEOM
100
AcDbLine
 62
7
  6
CONTINUOUS
 10
188.917402664
 20
145.6387161145
 11
188.917402664
 21
145.6987161145
  0
LINE
  5
3B4
100
AcDbEntity
  8
GEOM
100
AcDbLine
 62
7
  6
CONTINUOUS
 10
189.257548568
 20
145.6387161145
 11
189.257548568
 21
145.6987161145
  0
LINE
  5
3B5
100
AcDbEntity
  8
GEOM
100
AcDbLine
 62
7
  6
CONTINUOUS
 10
189.5289564064
 20
145.6387161145
 11
189.5289564064
 21
145.6987161145
  0
LINE
  5
3B6
100
AcDbEntity
  8
GEOM
100
AcDbLine
 62
7
  6
CONTINUOUS
 10
189.6907300337
 20
145.6387161145
 11
189.6907300337
 21
145.6987161145
  0
LINE
  5
3B7
100
AcDbEntity
  8
GEOM
100
AcDbLine
 62
7
  6
CONTINUOUS
 10
189.7452664528
 20
145.6387161145
 11
189.7452664528
 21
145.6987161145
  0
LINE
  5
3B8
100
AcDbEntity
  8
GEOM
100
AcDbLine
 62
7
  6
CONTINUOUS
 10
189.9735285259
 20
145.6387161145
 11
189.9735285259
 21
145.6487161145
  0
LINE
  5
3B9
100
AcDbEntity
  8
GEOM
100
AcDbLine
 62
7
  6
CONTINUOUS
 10
190.0350404559
 20
145.6387161145
 11
190.0350404559
 21
145.6987161145
  0
LINE
  5
3BA
100
AcDbEntity
  8
GEOM
100
AcDbLine
 62
7
  6
CONTINUOUS
 10
190.2442081143
 20
145.6387161145
 11
190.2442081143
 21
145.6987161145
  0
LINE
  5
3BB
100
AcDbEntity
  8
GEOM
100
AcDbLine
 62
7
  6
CONTINUOUS
 10
190.6533602763
 20
145.6387161145
 11
190.6533602763
 21
145.6987161145
  0
LINE
  5
3BC
100
AcDbEntity
  8
GEOM
100
AcDbLine
 62
7
  6
CONTINUOUS
 10
190.8464250568
 20
145.6387161145
 11
190.8464250568
 21
145.6987161145
  0
LINE
  5
3BD
100
AcDbEntity
  8
GEOM
100
AcDbLine
 62
7
  6
CONTINUOUS
 10
191.0206786214
 20
145.6387161145
 11
191.0206786214
 21
145.6987161145
  0
LINE
  5
3BE
100
AcDbEntity
  8
GEOM
100
AcDbLine
 62
7
  6
CONTINUOUS
 10
191.2043381505
 20
145.6387161145
 11
191.2043381505
 21
145.6987161145
  0
LINE
  5
3BF
100
AcDbEntity
  8
0
100
AcDbLine
 62
7
  6
CONTINUOUS
 10
155.8795971386
 20
142.1387161145
 11
212.8795971386
 21
142.1387161145
  0
LINE
  5
3C0
100
AcDbEntity
  8
0
100
AcDbLine
 62
7
  6
CONTINUOUS
 10
155.8795971386
 20
143.1387161145
 11
212.8795971386
 21
143.1387161145
  0
LINE
  5
3C1
100
AcDbEntity
  8
0
100
AcDbLine
 62
7
  6
CONTINUOUS
 10
155.8795971386
 20
144.1387161145
 11
155.8973676156
 21
144.1387161145
  0
LINE
  5
3C2
100
AcDbEntity
  8
0
100
AcDbLine
 62
7
  6
CONTINUOUS
 10
157.1795971386
 20
145.6387161145
 11
210.3795971386
 21
145.6387161145
  0
LINE
  5
3C3
100
AcDbEntity
  8
GEOM
100
AcDbLine
 62
7
  6
CONTINUOUS
 10
157.8795971386
 20
145.6487161145
 11
159.8795971386
 21
145.6487161145
  0
LINE
  5
3C4
100
AcDbEntity
  8
GEOM
100
AcDbLine
 62
7
  6
CONTINUOUS
 10
160.5703069078
 20
145.6487161145
 11
165.079792204
 21
145.6487161145
  0
LINE
  5
3C5
100
AcDbEntity
  8
GEOM
100
AcDbLine
 62
7
  6
CONTINUOUS
 10
165.804564502
 20
145.6487161145
 11
169.8872024675
 21
145.6487161145
  0
LINE
  5
3C6
100
AcDbEntity
  8
GEOM
100
AcDbLine
 62
7
  6
CONTINUOUS
 10
170.8358646309
 20
145.6487161145
 11
175.9829681995
 21
145.6487161145
  0
LINE
  5
3C7
100
AcDbEntity
  8
GEOM
100
AcDbLine
 62
7
  6
CONTINUOUS
 10
176.7011328043
 20
145.6487161145
 11
181.1795971386
 21
145.6487161145
  0
LINE
  5
3C8
100
AcDbEntity
  8
GEOM
100
AcDbLine
 62
7
  6
CONTINUOUS
 10
182.3213462939
 20
145.6487161145
 11
182.5488799053
 21
145.6487161145
  0
LINE
  5
3C9
100
AcDbEntity
  8
GEOM
100
AcDbLine
 62
7
  6
CONTINUOUS
 10
183.4886037234
 20
145.6487161145
 11
184.3099693368
 21
145.6487161145
  0
LINE
  5
3CA
100
AcDbEntity
  8
GEOM
100
AcDbLine
 62
7
  6
CONTINUOUS
 10
185.7374106832
 20
145.6487161145
 11
185.97106616
 21
145.6487161145
  0
LINE
  5
3CB
100
AcDbEntity
  8
GEOM
100
AcDbLine
 62
7
  6
CONTINUOUS
 10
186.9689487696
 20
145.6487161145
 11
187.0730226217
 21
145.6487161145
  0
LINE
  5
3CC
100
AcDbEntity
  8
GEOM
100
AcDbLine
 62
7
  6
CONTINUOUS
 10
188.0872302058
 20
145.6487161145
 11
188.7698313964
 21
145.6487161145
  0
LINE
  5
3CD
100
AcDbEntity
  8
GEOM
100
AcDbLine
 62
7
  6
CONTINUOUS
 10
189.9735285259
 20
145.6487161145
 11
190.0350404559
 21
145.6487161145
  0
LINE
  5
3CE
100
AcDbEntity
  8
GEOM
100
AcDbLine
 62
7
  6
CONTINUOUS
 10
190.2442081143
 20
145.6487161145
 11
190.6533602763
 21
145.6487161145
  0
LINE
  5
3CF
100
AcDbEntity
  8
GEOM
100
AcDbLine
 62
7
  6
CONTINUOUS
 10
191.2043381505
 20
145.6487161145
 11
191.6747103934
 21
145.6487161145
  0
LINE
  5
3D0
100
AcDbEntity
  8
GEOM
100
AcDbLine
 62
7
  6
CONTINUOUS
 10
192.6501454498
 20
145.6487161145
 11
192.8715575524
 21
145.6487161145
  0
LINE
  5
3D1
100
AcDbEntity
  8
GEOM
100
AcDbLine
 62
7
  6
CONTINUOUS
 10
194.4795974952
 20
145.6487161145
 11
194.5283030473
 21
145.6487161145
  0
LINE
  5
3D2
100
AcDbEntity
  8
GEOM
100
AcDbLine
 62
7
  6
CONTINUOUS
 10
194.6336402868
 20
145.6487161145
 11
195.1740241843
 21
145.6487161145
  0
LINE
  5
3D3
100
AcDbEntity
  8
GEOM
100
AcDbLine
 62
7
  6
CONTINUOUS
 10
195.3383001174
 20
145.6487161145
 11
195.9113848612
 21
145.6487161145
  0
LINE
  5
3D4
100
AcDbEntity
  8
GEOM
100
AcDbLine
 62
7
  6
CONTINUOUS
 10
196.5781767967
 20
145.6487161145
 11
204.6823040055
 21
145.6487161145
  0
LINE
  5
3D5
100
AcDbEntity
  8
GEOM
100
AcDbLine
 62
7
  6
CONTINUOUS
 10
181.1795971386
 20
145.6987161145
 11
182.3213462939
 21
145.6987161145
  0
LINE
  5
3D6
100
AcDbEntity
  8
GEOM
100
AcDbLine
 62
7
  6
CONTINUOUS
 10
182.5488799053
 20
145.6987161145
 11
183.4886037234
 21
145.6987161145
  0
LINE
  5
3D7
100
AcDbEntity
  8
GEOM
100
AcDbLine
 62
7
  6
CONTINUOUS
 10
184.3099693368
 20
145.6987161145
 11
185.7374106832
 21
145.6987161145
  0
LINE
  5
3D8
100
AcDbEntity
  8
GEOM
100
AcDbLine
 62
7
  6
CONTINUOUS
 10
185.97106616
 20
145.6987161145
 11
186.9689487696
 21
145.6987161145
  0
LINE
  5
3D9
100
AcDbEntity
  8
GEOM
100
AcDbLine
 62
7
  6
CONTINUOUS
 10
187.0730226217
 20
145.6987161145
 11
188.0872302058
 21
145.6987161145
  0
LINE
  5
3DA
100
AcDbEntity
  8
GEOM
100
AcDbLine
 62
7
  6
CONTINUOUS
 10
188.7698313964
 20
145.6987161145
 11
189.7452664528
 21
145.6987161145
  0
LINE
  5
3DB
100
AcDbEntity
  8
GEOM
100
AcDbLine
 62
7
  6
CONTINUOUS
 10
190.0350404559
 20
145.6987161145
 11
190.2442081143
 21
145.6987161145
  0
LINE
  5
3DC
100
AcDbEntity
  8
GEOM
100
AcDbLine
 62
7
  6
CONTINUOUS
 10
190.6533602763
 20
145.6987161145
 11
191.2043381505
 21
145.6987161145
  0
LINE
  5
3DD
100
AcDbEntity
  8
GEOM
100
AcDbLine
 62
7
  6
CONTINUOUS
 10
191.6747103934
 20
145.6987161145
 11
192.6501454498
 21
145.6987161145
  0
LINE
  5
3DE
100
AcDbEntity
  8
GEOM
100
AcDbLine
 62
7
  6
CONTINUOUS
 10
192.8715575524
 20
145.6987161145
 11
194.4795974952
 21
145.6987161145
  0
LINE
  5
3DF
100
AcDbEntity
  8
GEOM
100
AcDbLine
 62
7
  6
CONTINUOUS
 10
191.6747103934
 20
145.6387161145
 11
191.6747103934
 21
145.6987161145
  0
LINE
  5
3E0
100
AcDbEntity
  8
GEOM
100
AcDbLine
 62
7
  6
CONTINUOUS
 10
191.822281661
 20
145.6387161145
 11
191.822281661
 21
145.6987161145
  0
LINE
  5
3E1
100
AcDbEntity
  8
GEOM
100
AcDbLine
 62
7
  6
CONTINUOUS
 10
192.1624282782
 20
145.6387161145
 11
192.1624282782
 21
145.6987161145
  0
LINE
  5
3E2
100
AcDbEntity
  8
GEOM
100
AcDbLine
 62
7
  6
CONTINUOUS
 10
192.4338358263
 20
145.6387161145
 11
192.4338358263
 21
145.6987161145
  0
LINE
  5
3E3
100
AcDbEntity
  8
GEOM
100
AcDbLine
 62
7
  6
CONTINUOUS
 10
192.5956090307
 20
145.6387161145
 11
192.5956090307
 21
145.6987161145
  0
LINE
  5
3E4
100
AcDbEntity
  8
GEOM
100
AcDbLine
 62
7
  6
CONTINUOUS
 10
192.6501454498
 20
145.6387161145
 11
192.6501454498
 21
145.6987161145
  0
LINE
  5
3E5
100
AcDbEntity
  8
GEOM
100
AcDbLine
 62
7
  6
CONTINUOUS
 10
192.8715575524
 20
145.6387161145
 11
192.8715575524
 21
145.6987161145
  0
LINE
  5
3E6
100
AcDbEntity
  8
GEOM
100
AcDbLine
 62
7
  6
CONTINUOUS
 10
192.9613461403
 20
145.6387161145
 11
192.9613461403
 21
145.6987161145
  0
LINE
  5
3E7
100
AcDbEntity
  8
GEOM
100
AcDbLine
 62
7
  6
CONTINUOUS
 10
193.1878589257
 20
145.6387161145
 11
193.1878589257
 21
145.6987161145
  0
LINE
  5
3E8
100
AcDbEntity
  8
GEOM
100
AcDbLine
 62
7
  6
CONTINUOUS
 10
193.1919401693
 20
145.6387161145
 11
193.1919401693
 21
145.6987161145
  0
LINE
  5
3E9
100
AcDbEntity
  8
GEOM
100
AcDbLine
 62
7
  6
CONTINUOUS
 10
193.343970417
 20
145.6387161145
 11
193.343970417
 21
145.6987161145
  0
LINE
  5
3EA
100
AcDbEntity
  8
GEOM
100
AcDbLine
 62
7
  6
CONTINUOUS
 10
193.8388294083
 20
145.6387161145
 11
193.8388294083
 21
145.6987161145
  0
LINE
  5
3EB
100
AcDbEntity
  8
GEOM
100
AcDbLine
 62
7
  6
CONTINUOUS
 10
193.9288724895
 20
145.6387161145
 11
193.9288724895
 21
145.6987161145
  0
LINE
  5
3EC
100
AcDbEntity
  8
GEOM
100
AcDbLine
 62
7
  6
CONTINUOUS
 10
194.1551322081
 20
145.6387161145
 11
194.1551322081
 21
145.6987161145
  0
LINE
  5
3ED
100
AcDbEntity
  8
GEOM
100
AcDbLine
 62
7
  6
CONTINUOUS
 10
194.3854725088
 20
145.6387161145
 11
194.3854725088
 21
145.6987161145
  0
LINE
  5
3EE
100
AcDbEntity
  8
GEOM
100
AcDbLine
 62
7
  6
CONTINUOUS
 10
194.4795974952
 20
145.6387161145
 11
194.4795974952
 21
145.6987161145
  0
LINE
  5
3EF
100
AcDbEntity
  8
GEOM
100
AcDbLine
 62
7
  6
CONTINUOUS
 10
194.5283030473
 20
145.6387161145
 11
194.5283030473
 21
145.6487161145
  0
LINE
  5
3F0
100
AcDbEntity
  8
GEOM
100
AcDbLine
 62
7
  6
CONTINUOUS
 10
194.6336402868
 20
145.6387161145
 11
194.6336402868
 21
145.6487161145
  0
LINE
  5
3F1
100
AcDbEntity
  8
GEOM
100
AcDbLine
 62
7
  6
CONTINUOUS
 10
194.6337367495
 20
145.6387161145
 11
194.6337367495
 21
145.6487161145
  0
LINE
  5
3F2
100
AcDbEntity
  8
GEOM
100
AcDbLine
 62
7
  6
CONTINUOUS
 10
194.6757944752
 20
145.6387161145
 11
194.6757944752
 21
145.6487161145
  0
LINE
  5
3F3
100
AcDbEntity
  8
GEOM
100
AcDbLine
 62
7
  6
CONTINUOUS
 10
194.8535751826
 20
145.6387161145
 11
194.8535751826
 21
145.6487161145
  0
LINE
  5
3F4
100
AcDbEntity
  8
GEOM
100
AcDbLine
 62
7
  6
CONTINUOUS
 10
194.8538645706
 20
145.6387161145
 11
194.8538645706
 21
145.6487161145
  0
LINE
  5
3F5
100
AcDbEntity
  8
GEOM
100
AcDbLine
 62
7
  6
CONTINUOUS
 10
194.8945718189
 20
145.6387161145
 11
194.8945718189
 21
145.6487161145
  0
LINE
  5
3F6
100
AcDbEntity
  8
GEOM
100
AcDbLine
 62
7
  6
CONTINUOUS
 10
194.9134785029
 20
145.6387161145
 11
194.9134785029
 21
145.6487161145
  0
LINE
  5
3F7
100
AcDbEntity
  8
GEOM
100
AcDbLine
 62
7
  6
CONTINUOUS
 10
194.9541857512
 20
145.6387161145
 11
194.9541857512
 21
145.6487161145
  0
LINE
  5
3F8
100
AcDbEntity
  8
GEOM
100
AcDbLine
 62
7
  6
CONTINUOUS
 10
194.9542835971
 20
145.6387161145
 11
194.9542835971
 21
145.6487161145
  0
LINE
  5
3F9
100
AcDbEntity
  8
GEOM
100
AcDbLine
 62
7
  6
CONTINUOUS
 10
195.1334133987
 20
145.6387161145
 11
195.1334133987
 21
145.6487161145
  0
LINE
  5
3FA
100
AcDbEntity
  8
GEOM
100
AcDbLine
 62
7
  6
CONTINUOUS
 10
195.1740241843
 20
145.6387161145
 11
195.1740241843
 21
145.6487161145
  0
LINE
  5
3FB
100
AcDbEntity
  8
GEOM
100
AcDbLine
 62
7
  6
CONTINUOUS
 10
195.3383001174
 20
145.6387161145
 11
195.3383001174
 21
145.6487161145
  0
LINE
  5
3FC
100
AcDbEntity
  8
GEOM
100
AcDbLine
 62
7
  6
CONTINUOUS
 10
195.3384930427
 20
145.6387161145
 11
195.3384930427
 21
145.6487161145
  0
LINE
  5
3FD
100
AcDbEntity
  8
GEOM
100
AcDbLine
 62
7
  6
CONTINUOUS
 10
195.3793932163
 20
145.6387161145
 11
195.3793932163
 21
145.6487161145
  0
LINE
  5
3FE
100
AcDbEntity
  8
GEOM
100
AcDbLine
 62
7
  6
CONTINUOUS
 10
195.3982999004
 20
145.6387161145
 11
195.3982999004
 21
145.6487161145
  0
LINE
  5
3FF
100
AcDbEntity
  8
GEOM
100
AcDbLine
 62
7
  6
CONTINUOUS
 10
195.4388156068
 20
145.6387161145
 11
195.4388156068
 21
145.6487161145
  0
LINE
  5
400
100
AcDbEntity
  8
GEOM
100
AcDbLine
 62
7
  6
CONTINUOUS
 10
195.574826593
 20
145.6387161145
 11
195.574826593
 21
145.6487161145
  0
LINE
  5
401
100
AcDbEntity
  8
GEOM
100
AcDbLine
 62
7
  6
CONTINUOUS
 10
195.6181383335
 20
145.6387161145
 11
195.6181383335
 21
145.6487161145
  0
LINE
  5
402
100
AcDbEntity
  8
GEOM
100
AcDbLine
 62
7
  6
CONTINUOUS
 10
195.6317395704
 20
145.6387161145
 11
195.6317395704
 21
145.6487161145
  0
LINE
  5
403
100
AcDbEntity
  8
GEOM
100
AcDbLine
 62
7
  6
CONTINUOUS
 10
195.6749548482
 20
145.6387161145
 11
195.6749548482
 21
145.6487161145
  0
LINE
  5
404
100
AcDbEntity
  8
GEOM
100
AcDbLine
 62
7
  6
CONTINUOUS
 10
195.81067783
 20
145.6387161145
 11
195.81067783
 21
145.6487161145
  0
LINE
  5
405
100
AcDbEntity
  8
GEOM
100
AcDbLine
 62
7
  6
CONTINUOUS
 10
195.8110636806
 20
145.6387161145
 11
195.8110636806
 21
145.6487161145
  0
LINE
  5
406
100
AcDbEntity
  8
GEOM
100
AcDbLine
 62
7
  6
CONTINUOUS
 10
195.8516744662
 20
145.6387161145
 11
195.8516744662
 21
145.6487161145
  0
LINE
  5
407
100
AcDbEntity
  8
GEOM
100
AcDbLine
 62
7
  6
CONTINUOUS
 10
195.8707740756
 20
145.6387161145
 11
195.8707740756
 21
145.6487161145
  0
LINE
  5
408
100
AcDbEntity
  8
GEOM
100
AcDbLine
 62
7
  6
CONTINUOUS
 10
195.9113848612
 20
145.6387161145
 11
195.9113848612
 21
145.6487161145
  0
LINE
  5
409
100
AcDbEntity
  8
GEOM
100
AcDbLine
 62
7
  6
CONTINUOUS
 10
196.5781767967
 20
145.6387161145
 11
196.5781767967
 21
145.6487161145
  0
LINE
  5
40A
100
AcDbEntity
  8
0
100
AcDbLine
 62
7
  6
CONTINUOUS
 10
203.3795971386
 20
139.6387161145
 11
203.3795971386
 21
145.6387161145
  0
LINE
  5
40B
100
AcDbEntity
  8
GEOM
100
AcDbLine
 62
7
  6
CONTINUOUS
 10
204.1946783003
 20
145.6387161145
 11
204.1946783003
 21
145.6487161145
  0
LINE
  5
40C
100
AcDbEntity
  8
GEOM
100
AcDbLine
 62
7
  6
CONTINUOUS
 10
204.2948272261
 20
145.6387161145
 11
204.2948272261
 21
145.6487161145
  0
LINE
  5
40D
100
AcDbEntity
  8
GEOM
100
AcDbLine
 62
7
  6
CONTINUOUS
 10
204.4606293365
 20
145.6387161145
 11
204.4606293365
 21
145.6487161145
  0
LINE
  5
40E
100
AcDbEntity
  8
GEOM
100
AcDbLine
 62
7
  6
CONTINUOUS
 10
204.5313192508
 20
145.6387161145
 11
204.5313192508
 21
145.6487161145
  0
LINE
  5
40F
100
AcDbEntity
  8
GEOM
100
AcDbLine
 62
7
  6
CONTINUOUS
 10
204.5598997629
 20
145.6387161145
 11
204.5598997629
 21
145.6487161145
  0
LINE
  5
410
100
AcDbEntity
  8
GEOM
100
AcDbLine
 62
7
  6
CONTINUOUS
 10
204.6823040055
 20
145.6387161145
 11
204.6823040055
 21
145.6487161145
  0
LINE
  5
411
100
AcDbEntity
  8
0
100
AcDbLine
 62
7
  6
CONTINUOUS
 10
212.8795971386
 20
142.1387161145
 11
212.8795971386
 21
143.1387161145
  0
ARC
  5
412
100
AcDbEntity
  8
0
100
AcDbCircle
 62
7
  6
CONTINUOUS
 10
102.9101940778
 20
69.1408550979
 40
2.0834072548
100
AcDbArc
 50
89.2842022319
 51
90.0049587187
  0
ARC
  5
413
100
AcDbEntity
  8
0
100
AcDbCircle
 62
7
  6
CONTINUOUS
 10
104.8414773539
 20
72.3387161145
 40
0.8
100
AcDbArc
 50
90.0
 51
150.0
  0
ARC
  5
414
100
AcDbEntity
  8
0
100
AcDbCircle
 62
7
  6
CONTINUOUS
 10
108.5482262887
 20
72.3387161145
 40
0.8
100
AcDbArc
 50
45.0
 51
90.0
  0
ARC
  5
415
100
AcDbEntity
  8
0
100
AcDbCircle
 62
7
  6
CONTINUOUS
 10
102.9362214656
 20
71.6387161145
 40
0.5
100
AcDbArc
 50
270.0
 51
330.0
  0
ARC
  5
416
100
AcDbEntity
  8
0
100
AcDbCircle
 62
7
  6
CONTINUOUS
 10
102.910159515
 20
78.464802119
 40
0.2584197933
100
AcDbArc
 50
269.9676981988
 51
275.7881894248
  0
ARC
  5
417
100
AcDbEntity
  8
0
100
AcDbCircle
 62
7
  6
CONTINUOUS
 10
102.9101477144
 20
80.9262008168
 40
0.2303953147
100
AcDbArc
 50
83.5019369729
 51
90.0333126451
  0
ARC
  5
418
100
AcDbEntity
  8
0
100
AcDbCircle
 62
7
  6
CONTINUOUS
 10
96.6895971386
 20
87.4587161145
 40
1.98
100
AcDbArc
 50
180.0
 51
270.0
  0
ARC
  5
419
100
AcDbEntity
  8
0
100
AcDbCircle
 62
7
  6
CONTINUOUS
 10
96.6895971386
 20
88.8987161145
 40
1.98
100
AcDbArc
 50
90.0
 51
180.0
  0
ARC
  5
41A
100
AcDbEntity
  8
0
100
AcDbCircle
 62
7
  6
CONTINUOUS
 10
99.7795971386
 20
89.3487161145
 40
1.53
100
AcDbArc
 50
276.0773563052
 51
90.0
  0
ARC
  5
41B
100
AcDbEntity
  8
0
100
AcDbCircle
 62
7
  6
CONTINUOUS
 10
96.6895971386
 20
88.8987161145
 40
1.35
100
AcDbArc
 50
90.0
 51
180.0
  0
ARC
  5
41C
100
AcDbEntity
  8
0
100
AcDbCircle
 62
7
  6
CONTINUOUS
 10
96.6895971386
 20
87.4587161145
 40
1.35
100
AcDbArc
 50
180.0
 51
270.0
  0
ARC
  5
41D
100
AcDbEntity
  8
0
100
AcDbCircle
 62
7
  6
CONTINUOUS
 10
99.7795971386
 20
89.3487161145
 40
0.9
100
AcDbArc
 50
270.0
 51
90.0
  0
ARC
  5
41E
100
AcDbEntity
  8
0
100
AcDbCircle
 62
7
  6
CONTINUOUS
 10
104.8414773539
 20
103.9387161145
 40
0.8
100
AcDbArc
 50
210.0
 51
270.0
  0
ARC
  5
41F
100
AcDbEntity
  8
0
100
AcDbCircle
 62
7
  6
CONTINUOUS
 10
108.5482262887
 20
103.9387161145
 40
0.8
100
AcDbArc
 50
270.0
 51
315.0
  0
ARC
  5
420
100
AcDbEntity
  8
0
100
AcDbCircle
 62
7
  6
CONTINUOUS
 10
102.9362214656
 20
104.6387161145
 40
0.5
100
AcDbArc
 50
30.0
 51
90.0
  0
ARC
  5
421
100
AcDbEntity
  8
0
100
AcDbCircle
 62
7
  6
CONTINUOUS
 10
102.910159399
 20
97.8126296076
 40
0.2584202956
100
AcDbArc
 50
84.2117960078
 51
90.0322888366
  0
ARC
  5
422
100
AcDbEntity
  8
0
100
AcDbCircle
 62
7
  6
CONTINUOUS
 10
102.9101478331
 20
95.351230957
 40
0.2303948596
100
AcDbArc
 50
269.9666722863
 51
276.4980461903
  0
ARC
  5
423
100
AcDbEntity
  8
0
100
AcDbCircle
 62
7
  6
CONTINUOUS
 10
124.0395971386
 20
85.9587161145
 40
2.03
100
AcDbArc
 50
79.7851452308
 51
180.0
  0
ARC
  5
424
100
AcDbEntity
  8
0
100
AcDbCircle
 62
7
  6
CONTINUOUS
 10
123.3995971386
 20
86.1187161145
 40
2.02
100
AcDbArc
 50
90.0
 51
180.0
  0
ARC
  5
425
100
AcDbEntity
  8
0
100
AcDbCircle
 62
7
  6
CONTINUOUS
 10
122.4646500059
 20
87.2889853883
 40
1.33
100
AcDbArc
 50
110.0076138533
 51
144.6694363357
  0
ARC
  5
426
100
AcDbEntity
  8
0
100
AcDbCircle
 62
7
  6
CONTINUOUS
 10
127.0482262887
 20
69.2387161145
 40
0.8
100
AcDbArc
 50
45.0
 51
90.0
  0
ARC
  5
427
100
AcDbEntity
  8
0
100
AcDbCircle
 62
7
  6
CONTINUOUS
 10
112.3109679885
 20
70.8387161145
 40
0.8
100
AcDbArc
 50
224.9999999997
 51
270.0
  0
ARC
  5
428
100
AcDbEntity
  8
0
100
AcDbCircle
 62
7
  6
CONTINUOUS
 10
112.1647214556
 20
105.0960363269
 40
1.9299104372
100
AcDbArc
 50
62.0038934573
 51
64.6394644505
  0
ARC
  5
429
100
AcDbEntity
  8
0
100
AcDbCircle
 62
7
  6
CONTINUOUS
 10
112.3109679885
 20
105.4387161145
 40
0.8
100
AcDbArc
 50
107.5090706463
 51
135.0000000003
  0
ARC
  5
42A
100
AcDbEntity
  8
0
100
AcDbCircle
 62
7
  6
CONTINUOUS
 10
110.8795971386
 20
123.1387161145
 40
3.0
100
AcDbArc
 50
90.0
 51
180.0
  0
ARC
  5
42B
100
AcDbEntity
  8
0
100
AcDbCircle
 62
7
  6
CONTINUOUS
 10
102.9101941839
 20
107.1365733784
 40
2.0834035022
100
AcDbArc
 50
269.9950398482
 51
270.7157961407
  0
ARC
  5
42C
100
AcDbEntity
  8
0
100
AcDbCircle
 62
7
  6
CONTINUOUS
 10
111.8295990468
 20
106.9646087879
 40
0.7999998401
100
AcDbArc
 50
287.5084718796
 51
353.2924073283
  0
ARC
  5
42D
100
AcDbEntity
  8
0
100
AcDbCircle
 62
7
  6
CONTINUOUS
 10
126.7795971386
 20
126.8923059529
 40
0.6
100
AcDbArc
 50
0.0
 51
60.0
  0
ARC
  5
42E
100
AcDbEntity
  8
0
100
AcDbCircle
 62
7
  6
CONTINUOUS
 10
115.9795971386
 20
126.8923059529
 40
0.6
100
AcDbArc
 50
120.0
 51
180.0
  0
ARC
  5
42F
100
AcDbEntity
  8
0
100
AcDbCircle
 62
7
  6
CONTINUOUS
 10
111.3795971386
 20
113.3316093333
 40
0.5
100
AcDbArc
 50
0.0
 51
45.0000000017
  0
ARC
  5
430
100
AcDbEntity
  8
0
100
AcDbCircle
 62
7
  6
CONTINUOUS
 10
111.3795971386
 20
122.6387161145
 40
0.5
100
AcDbArc
 50
90.0
 51
180.0
  0
ARC
  5
431
100
AcDbEntity
  8
0
100
AcDbCircle
 62
7
  6
CONTINUOUS
 10
112.5396324236
 20
109.1312168351
 40
0.4976228893
100
AcDbArc
 50
0.0451918298
 51
45.3386114833
  0
ARC
  5
432
100
AcDbEntity
  8
0
100
AcDbCircle
 62
7
  6
CONTINUOUS
 10
107.6795971386
 20
110.2119211952
 40
0.3
100
AcDbArc
 50
180.0
 51
240.0
  0
ARC
  5
433
100
AcDbEntity
  8
0
100
AcDbCircle
 62
7
  6
CONTINUOUS
 10
107.6795971386
 20
112.7387161145
 40
0.3
100
AcDbArc
 50
90.0
 51
180.0
  0
ARC
  5
434
100
AcDbEntity
  8
0
100
AcDbCircle
 62
7
  6
CONTINUOUS
 10
112.4254980673
 20
106.8945237473
 40
0.200001561
100
AcDbArc
 50
353.2935530155
 51
60.0019541016
  0
ARC
  5
435
100
AcDbEntity
  8
0
100
AcDbCircle
 62
7
  6
CONTINUOUS
 10
111.6795971386
 20
113.2387161145
 40
0.2
100
AcDbArc
 50
277.5
 51
360.0
  0
ARC
  5
436
100
AcDbEntity
  8
0
100
AcDbCircle
 62
7
  6
CONTINUOUS
 10
138.9732114783
 20
102.9930390542
 40
2.0601308305
100
AcDbArc
 50
89.9986280872
 51
90.433035424
  0
ARC
  5
437
100
AcDbEntity
  8
0
100
AcDbCircle
 62
7
  6
CONTINUOUS
 10
138.9732114779
 20
73.2843931734
 40
2.0601308291
100
AcDbArc
 50
269.5669645859
 51
270.0013719241
  0
ARC
  5
438
100
AcDbEntity
  8
0
100
AcDbCircle
 62
7
  6
CONTINUOUS
 10
128.6109679885
 20
69.9387161145
 40
0.8
100
AcDbArc
 50
225.0
 51
270.0
  0
ARC
  5
439
100
AcDbEntity
  8
0
100
AcDbCircle
 62
7
  6
CONTINUOUS
 10
137.5294933695
 20
106.6387161145
 40
0.5
100
AcDbArc
 50
19.9999993826
 51
90.0
  0
ARC
  5
43A
100
AcDbEntity
  8
0
100
AcDbCircle
 62
7
  6
CONTINUOUS
 10
137.5294933695
 20
69.6387161145
 40
0.5
100
AcDbArc
 50
270.0
 51
340.0000006174
  0
ARC
  5
43B
100
AcDbEntity
  8
0
100
AcDbCircle
 62
7
  6
CONTINUOUS
 10
138.9576413762
 20
105.6387161145
 40
0.5
100
AcDbArc
 50
200.0
 51
270.0
  0
ARC
  5
43C
100
AcDbEntity
  8
0
100
AcDbCircle
 62
7
  6
CONTINUOUS
 10
138.9576413762
 20
70.6387161145
 40
0.5
100
AcDbArc
 50
90.0
 51
160.0
  0
ARC
  5
43D
100
AcDbEntity
  8
0
100
AcDbCircle
 62
7
  6
CONTINUOUS
 10
138.9732218662
 20
77.9514205691
 40
0.2549618006
100
AcDbArc
 50
89.9912468086
 51
93.5034772074
  0
ARC
  5
43E
100
AcDbEntity
  8
0
100
AcDbCircle
 62
7
  6
CONTINUOUS
 10
138.9732218659
 20
98.3260116598
 40
0.2549618006
100
AcDbArc
 50
266.4965228581
 51
270.0087532594
  0
ARC
  5
43F
100
AcDbEntity
  8
0
100
AcDbCircle
 62
7
  6
CONTINUOUS
 10
138.9732241815
 20
81.383656177
 40
0.2270600874
100
AcDbArc
 50
266.0647803557
 51
270.0092351659
  0
ARC
  5
440
100
AcDbEntity
  8
0
100
AcDbCircle
 62
7
  6
CONTINUOUS
 10
138.9732241818
 20
94.8937760519
 40
0.2270600874
100
AcDbArc
 50
89.9907649419
 51
93.93521974
  0
ARC
  5
441
100
AcDbEntity
  8
0
100
AcDbCircle
 62
7
  6
CONTINUOUS
 10
157.3149287905
 20
140.1387161145
 40
4.0
100
AcDbArc
 50
111.0331393818
 51
140.0
  0
ARC
  5
442
100
AcDbEntity
  8
0
100
AcDbCircle
 62
7
  6
CONTINUOUS
 10
139.8795971386
 20
127.1387161145
 40
4.0
100
AcDbArc
 50
270.0
 51
320.0
  0
ARC
  5
443
100
AcDbEntity
  8
0
100
AcDbCircle
 62
7
  6
CONTINUOUS
 10
159.7349485833
 20
143.803029691
 40
3.8553515715
100
AcDbArc
 50
179.0238597861
 51
180.0146922186
  0
ARC
  5
444
100
AcDbEntity
  8
0
100
AcDbCircle
 62
7
  6
CONTINUOUS
 10
157.1795971386
 20
140.9387161145
 40
1.3
100
AcDbArc
 50
212.8904173777
 51
270.0
  0
ARC
  5
445
100
AcDbEntity
  8
0
100
AcDbCircle
 62
7
  6
CONTINUOUS
 10
157.1795971386
 20
144.3387161145
 40
1.3
100
AcDbArc
 50
90.0
 51
180.0
  0
ARC
  5
446
100
AcDbEntity
  8
0
100
AcDbCircle
 62
7
  6
CONTINUOUS
 10
139.8795971386
 20
127.1387161145
 40
1.0
100
AcDbArc
 50
270.0
 51
320.0
  0
ARC
  5
447
100
AcDbEntity
  8
0
100
AcDbCircle
 62
7
  6
CONTINUOUS
 10
130.9295920213
 20
107.9387124841
 40
0.7999995713
100
AcDbArc
 50
179.9997399939
 51
270.0003664993
  0
ARC
  5
448
100
AcDbEntity
  8
0
100
AcDbCircle
 62
7
  6
CONTINUOUS
 10
130.3795971386
 20
110.2958228956
 40
0.5
100
AcDbArc
 50
315.0
 51
359.9999999999
  0
ARC
  5
449
100
AcDbEntity
  8
0
100
AcDbCircle
 62
7
  6
CONTINUOUS
 10
131.3795971386
 20
113.3316093333
 40
0.5
100
AcDbArc
 50
134.9999999984
 51
180.0
  0
ARC
  5
44A
100
AcDbEntity
  8
0
100
AcDbCircle
 62
7
  6
CONTINUOUS
 10
130.6295971386
 20
109.1316093333
 40
0.5
100
AcDbArc
 50
135.0
 51
180.0
  0
ARC
  5
44B
100
AcDbEntity
  8
0
100
AcDbCircle
 62
7
  6
CONTINUOUS
 10
210.3795971386
 20
143.1387161145
 40
2.5
100
AcDbArc
 50
0.0
 51
90.0
  0
ARC
  5
44C
100
AcDbEntity
  8
0
100
AcDbCircle
 62
7
  6
CONTINUOUS
 10
210.3795971386
 20
142.1387161145
 40
2.5
100
AcDbArc
 50
270.0
 51
360.0
  0
ARC
  5
44D
100
AcDbEntity
  8
0
100
AcDbCircle
 62
7
  6
CONTINUOUS
 10
321.0663902267
 20
327.3069199543
 40
301.3037821763
100
AcDbArc
 50
226.1713146981
 51
226.2969784213
  0
ARC
  5
44E
100
AcDbEntity
  8
0
100
AcDbCircle
 62
7
  6
CONTINUOUS
 10
312.1926925754
 20
318.3130874251
 40
288.8664012081
100
AcDbArc
 50
226.2057201208
 51
226.3368832311
  0
SPLINE
  5
44F
100
AcDbEntity
  8
0
100
AcDbSpline
 62
7
  6
CONTINUOUS
 70
0
 71
3
 72
9
 73
5
 74
0
 42
0.0000001
 43
0.0000001
 44
0.0000000001
 40
0.0
 40
0.0
 40
0.0
 40
0.0
 40
0.2911605665
 40
1.0
 40
1.0
 40
1.0
 40
1.0
 10
113.6576499159
 20
117.6059975284
 30
0.0
 10
113.6540783251
 20
117.6041355555
 30
0.0
 10
113.6419898371
 20
117.5974542349
 30
0.0
 10
113.6304069852
 20
117.5895223461
 30
0.0
 10
113.6234725202
 20
117.5825892966
 30
0.0
  0
SPLINE
  5
450
100
AcDbEntity
  8
0
100
AcDbSpline
 62
7
  6
CONTINUOUS
 70
0
 71
3
 72
11
 73
7
 74
0
 42
0.0000001
 43
0.0000001
 44
0.0000000001
 40
0.0
 40
0.0
 40
0.0
 40
0.0
 40
0.2224350749
 40
0.4109555928
 40
0.653822195
 40
1.0
 40
1.0
 40
1.0
 40
1.0
 10
114.0156122359
 20
117.974713658
 30
0.0
 10
114.0150720269
 20
117.9741730068
 30
0.0
 10
114.0141337677
 20
117.9729728421
 30
0.0
 10
114.0144135768
 20
117.9705449478
 30
0.0
 10
114.0163697796
 20
117.968569529
 30
0.0
 10
114.0180958041
 20
117.967525398
 30
0.0
 10
114.0191502196
 20
117.9669749186
 30
0.0
  0
SPLINE
  5
451
100
AcDbEntity
  8
0
100
AcDbSpline
 62
7
  6
CONTINUOUS
 70
0
 71
3
 72
50
 73
46
 74
0
 42
0.0000001
 43
0.0000001
 44
0.0000000001
 40
0.0
 40
0.0
 40
0.0
 40
0.0
 40
0.1148103796
 40
0.2326901073
 40
0.3534914865
 40
0.4149309721
 40
0.4770238996
 40
0.5397308685
 40
0.6029969998
 40
0.6348149883
 40
0.6667365296
 40
0.6987391431
 40
0.730788249
 40
0.7468133632
 40
0.7628245031
 40
0.7788044398
 40
0.7947253791
 40
0.8026495587
 40
0.8105368878
 40
0.8183713562
 40
0.8261254228
 40
0.8299572374
 40
0.8337440676
 40
0.837464797
 40
0.8410765389
 40
0.8428151301
 40
0.8444660852
 40
0.8460158758
 40
0.846804242
 40
0.8479609531
 40
0.850570241
 40
0.8531008092
 40
0.8555659593
 40
0.8579881796
 40
0.8627476744
 40
0.8674322049
 40
0.8766607546
 40
0.8857670719
 40
0.894789751
 40
0.9037492328
 40
0.9126578774
 40
0.9303527328
 40
0.9479153162
 40
0.9653685907
 40
1.0
 40
1.0
 40
1.0
 40
1.0
 10
116.005998883
 20
118.0387161145
 30
0.0
 10
116.0525430217
 20
118.0387002206
 30
0.0
 10
116.1468756898
 20
118.038581216
 30
0.0
 10
116.2901798429
 20
118.0378965152
 30
0.0
 10
116.4118447107
 20
118.0368508011
 30
0.0
 10
116.5108901629
 20
118.0356228575
 30
0.0
 10
116.5863828045
 20
118.0344590067
 30
0.0
 10
116.6626110522
 20
118.0330013914
 30
0.0
 10
116.7265617538
 20
118.0314752719
 30
0.0
 10
116.7780286484
 20
118.0299937925
 30
0.0
 10
116.8168217663
 20
118.0287203224
 30
0.0
 10
116.8557015684
 20
118.0272456649
 30
0.0
 10
116.8881328127
 20
118.0257973922
 30
0.0
 10
116.9140782134
 20
118.0244507145
 30
0.0
 10
116.9335115129
 20
118.02332408
 30
0.0
 10
116.9528933313
 20
118.0220484031
 30
0.0
 10
116.9689919656
 20
118.0208176447
 30
0.0
 10
116.9818064611
 20
118.0196845215
 30
0.0
 10
116.9913463714
 20
118.0187424632
 30
0.0
 10
117.0008040572
 20
118.0176773213
 30
0.0
 10
117.0086098248
 20
118.0166441274
 30
0.0
 10
117.0147673102
 20
118.0156787213
 30
0.0
 10
117.0192917697
 20
118.0148670266
 30
0.0
 10
117.023704714
 20
118.0139275373
 30
0.0
 10
117.0272503855
 20
118.0129750717
 30
0.0
 10
117.0299438785
 20
118.0120110375
 30
0.0
 10
117.0316909119
 20
118.0111322275
 30
0.0
 10
117.0331619481
 20
118.01013379
 30
0.0
 10
117.0332695459
 20
118.0085794351
 30
0.0
 10
117.0318805215
 20
118.0071665042
 30
0.0
 10
117.0296269414
 20
118.0060148238
 30
0.0
 10
117.0267095259
 20
118.0049744998
 30
0.0
 10
117.0238265644
 20
118.0041261645
 30
0.0
 10
117.0200352528
 20
118.0031606264
 30
0.0
 10
117.0153334699
 20
118.0021396078
 30
0.0
 10
117.0078939599
 20
118.0007374644
 30
0.0
 10
116.9986783371
 20
117.9992592004
 30
0.0
 10
116.9876938909
 20
117.9977247866
 30
0.0
 10
116.9767976744
 20
117.996355255
 30
0.0
 10
116.965968139
 20
117.9951033055
 30
0.0
 10
116.9516338856
 20
117.9935576641
 30
0.0
 10
116.933815063
 20
117.9918001627
 30
0.0
 10
116.912532302
 20
117.989881252
 30
0.0
 10
116.884395768
 20
117.9875235595
 30
0.0
 10
116.8633416945
 20
117.9859147769
 30
0.0
 10
116.8493394928
 20
117.9848910188
 30
0.0
  0
SPLINE
  5
452
100
AcDbEntity
  8
0
100
AcDbSpline
 62
7
  6
CONTINUOUS
 70
0
 71
3
 72
11
 73
7
 74
0
 42
0.0000001
 43
0.0000001
 44
0.0000000001
 40
0.0
 40
0.0
 40
0.0
 40
0.0
 40
0.3477808973
 40
0.5957236378
 40
0.7864378654
 40
1.0
 40
1.0
 40
1.0
 40
1.0
 10
114.036910084
 20
117.9577159549
 30
0.0
 10
114.0345751824
 20
117.9589443974
 30
0.0
 10
114.0307158902
 20
117.9612920741
 30
0.0
 10
114.02634479
 20
117.9656170696
 30
0.0
 10
114.0253201849
 20
117.9708613043
 30
0.0
 10
114.0271193503
 20
117.973644155
 30
0.0
 10
114.0281919653
 20
117.9748583669
 30
0.0
  0
SPLINE
  5
453
100
AcDbEntity
  8
0
100
AcDbSpline
 62
7
  6
CONTINUOUS
 70
0
 71
3
 72
9
 73
5
 74
0
 42
0.0000001
 43
0.0000001
 44
0.0000000001
 40
0.0
 40
0.0
 40
0.0
 40
0.0
 40
0.4119614217
 40
1.0
 40
1.0
 40
1.0
 40
1.0
 10
114.0281919653
 20
117.9748583669
 30
0.0
 10
114.0300000758
 20
117.9769051678
 30
0.0
 10
114.0355697179
 20
117.9807435135
 30
0.0
 10
114.0416118302
 20
117.9834504348
 30
0.0
 10
114.045234223
 20
117.9848910306
 30
0.0
  0
SPLINE
  5
454
100
AcDbEntity
  8
0
100
AcDbSpline
 62
7
  6
CONTINUOUS
 70
0
 71
3
 72
8
 73
4
 74
0
 42
0.0000001
 43
0.0000001
 44
0.0000000001
 40
0.0
 40
0.0
 40
0.0
 40
0.0
 40
1.0
 40
1.0
 40
1.0
 40
1.0
 10
119.4600132524
 20
120.8784858496
 30
0.0
 10
119.025711203
 20
120.8074636413
 30
0.0
 10
118.5946393942
 20
120.7147344192
 30
0.0
 10
118.1682889939
 20
120.6057034126
 30
0.0
  0
SPLINE
  5
455
100
AcDbEntity
  8
0
100
AcDbSpline
 62
7
  6
CONTINUOUS
 70
0
 71
3
 72
9
 73
5
 74
0
 42
0.0000001
 43
0.0000001
 44
0.0000000001
 40
0.0
 40
0.0
 40
0.0
 40
0.0
 40
0.1995464834
 40
1.0
 40
1.0
 40
1.0
 40
1.0
 10
114.0370896412
 20
117.8038140298
 30
0.0
 10
114.0389202853
 20
117.8047685406
 30
0.0
 10
114.0483304316
 20
117.8090966741
 30
0.0
 10
114.0582720696
 20
117.8121328908
 30
0.0
 10
114.0662554045
 20
117.8143356127
 30
0.0
  0
SPLINE
  5
456
100
AcDbEntity
  8
0
100
AcDbSpline
 62
7
  6
CONTINUOUS
 70
0
 71
3
 72
17
 73
13
 74
0
 42
0.0000001
 43
0.0000001
 44
0.0000000001
 40
0.0
 40
0.0
 40
0.0
 40
0.0
 40
0.0175540708
 40
0.0415356729
 40
0.0719407341
 40
0.108708965
 40
0.2010082319
 40
0.3175679832
 40
0.4572454311
 40
0.6186404528
 40
0.8001994522
 40
1.0
 40
1.0
 40
1.0
 40
1.0
 10
114.0662554045
 20
117.8143356127
 30
0.0
 10
114.0819919113
 20
117.8186775509
 30
0.0
 10
114.1198631357
 20
117.8265564666
 30
0.0
 10
114.1859623881
 20
117.836887491
 30
0.0
 10
114.2701052096
 20
117.8473054507
 30
0.0
 10
114.4176335044
 20
117.8624787437
 30
0.0
 10
114.6453550174
 20
117.8806749445
 30
0.0
 10
114.9688121342
 20
117.90150547
 30
0.0
 10
115.3566333322
 20
117.9224453088
 30
0.0
 10
115.8049679741
 20
117.9434901771
 30
0.0
 10
116.3092669
 20
117.9645848458
 30
0.0
 10
116.6636587071
 20
117.9780753066
 30
0.0
 10
116.8493394928
 20
117.9848910188
 30
0.0
  0
SPLINE
  5
457
100
AcDbEntity
  8
0
100
AcDbSpline
 62
7
  6
CONTINUOUS
 70
0
 71
3
 72
11
 73
7
 74
0
 42
0.0000001
 43
0.0000001
 44
0.0000000001
 40
0.0
 40
0.0
 40
0.0
 40
0.0
 40
0.2424504748
 40
0.4884289768
 40
0.7405228275
 40
1.0
 40
1.0
 40
1.0
 40
1.0
 10
115.7504320139
 20
121.0387161145
 30
0.0
 10
115.614819402
 20
121.0387161099
 30
0.0
 10
115.341239676
 20
121.0187156725
 30
0.0
 10
114.9352149253
 20
120.9312596976
 30
0.0
 10
114.5340423121
 20
120.7922087495
 30
0.0
 10
114.2739940046
 20
120.671792514
 30
0.0
 10
114.1447779416
 20
120.6057034126
 30
0.0
  0
LINE
  5
458
100
AcDbEntity
  8
0
100
AcDbLine
 62
7
  6
CONTINUOUS
 10
122.7596404433
 20
117.3399982382
 11
122.6875550398
 21
117.3387161145
  0
SPLINE
  5
459
100
AcDbEntity
  8
0
100
AcDbSpline
 62
7
  6
CONTINUOUS
 70
0
 71
3
 72
11
 73
7
 74
0
 42
0.0000001
 43
0.0000001
 44
0.0000000001
 40
0.0
 40
0.0
 40
0.0
 40
0.0
 40
0.2594721663
 40
0.5115657909
 40
0.7575467579
 40
1.0
 40
1.0
 40
1.0
 40
1.0
 10
117.3560860863
 20
120.6057034126
 30
0.0
 10
117.2268724697
 20
120.6717912628
 30
0.0
 10
116.9668271046
 20
120.7922069485
 30
0.0
 10
116.5656568797
 20
120.9312605307
 30
0.0
 10
116.1596290866
 20
121.0187174818
 30
0.0
 10
115.8860462227
 20
121.0387161191
 30
0.0
 10
115.7504320139
 20
121.0387161145
 30
0.0
  0
SPLINE
  5
45A
100
AcDbEntity
  8
0
100
AcDbSpline
 62
7
  6
CONTINUOUS
 70
0
 71
3
 72
16
 73
12
 74
0
 42
0.0000001
 43
0.0000001
 44
0.0000000001
 40
0.0
 40
0.0
 40
0.0
 40
0.0
 40
0.0177345109
 40
0.0416962526
 40
0.10830685
 40
0.1995972123
 40
0.3150359975
 40
0.4538691648
 40
0.6151345376
 40
0.7976559251
 40
1.0
 40
1.0
 40
1.0
 40
1.0
 10
114.045234223
 20
117.9848910306
 30
0.0
 10
114.0565799499
 20
117.9872445082
 30
0.0
 10
114.0835347192
 20
117.991379318
 30
0.0
 10
114.1538788686
 20
117.9991032596
 30
0.0
 10
114.2724705129
 20
118.0071669807
 30
0.0
 10
114.4508660918
 20
118.0154632186
 30
0.0
 10
114.6765390211
 20
118.0227561033
 30
0.0
 10
114.9479678619
 20
118.0290477704
 30
0.0
 10
115.2632606074
 20
118.0341233749
 30
0.0
 10
115.6200712131
 20
118.0377421194
 30
0.0
 10
115.8715325677
 20
118.038671828
 30
0.0
 10
116.0037387159
 20
118.0387161145
 30
0.0
  0
SPLINE
  5
45B
100
AcDbEntity
  8
0
100
AcDbSpline
 62
7
  6
CONTINUOUS
 70
0
 71
3
 72
9
 73
5
 74
0
 42
0.0000001
 43
0.0000001
 44
0.0000000001
 40
0.0
 40
0.0
 40
0.0
 40
0.0
 40
0.3103520225
 40
1.0
 40
1.0
 40
1.0
 40
1.0
 10
114.045234223
 20
117.9848910306
 30
0.0
 10
114.0427473027
 20
117.9843751614
 30
0.0
 10
114.0347684801
 20
117.9825980569
 30
0.0
 10
114.0267936518
 20
117.9805094139
 30
0.0
 10
114.021602028
 20
117.9782955567
 30
0.0
  0
SPLINE
  5
45C
100
AcDbEntity
  8
0
100
AcDbSpline
 62
7
  6
CONTINUOUS
 70
0
 71
3
 72
9
 73
5
 74
0
 42
0.0000001
 43
0.0000001
 44
0.0000000001
 40
0.0
 40
0.0
 40
0.0
 40
0.0
 40
0.306603744
 40
1.0
 40
1.0
 40
1.0
 40
1.0
 10
114.021602028
 20
117.9782955567
 30
0.0
 10
114.0209442168
 20
117.9780150471
 30
0.0
 10
114.0188324296
 20
117.9770455131
 30
0.0
 10
114.0167553568
 20
117.9758577146
 30
0.0
 10
114.0156122359
 20
117.974713658
 30
0.0
  0
LINE
  5
45D
100
AcDbEntity
  8
0
100
AcDbLine
 62
7
  6
CONTINUOUS
 10
122.6875550398
 20
117.3387161145
 11
119.5287408797
 21
117.2541517842
  0
LINE
  5
45E
100
AcDbEntity
  8
0
100
AcDbLine
 62
7
  6
CONTINUOUS
 10
119.5287408797
 20
117.2541517842
 11
119.2788470703
 21
117.2472971836
  0
SPLINE
  5
45F
100
AcDbEntity
  8
0
100
AcDbSpline
 62
7
  6
CONTINUOUS
 70
0
 71
3
 72
14
 73
10
 74
0
 42
0.0000001
 43
0.0000001
 44
0.0000000001
 40
0.0
 40
0.0
 40
0.0
 40
0.0
 40
0.3302408502
 40
0.4805166024
 40
0.6178374369
 40
0.7401457265
 40
0.8456109477
 40
0.932658995
 40
1.0
 40
1.0
 40
1.0
 40
1.0
 10
119.2788470703
 20
117.2472971836
 30
0.0
 10
118.6750649895
 20
117.2306655648
 30
0.0
 10
117.7965501784
 20
117.2057670471
 30
0.0
 10
116.6670820349
 20
117.170241242
 30
0.0
 10
115.9178057978
 20
117.1444940422
 30
0.0
 10
115.2505394489
 20
117.1188242002
 30
0.0
 10
114.6752887817
 20
117.0933042001
 30
0.0
 10
114.2006880461
 20
117.0679667931
 30
0.0
 10
113.9189232978
 20
117.048959536
 30
0.0
 10
113.7961832033
 20
117.0387157942
 30
0.0
  0
SPLINE
  5
460
100
AcDbEntity
  8
0
100
AcDbSpline
 62
7
  6
CONTINUOUS
 70
0
 71
3
 72
18
 73
14
 74
0
 42
0.0000001
 43
0.0000001
 44
0.0000000001
 40
0.0
 40
0.0
 40
0.0
 40
0.0
 40
0.1986648228
 40
0.3795329183
 40
0.5405561936
 40
0.6800603962
 40
0.7966173612
 40
0.8459377932
 40
0.8891469361
 40
0.9261652256
 40
0.9569553443
 40
0.9815323461
 40
1.0
 40
1.0
 40
1.0
 40
1.0
 10
116.8493394928
 20
117.9848910188
 30
0.0
 10
116.6366605944
 20
117.9693411967
 30
0.0
 10
116.2304238642
 20
117.9386700262
 30
0.0
 10
115.6521420018
 20
117.8910698233
 30
0.0
 10
115.1375584169
 20
117.8438960229
 30
0.0
 10
114.6922919603
 20
117.7971777638
 30
0.0
 10
114.3669464484
 20
117.7568430586
 30
0.0
 10
114.1449313728
 20
117.7239154378
 30
0.0
 10
114.007804766
 20
117.7007420688
 30
0.0
 10
113.8908708314
 20
117.6777166986
 30
0.0
 10
113.7943163585
 20
117.6548862939
 30
0.0
 10
113.7183309321
 20
117.6322994352
 30
0.0
 10
113.6752277856
 20
117.6151613773
 30
0.0
 10
113.6576499159
 20
117.6059975284
 30
0.0
  0
SPLINE
  5
461
100
AcDbEntity
  8
0
100
AcDbSpline
 62
7
  6
CONTINUOUS
 70
0
 71
3
 72
11
 73
7
 74
0
 42
0.0000001
 43
0.0000001
 44
0.0000000001
 40
0.0
 40
0.0
 40
0.0
 40
0.0
 40
0.2404053342
 40
0.4855030662
 40
0.7383571529
 40
1.0
 40
1.0
 40
1.0
 40
1.0
 10
117.915495523
 20
131.2387161145
 30
0.0
 10
118.0134287838
 20
131.2387161145
 30
0.0
 10
118.2115737222
 20
131.2216419191
 30
0.0
 10
118.5042542735
 20
131.1478875634
 30
0.0
 10
118.792191774
 20
131.0326120644
 30
0.0
 10
118.9778909796
 20
130.9347428886
 30
0.0
 10
119.0701960618
 20
130.8814505245
 30
0.0
  0
SPLINE
  5
462
100
AcDbEntity
  8
0
100
AcDbSpline
 62
7
  6
CONTINUOUS
 70
0
 71
3
 72
15
 73
11
 74
0
 42
0.0000001
 43
0.0000001
 44
0.0000000001
 40
0.0
 40
0.0
 40
0.0
 40
0.0
 40
0.1308200724
 40
0.2572467341
 40
0.3797970183
 40
0.5000000228
 40
0.620203024
 40
0.7427533002
 40
0.8691799394
 40
1.0
 40
1.0
 40
1.0
 40
1.0
 10
119.0701960618
 20
128.0361510629
 30
0.0
 10
118.9778920148
 20
128.0894428293
 30
0.0
 10
118.7921900086
 20
128.1873111024
 30
0.0
 10
118.5042717966
 20
128.302588106
 30
0.0
 10
118.2115255581
 20
128.3763395699
 30
0.0
 10
117.9154954712
 20
128.4018618995
 30
0.0
 10
117.6194653947
 20
128.3763395371
 30
0.0
 10
117.3267191861
 20
128.3025880724
 30
0.0
 10
117.0388010042
 20
128.1873110865
 30
0.0
 10
116.8530990237
 20
128.0894428245
 30
0.0
 10
116.7607949851
 20
128.0361510629
 30
0.0
  0
LINE
  5
463
100
AcDbEntity
  8
0
100
AcDbLine
 62
7
  6
CONTINUOUS
 10
121.3687805183
 20
126.1387159925
 11
121.3795971386
 21
126.2387161145
  0
SPLINE
  5
464
100
AcDbEntity
  8
0
100
AcDbSpline
 62
7
  6
CONTINUOUS
 70
0
 71
3
 72
9
 73
5
 74
0
 42
0.0000001
 43
0.0000001
 44
0.0000000001
 40
0.0
 40
0.0
 40
0.0
 40
0.0
 40
0.2507008086
 40
1.0
 40
1.0
 40
1.0
 40
1.0
 10
121.3795971386
 20
126.2387161145
 30
0.0
 10
121.4092840663
 20
126.2302123215
 30
0.0
 10
121.5277651736
 20
126.1965200462
 30
0.0
 10
121.6464329106
 20
126.1634899232
 30
0.0
 10
121.7353411213
 20
126.1387083902
 30
0.0
  0
SPLINE
  5
465
100
AcDbEntity
  8
0
100
AcDbSpline
 62
7
  6
CONTINUOUS
 70
0
 71
3
 72
10
 73
6
 74
0
 42
0.0000001
 43
0.0000001
 44
0.0000000001
 40
0.0
 40
0.0
 40
0.0
 40
0.0
 40
0.4999011814
 40
0.7499517172
 40
1.0
 40
1.0
 40
1.0
 40
1.0
 10
119.0701960618
 20
130.8814505245
 30
0.0
 10
119.4454223404
 20
130.989769021
 30
0.0
 10
120.0174652954
 20
131.1251818083
 30
0.0
 10
120.793337558
 20
131.2220446313
 30
0.0
 10
121.1842468699
 20
131.2387161145
 30
0.0
 10
121.3795971384
 20
131.2387161145
 30
0.0
  0
SPLINE
  5
466
100
AcDbEntity
  8
0
100
AcDbSpline
 62
7
  6
CONTINUOUS
 70
0
 71
3
 72
10
 73
6
 74
0
 42
0.0000001
 43
0.0000001
 44
0.0000000001
 40
0.0
 40
0.0
 40
0.0
 40
0.0
 40
0.2500483041
 40
0.5000988454
 40
1.0
 40
1.0
 40
1.0
 40
1.0
 10
121.3795971384
 20
131.2387161145
 30
0.0
 10
121.5749474236
 20
131.2387161145
 30
0.0
 10
121.965856757
 20
131.2220446344
 30
0.0
 10
122.7417290181
 20
131.1251817971
 30
0.0
 10
123.3137719568
 20
130.9897690152
 30
0.0
 10
123.6889982153
 20
130.8814505245
 30
0.0
  0
SPLINE
  5
467
100
AcDbEntity
  8
0
100
AcDbSpline
 62
7
  6
CONTINUOUS
 70
0
 71
3
 72
10
 73
6
 74
0
 42
0.0000001
 43
0.0000001
 44
0.0000000001
 40
0.0
 40
0.0
 40
0.0
 40
0.0
 40
0.4999007856
 40
0.7499513904
 40
1.0
 40
1.0
 40
1.0
 40
1.0
 10
123.6889982153
 20
128.0361510629
 30
0.0
 10
123.313772233
 20
128.1444694739
 30
0.0
 10
122.7417295289
 20
128.2798821673
 30
0.0
 10
121.9658572906
 20
128.3767452215
 30
0.0
 10
121.5749476628
 20
128.3934166528
 30
0.0
 10
121.3795971386
 20
128.3934166528
 30
0.0
  0
SPLINE
  5
468
100
AcDbEntity
  8
0
100
AcDbSpline
 62
7
  6
CONTINUOUS
 70
0
 71
3
 72
10
 73
6
 74
0
 42
0.0000001
 43
0.0000001
 44
0.0000000001
 40
0.0
 40
0.0
 40
0.0
 40
0.0
 40
0.2500490219
 40
0.5000997455
 40
1.0
 40
1.0
 40
1.0
 40
1.0
 10
121.3795971386
 20
128.3934166528
 30
0.0
 10
121.1842462916
 20
128.3934166528
 30
0.0
 10
120.793336242
 20
128.3767452649
 30
0.0
 10
120.0174640279
 20
128.2798819691
 30
0.0
 10
119.4454216466
 20
128.1444693591
 30
0.0
 10
119.0701960618
 20
128.0361510629
 30
0.0
  0
SPLINE
  5
469
100
AcDbEntity
  8
0
100
AcDbSpline
 62
7
  6
CONTINUOUS
 70
0
 71
3
 72
11
 73
7
 74
0
 42
0.0000001
 43
0.0000001
 44
0.0000000001
 40
0.0
 40
0.0
 40
0.0
 40
0.0
 40
0.2616429466
 40
0.5144970929
 40
0.7595947853
 40
1.0
 40
1.0
 40
1.0
 40
1.0
 10
123.6889982153
 20
130.8814505245
 30
0.0
 10
123.7813033324
 20
130.9347429088
 30
0.0
 10
123.9670026002
 20
131.0326121035
 30
0.0
 10
124.2549401468
 20
131.1478876235
 30
0.0
 10
124.5476206733
 20
131.2216419029
 30
0.0
 10
124.7457655422
 20
131.2387161145
 30
0.0
 10
124.8436987541
 20
131.2387161145
 30
0.0
  0
SPLINE
  5
46A
100
AcDbEntity
  8
0
100
AcDbSpline
 62
7
  6
CONTINUOUS
 70
0
 71
3
 72
11
 73
7
 74
0
 42
0.0000001
 43
0.0000001
 44
0.0000000001
 40
0.0
 40
0.0
 40
0.0
 40
0.0
 40
0.2404052601
 40
0.485503008
 40
0.7383572234
 40
1.0
 40
1.0
 40
1.0
 40
1.0
 10
124.8436987541
 20
131.2387161145
 30
0.0
 10
124.9416319844
 20
131.2387161144
 30
0.0
 10
125.1397768974
 20
131.2216419133
 30
0.0
 10
125.4324574757
 20
131.1478875568
 30
0.0
 10
125.7203950113
 20
131.0326120649
 30
0.0
 10
125.9060942351
 20
130.934742874
 30
0.0
 10
125.9983992921
 20
130.8814505245
 30
0.0
  0
SPLINE
  5
46B
100
AcDbEntity
  8
0
100
AcDbSpline
 62
7
  6
CONTINUOUS
 70
0
 71
3
 72
15
 73
11
 74
0
 42
0.0000001
 43
0.0000001
 44
0.0000000001
 40
0.0
 40
0.0
 40
0.0
 40
0.0
 40
0.1308200724
 40
0.2572467341
 40
0.3797970183
 40
0.5000000228
 40
0.620203024
 40
0.7427533002
 40
0.8691799394
 40
1.0
 40
1.0
 40
1.0
 40
1.0
 10
125.9983992921
 20
128.0361510629
 30
0.0
 10
125.9060952451
 20
128.0894428293
 30
0.0
 10
125.7203932389
 20
128.1873111024
 30
0.0
 10
125.4324750269
 20
128.302588106
 30
0.0
 10
125.1397287884
 20
128.3763395699
 30
0.0
 10
124.8436987015
 20
128.4018618995
 30
0.0
 10
124.547668625
 20
128.3763395371
 30
0.0
 10
124.2549224164
 20
128.3025880724
 30
0.0
 10
123.9670042345
 20
128.1873110865
 30
0.0
 10
123.781302254
 20
128.0894428245
 30
0.0
 10
123.6889982153
 20
128.0361510629
 30
0.0
  0
SPLINE
  5
46C
100
AcDbEntity
  8
0
100
AcDbSpline
 62
7
  6
CONTINUOUS
 70
0
 71
3
 72
11
 73
7
 74
0
 42
0.0000001
 43
0.0000001
 44
0.0000000001
 40
0.0
 40
0.0
 40
0.0
 40
0.0
 40
0.2616427032
 40
0.5144968934
 40
0.7595946658
 40
1.0
 40
1.0
 40
1.0
 40
1.0
 10
116.7607949851
 20
130.8814505245
 30
0.0
 10
116.8531000163
 20
130.9347428592
 30
0.0
 10
117.0387992019
 20
131.0326120372
 30
0.0
 10
117.3267367074
 20
131.1478875204
 30
0.0
 10
117.6194173066
 20
131.2216419212
 30
0.0
 10
117.8175622624
 20
131.2387161144
 30
0.0
 10
117.915495523
 20
131.2387161145
 30
0.0
  0
SPLINE
  5
46D
100
AcDbEntity
  8
0
100
AcDbSpline
 62
7
  6
CONTINUOUS
 70
0
 71
3
 72
8
 73
4
 74
0
 42
0.0000001
 43
0.0000001
 44
0.0000000001
 40
0.0
 40
0.0
 40
0.0
 40
0.0
 40
1.0
 40
1.0
 40
1.0
 40
1.0
 10
155.8795971386
 20
141.4753911564
 30
0.0
 10
155.8795971386
 20
141.3630099234
 30
0.0
 10
155.8841835113
 20
141.2503213156
 30
0.0
 10
155.8973676156
 20
141.1387161145
 30
0.0
  0
SPLINE
  5
46E
100
AcDbEntity
  8
0
100
AcDbSpline
 62
7
  6
CONTINUOUS
 70
0
 71
3
 72
8
 73
4
 74
0
 42
0.0000001
 43
0.0000001
 44
0.0000000001
 40
0.0
 40
0.0
 40
0.0
 40
0.0
 40
1.0
 40
1.0
 40
1.0
 40
1.0
 10
155.8973676156
 20
144.1387161145
 30
0.0
 10
155.8867875016
 20
144.049154038
 30
0.0
 10
155.8817160589
 20
143.9588809502
 30
0.0
 10
155.8801565151
 20
143.8687096013
 30
0.0
  0
SPLINE
  5
46F
100
AcDbEntity
  8
0
100
AcDbSpline
 62
7
  6
CONTINUOUS
 70
0
 71
3
 72
9
 73
5
 74
0
 42
0.0000001
 43
0.0000001
 44
0.0000000001
 40
0.0
 40
0.0
 40
0.0
 40
0.0
 40
0.5000128738
 40
1.0
 40
1.0
 40
1.0
 40
1.0
 10
138.9732607799
 20
81.1565960926
 30
0.0
 10
139.1414943754
 20
82.3122607007
 30
0.0
 10
139.4091051058
 20
84.6344237715
 30
0.0
 10
139.5035963249
 20
86.9709307012
 30
0.0
 10
139.5035967276
 20
88.1387161145
 30
0.0
  0
SPLINE
  5
470
100
AcDbEntity
  8
0
100
AcDbSpline
 62
7
  6
CONTINUOUS
 70
0
 71
3
 72
12
 73
8
 74
0
 42
0.0000001
 43
0.0000001
 44
0.0000000001
 40
0.0
 40
0.0
 40
0.0
 40
0.0
 40
0.3199248472
 40
0.6077179167
 40
0.8395841064
 40
0.92935266
 40
1.0
 40
1.0
 40
1.0
 40
1.0
 10
138.9576413762
 20
81.1571314334
 30
0.0
 10
138.9071247494
 20
81.1606157265
 30
0.0
 10
138.8109026855
 20
81.1642052159
 30
0.0
 10
138.678028445
 20
81.15983746
 30
0.0
 10
138.5819392438
 20
81.1483553115
 30
0.0
 10
138.5216284584
 20
81.1333784619
 30
0.0
 10
138.4977375781
 20
81.1243793978
 30
0.0
 10
138.4877950658
 20
81.1192627871
 30
0.0
  0
SPLINE
  5
471
100
AcDbEntity
  8
0
100
AcDbSpline
 62
7
  6
CONTINUOUS
 70
0
 71
3
 72
9
 73
5
 74
0
 42
0.0000001
 43
0.0000001
 44
0.0000000001
 40
0.0
 40
0.0
 40
0.0
 40
0.0
 40
0.5000133889
 40
1.0
 40
1.0
 40
1.0
 40
1.0
 10
138.4877950658
 20
81.1192637096
 30
0.0
 10
138.6604535455
 20
82.2807892385
 30
0.0
 10
138.9360554922
 20
84.6150554002
 30
0.0
 10
139.0337501985
 20
86.9644909182
 30
0.0
 10
139.0337504172
 20
88.1387161145
 30
0.0
  0
SPLINE
  5
472
100
AcDbEntity
  8
0
100
AcDbSpline
 62
7
  6
CONTINUOUS
 70
0
 71
3
 72
11
 73
7
 74
0
 42
0.0000001
 43
0.0000001
 44
0.0000000001
 40
0.0
 40
0.0
 40
0.0
 40
0.0
 40
0.2705879587
 40
0.5321946123
 40
0.7763651892
 40
1.0
 40
1.0
 40
1.0
 40
1.0
 10
138.9576413762
 20
78.2059058695
 30
0.0
 10
138.9063267177
 20
78.2027555938
 30
0.0
 10
138.8057381184
 20
78.184834754
 30
0.0
 10
138.6690815629
 20
78.1257419941
 30
0.0
 10
138.5582580298
 20
78.0399347802
 30
0.0
 10
138.5057303341
 20
77.9659609934
 30
0.0
 10
138.4877950658
 20
77.9274415542
 30
0.0
  0
SPLINE
  5
473
100
AcDbEntity
  8
0
100
AcDbSpline
 62
7
  6
CONTINUOUS
 70
0
 71
3
 72
13
 73
9
 74
0
 42
0.0000001
 43
0.0000001
 44
0.0000000001
 40
0.0
 40
0.0
 40
0.0
 40
0.0
 40
0.2519340657
 40
0.3762497658
 40
0.4999999765
 40
0.6237501904
 40
0.7480659021
 40
1.0
 40
1.0
 40
1.0
 40
1.0
 10
138.9732608069
 20
71.2242623449
 30
0.0
 10
139.1395356348
 20
71.7953668484
 30
0.0
 10
139.3408265353
 20
72.6640000045
 30
0.0
 10
139.4800647779
 20
73.8372111364
 30
0.0
 10
139.5152877104
 20
74.7153221852
 30
0.0
 10
139.4800646646
 20
75.5934332543
 30
0.0
 10
139.3408264326
 20
76.7666444957
 30
0.0
 10
139.1395356035
 20
77.635277772
 30
0.0
 10
138.9732608172
 20
78.2063823667
 30
0.0
  0
SPLINE
  5
474
100
AcDbEntity
  8
0
100
AcDbSpline
 62
7
  6
CONTINUOUS
 70
0
 71
3
 72
11
 73
7
 74
0
 42
0.0000001
 43
0.0000001
 44
0.0000000001
 40
0.0
 40
0.0
 40
0.0
 40
0.0
 40
0.255334014
 40
0.5071437825
 40
0.7550407329
 40
1.0
 40
1.0
 40
1.0
 40
1.0
 10
138.9576413762
 20
71.2243211831
 30
0.0
 10
138.9065181049
 20
71.2247088003
 30
0.0
 10
138.8041916735
 20
71.2101209846
 30
0.0
 10
138.6656294315
 20
71.144245309
 30
0.0
 10
138.554558959
 20
71.0414160575
 30
0.0
 10
138.5050414602
 20
70.9539034831
 30
0.0
 10
138.4877950658
 20
70.9079882027
 30
0.0
  0
SPLINE
  5
475
100
AcDbEntity
  8
0
100
AcDbSpline
 62
7
  6
CONTINUOUS
 70
0
 71
3
 72
13
 73
9
 74
0
 42
0.0000001
 43
0.0000001
 44
0.0000000001
 40
0.0
 40
0.0
 40
0.0
 40
0.0
 40
0.2532721236
 40
0.3779247197
 40
0.5017449033
 40
0.6253106729
 40
0.7492335989
 40
1.0
 40
1.0
 40
1.0
 40
1.0
 10
138.4877950658
 20
70.9079883121
 30
0.0
 10
138.6582363074
 20
71.4849165126
 30
0.0
 10
138.8654235851
 20
72.3618282412
 30
0.0
 10
139.0093717135
 20
73.5458615545
 30
0.0
 10
139.045850142
 20
74.4297957348
 30
0.0
 10
139.0095128856
 20
75.3120093978
 30
0.0
 10
138.865881916
 20
76.4877453915
 30
0.0
 10
138.6585214149
 20
77.3568063945
 30
0.0
 10
138.4877950658
 20
77.927440717
 30
0.0
  0
SPLINE
  5
476
100
AcDbEntity
  8
GEOM
100
AcDbSpline
 62
7
  6
CONTINUOUS
 70
0
 71
3
 72
11
 73
7
 74
0
 42
0.0000001
 43
0.0000001
 44
0.0000000001
 40
0.0
 40
0.0
 40
0.0
 40
0.0
 40
0.2582940867
 40
0.5100287959
 40
0.7564993184
 40
1.0
 40
1.0
 40
1.0
 40
1.0
 10
149.5135717348
 20
71.2242623449
 30
0.0
 10
149.647321191
 20
71.506285176
 30
0.0
 10
149.8899418928
 20
72.0738310107
 30
0.0
 10
150.1672392296
 20
72.9466902737
 30
0.0
 10
150.3402466567
 20
73.8282769499
 30
0.0
 10
150.3795971386
 20
74.4210681389
 30
0.0
 10
150.3795971386
 20
74.7153223558
 30
0.0
  0
SPLINE
  5
477
100
AcDbEntity
  8
GEOM
100
AcDbSpline
 62
7
  6
CONTINUOUS
 70
0
 71
3
 72
11
 73
7
 74
0
 42
0.0000001
 43
0.0000001
 44
0.0000000001
 40
0.0
 40
0.0
 40
0.0
 40
0.0
 40
0.2435006897
 40
0.4899712202
 40
0.7417059179
 40
1.0
 40
1.0
 40
1.0
 40
1.0
 10
150.3795971386
 20
74.7153223558
 30
0.0
 10
150.3795971386
 20
75.0095765824
 30
0.0
 10
150.3402466528
 20
75.6023677907
 30
0.0
 10
150.1672392215
 20
76.4839544719
 30
0.0
 10
149.889941881
 20
77.3568137232
 30
0.0
 10
149.6473211886
 20
77.9243595406
 30
0.0
 10
149.5135717348
 20
78.2063823667
 30
0.0
  0
SPLINE
  5
478
100
AcDbEntity
  8
GEOM
100
AcDbSpline
 62
7
  6
CONTINUOUS
 70
0
 71
3
 72
11
 73
7
 74
0
 42
0.0000001
 43
0.0000001
 44
0.0000000001
 40
0.0
 40
0.0
 40
0.0
 40
0.0
 40
0.2582940867
 40
0.5100287959
 40
0.7564993184
 40
1.0
 40
1.0
 40
1.0
 40
1.0
 10
149.5135717348
 20
98.0710498622
 30
0.0
 10
149.647321191
 20
98.3530726933
 30
0.0
 10
149.8899418928
 20
98.920618528
 30
0.0
 10
150.1672392296
 20
99.793477791
 30
0.0
 10
150.3402466567
 20
100.6750644673
 30
0.0
 10
150.3795971386
 20
101.2678556562
 30
0.0
 10
150.3795971386
 20
101.5621098731
 30
0.0
  0
SPLINE
  5
479
100
AcDbEntity
  8
GEOM
100
AcDbSpline
 62
7
  6
CONTINUOUS
 70
0
 71
3
 72
11
 73
7
 74
0
 42
0.0000001
 43
0.0000001
 44
0.0000000001
 40
0.0
 40
0.0
 40
0.0
 40
0.0
 40
0.2435006897
 40
0.4899712202
 40
0.7417059179
 40
1.0
 40
1.0
 40
1.0
 40
1.0
 10
150.3795971386
 20
101.5621098731
 30
0.0
 10
150.3795971386
 20
101.8563640997
 30
0.0
 10
150.3402466528
 20
102.449155308
 30
0.0
 10
150.1672392215
 20
103.3307419892
 30
0.0
 10
149.889941881
 20
104.2036012405
 30
0.0
 10
149.6473211886
 20
104.7711470579
 30
0.0
 10
149.5135717348
 20
105.0531698841
 30
0.0
  0
SPLINE
  5
47A
100
AcDbEntity
  8
GEOM
100
AcDbSpline
 62
7
  6
CONTINUOUS
 70
0
 71
3
 72
10
 73
6
 74
0
 42
0.0000001
 43
0.0000001
 44
0.0000000001
 40
0.0
 40
0.0
 40
0.0
 40
0.0
 40
0.4999146076
 40
0.7499572993
 40
1.0
 40
1.0
 40
1.0
 40
1.0
 10
149.5135717348
 20
81.1565960926
 30
0.0
 10
149.7846147413
 20
82.2996335032
 30
0.0
 10
150.1126493305
 20
84.0356666061
 30
0.0
 10
150.3408023049
 20
86.375616502
 30
0.0
 10
150.3795971386
 20
87.5511486851
 30
0.0
 10
150.3795971386
 20
88.1387161145
 30
0.0
  0
SPLINE
  5
47B
100
AcDbEntity
  8
GEOM
100
AcDbSpline
 62
7
  6
CONTINUOUS
 70
0
 71
3
 72
10
 73
6
 74
0
 42
0.0000001
 43
0.0000001
 44
0.0000000001
 40
0.0
 40
0.0
 40
0.0
 40
0.0
 40
0.2500427089
 40
0.5000854085
 40
1.0
 40
1.0
 40
1.0
 40
1.0
 10
150.3795971386
 20
88.1387161145
 30
0.0
 10
150.3795971386
 20
88.7262835631
 30
0.0
 10
150.3408023012
 20
89.9018157842
 30
0.0
 10
150.1126493216
 20
92.2417656796
 30
0.0
 10
149.7846147325
 20
93.9777987627
 30
0.0
 10
149.5135717348
 20
95.1208361363
 30
0.0
  0
SPLINE
  5
47C
100
AcDbEntity
  8
0
100
AcDbSpline
 62
7
  6
CONTINUOUS
 70
0
 71
3
 72
11
 73
7
 74
0
 42
0.0000001
 43
0.0000001
 44
0.0000000001
 40
0.0
 40
0.0
 40
0.0
 40
0.0
 40
0.2553340134
 40
0.5071437825
 40
0.7550407336
 40
1.0
 40
1.0
 40
1.0
 40
1.0
 10
138.9576413762
 20
105.0531110458
 30
0.0
 10
138.906518105
 20
105.0527234286
 30
0.0
 10
138.8041916736
 20
105.0673112443
 30
0.0
 10
138.6656294315
 20
105.1331869199
 30
0.0
 10
138.5545589589
 20
105.2360161715
 30
0.0
 10
138.5050414602
 20
105.3235287459
 30
0.0
 10
138.4877950658
 20
105.3694440263
 30
0.0
  0
SPLINE
  5
47D
100
AcDbEntity
  8
0
100
AcDbSpline
 62
7
  6
CONTINUOUS
 70
0
 71
3
 72
13
 73
9
 74
0
 42
0.0000001
 43
0.0000001
 44
0.0000000001
 40
0.0
 40
0.0
 40
0.0
 40
0.0
 40
0.2519340979
 40
0.3762498096
 40
0.5000000235
 40
0.6237502342
 40
0.7480659343
 40
1.0
 40
1.0
 40
1.0
 40
1.0
 10
138.9732608172
 20
98.0710498622
 30
0.0
 10
139.1395356036
 20
98.6421544569
 30
0.0
 10
139.3408264328
 20
99.5107877331
 30
0.0
 10
139.4800646644
 20
100.6839989746
 30
0.0
 10
139.5152877105
 20
101.5621100437
 30
0.0
 10
139.4800647779
 20
102.4402210925
 30
0.0
 10
139.3408265351
 20
103.6134322244
 30
0.0
 10
139.1395356347
 20
104.4820653805
 30
0.0
 10
138.9732608069
 20
105.0531698841
 30
0.0
  0
SPLINE
  5
47E
100
AcDbEntity
  8
0
100
AcDbSpline
 62
7
  6
CONTINUOUS
 70
0
 71
3
 72
11
 73
7
 74
0
 42
0.0000001
 43
0.0000001
 44
0.0000000001
 40
0.0
 40
0.0
 40
0.0
 40
0.0
 40
0.2705879593
 40
0.5321946123
 40
0.7763651887
 40
1.0
 40
1.0
 40
1.0
 40
1.0
 10
138.9576413762
 20
98.0715263594
 30
0.0
 10
138.9063267176
 20
98.0746766351
 30
0.0
 10
138.8057381183
 20
98.0925974749
 30
0.0
 10
138.6690815629
 20
98.1516902348
 30
0.0
 10
138.5582580299
 20
98.2374974487
 30
0.0
 10
138.5057303341
 20
98.3114712354
 30
0.0
 10
138.4877950658
 20
98.3499906747
 30
0.0
  0
SPLINE
  5
47F
100
AcDbEntity
  8
0
100
AcDbSpline
 62
7
  6
CONTINUOUS
 70
0
 71
3
 72
13
 73
9
 74
0
 42
0.0000001
 43
0.0000001
 44
0.0000000001
 40
0.0
 40
0.0
 40
0.0
 40
0.0
 40
0.2507664011
 40
0.3746893271
 40
0.4982550967
 40
0.6220752803
 40
0.7467278764
 40
1.0
 40
1.0
 40
1.0
 40
1.0
 10
138.4877950658
 20
98.3499915119
 30
0.0
 10
138.6585214149
 20
98.9206258343
 30
0.0
 10
138.8658819161
 20
99.7896868374
 30
0.0
 10
139.0095128855
 20
100.965422831
 30
0.0
 10
139.045850142
 20
101.8476364941
 30
0.0
 10
139.0093717135
 20
102.7315706744
 30
0.0
 10
138.8654235851
 20
103.9156039877
 30
0.0
 10
138.6582363074
 20
104.7925157163
 30
0.0
 10
138.4877950658
 20
105.3694439168
 30
0.0
  0
SPLINE
  5
480
100
AcDbEntity
  8
0
100
AcDbSpline
 62
7
  6
CONTINUOUS
 70
0
 71
3
 72
9
 73
5
 74
0
 42
0.0000001
 43
0.0000001
 44
0.0000000001
 40
0.0
 40
0.0
 40
0.0
 40
0.0
 40
0.4999871261
 40
1.0
 40
1.0
 40
1.0
 40
1.0
 10
139.5035967276
 20
88.1387161145
 30
0.0
 10
139.5035963229
 20
89.3065015276
 30
0.0
 10
139.4091051062
 20
91.6430084572
 30
0.0
 10
139.1414943754
 20
93.9651715281
 30
0.0
 10
138.9732607799
 20
95.1208361363
 30
0.0
  0
SPLINE
  5
481
100
AcDbEntity
  8
0
100
AcDbSpline
 62
7
  6
CONTINUOUS
 70
0
 71
3
 72
9
 73
5
 74
0
 42
0.0000001
 43
0.0000001
 44
0.0000000001
 40
0.0
 40
0.0
 40
0.0
 40
0.0
 40
0.499986611
 40
1.0
 40
1.0
 40
1.0
 40
1.0
 10
139.0337504172
 20
88.1387161145
 30
0.0
 10
139.0337501974
 20
89.3129413106
 30
0.0
 10
138.9360554927
 20
91.6623768286
 30
0.0
 10
138.6604535455
 20
93.9966429902
 30
0.0
 10
138.4877950658
 20
95.1581685194
 30
0.0
  0
SPLINE
  5
482
100
AcDbEntity
  8
0
100
AcDbSpline
 62
7
  6
CONTINUOUS
 70
0
 71
3
 72
12
 73
8
 74
0
 42
0.0000001
 43
0.0000001
 44
0.0000000001
 40
0.0
 40
0.0
 40
0.0
 40
0.0
 40
0.3199248473
 40
0.6077179168
 40
0.8395841066
 40
0.9293526602
 40
1.0
 40
1.0
 40
1.0
 40
1.0
 10
138.9576413762
 20
95.1203007955
 30
0.0
 10
138.9071247494
 20
95.1168165024
 30
0.0
 10
138.8109026855
 20
95.113227013
 30
0.0
 10
138.678028445
 20
95.1175947689
 30
0.0
 10
138.5819392439
 20
95.1290769178
 30
0.0
 10
138.5216284584
 20
95.1440537672
 30
0.0
 10
138.4977375781
 20
95.1530528311
 30
0.0
 10
138.4877950658
 20
95.1581694418
 30
0.0
  0
SPLINE
  5
483
100
AcDbEntity
  8
0
100
AcDbSpline
 62
7
  6
CONTINUOUS
 70
0
 71
3
 72
8
 73
4
 74
0
 42
0.0000001
 43
0.0000001
 44
0.0000000001
 40
0.0
 40
0.0
 40
0.0
 40
0.0
 40
1.0
 40
1.0
 40
1.0
 40
1.0
 10
130.5795971386
 20
82.9277835126
 30
0.0
 10
130.5795971386
 20
83.1778176211
 30
0.0
 10
130.7099433772
 20
83.3838112653
 30
0.0
 10
130.9690431976
 20
83.5425717049
 30
0.0
  0
SPLINE
  5
484
100
AcDbEntity
  8
0
100
AcDbSpline
 62
7
  6
CONTINUOUS
 70
0
 71
3
 72
8
 73
4
 74
0
 42
0.0000001
 43
0.0000001
 44
0.0000000001
 40
0.0
 40
0.0
 40
0.0
 40
0.0
 40
1.0
 40
1.0
 40
1.0
 40
1.0
 10
130.9690431976
 20
83.5425717049
 30
0.0
 10
131.2292916409
 20
83.7020359501
 30
0.0
 10
131.5857071511
 20
83.7830127895
 30
0.0
 10
132.0398822061
 20
83.7830127895
 30
0.0
  0
SPLINE
  5
485
100
AcDbEntity
  8
0
100
AcDbSpline
 62
7
  6
CONTINUOUS
 70
0
 71
3
 72
8
 73
4
 74
0
 42
0.0000001
 43
0.0000001
 44
0.0000000001
 40
0.0
 40
0.0
 40
0.0
 40
0.0
 40
1.0
 40
1.0
 40
1.0
 40
1.0
 10
132.0398822061
 20
83.7830127895
 30
0.0
 10
132.3596379093
 20
83.7830127895
 30
0.0
 10
132.6345869533
 20
83.7446554968
 30
0.0
 10
132.8626928709
 20
83.6693613302
 30
0.0
  0
SPLINE
  5
486
100
AcDbEntity
  8
0
100
AcDbSpline
 62
7
  6
CONTINUOUS
 70
0
 71
3
 72
8
 73
4
 74
0
 42
0.0000001
 43
0.0000001
 44
0.0000000001
 40
0.0
 40
0.0
 40
0.0
 40
0.0
 40
1.0
 40
1.0
 40
1.0
 40
1.0
 10
132.8626928709
 20
83.6693613302
 30
0.0
 10
133.0907987885
 20
83.5940671635
 30
0.0
 10
133.2679881759
 20
83.4932009695
 30
0.0
 10
133.3929195156
 20
83.3656727921
 30
0.0
  0
SPLINE
  5
487
100
AcDbEntity
  8
0
100
AcDbSpline
 62
7
  6
CONTINUOUS
 70
0
 71
3
 72
8
 73
4
 74
0
 42
0.0000001
 43
0.0000001
 44
0.0000000001
 40
0.0
 40
0.0
 40
0.0
 40
0.0
 40
1.0
 40
1.0
 40
1.0
 40
1.0
 10
133.3929195156
 20
83.3656727921
 30
0.0
 10
133.5184973448
 20
83.2374846871
 30
0.0
 10
133.5795971386
 20
83.0485385623
 30
0.0
 10
133.5795971386
 20
82.7956636163
 30
0.0
  0
SPLINE
  5
488
100
AcDbEntity
  8
0
100
AcDbSpline
 62
7
  6
CONTINUOUS
 70
0
 71
3
 72
8
 73
4
 74
0
 42
0.0000001
 43
0.0000001
 44
0.0000000001
 40
0.0
 40
0.0
 40
0.0
 40
0.0
 40
1.0
 40
1.0
 40
1.0
 40
1.0
 10
133.1967050962
 20
82.7842982708
 30
0.0
 10
133.1967050962
 20
82.9618790501
 30
0.0
 10
133.1702285193
 20
83.0854754362
 30
0.0
 10
133.1168509044
 20
83.1549290186
 30
0.0
  0
SPLINE
  5
489
100
AcDbEntity
  8
0
100
AcDbSpline
 62
7
  6
CONTINUOUS
 70
0
 71
3
 72
8
 73
4
 74
0
 42
0.0000001
 43
0.0000001
 44
0.0000000001
 40
0.0
 40
0.0
 40
0.0
 40
0.0
 40
1.0
 40
1.0
 40
1.0
 40
1.0
 10
133.1168509044
 20
83.1549290186
 30
0.0
 10
133.0643222116
 20
83.2232780053
 30
0.0
 10
132.9910024188
 20
83.2815246526
 30
0.0
 10
132.8974916682
 20
83.3299921438
 30
0.0
  0
SPLINE
  5
48A
100
AcDbEntity
  8
0
100
AcDbSpline
 62
7
  6
CONTINUOUS
 70
0
 71
3
 72
8
 73
4
 74
0
 42
0.0000001
 43
0.0000001
 44
0.0000000001
 40
0.0
 40
0.0
 40
0.0
 40
0.0
 40
1.0
 40
1.0
 40
1.0
 40
1.0
 10
132.8974916682
 20
83.3299921438
 30
0.0
 10
132.6977233819
 20
83.4335339035
 30
0.0
 10
132.4187010459
 20
83.486097878
 30
0.0
 10
132.0602489344
 20
83.486097878
 30
0.0
  0
SPLINE
  5
48B
100
AcDbEntity
  8
0
100
AcDbSpline
 62
7
  6
CONTINUOUS
 70
0
 71
3
 72
8
 73
4
 74
0
 42
0.0000001
 43
0.0000001
 44
0.0000000001
 40
0.0
 40
0.0
 40
0.0
 40
0.0
 40
1.0
 40
1.0
 40
1.0
 40
1.0
 10
132.0602489344
 20
83.486097878
 30
0.0
 10
131.6997600428
 20
83.486097878
 30
0.0
 10
131.4268476002
 20
83.4306925671
 30
0.0
 10
131.2415712574
 20
83.3226734801
 30
0.0
  0
SPLINE
  5
48C
100
AcDbEntity
  8
0
100
AcDbSpline
 62
7
  6
CONTINUOUS
 70
0
 71
3
 72
8
 73
4
 74
0
 42
0.0000001
 43
0.0000001
 44
0.0000000001
 40
0.0
 40
0.0
 40
0.0
 40
0.0
 40
1.0
 40
1.0
 40
1.0
 40
1.0
 10
131.2415712574
 20
83.3226734801
 30
0.0
 10
131.1539351575
 20
83.2715802247
 30
0.0
 10
131.0846887461
 20
83.210492241
 30
0.0
 10
131.0362084058
 20
83.1407449401
 30
0.0
  0
SPLINE
  5
48D
100
AcDbEntity
  8
0
100
AcDbSpline
 62
7
  6
CONTINUOUS
 70
0
 71
3
 72
8
 73
4
 74
0
 42
0.0000001
 43
0.0000001
 44
0.0000000001
 40
0.0
 40
0.0
 40
0.0
 40
0.0
 40
1.0
 40
1.0
 40
1.0
 40
1.0
 10
131.0362084058
 20
83.1407449401
 30
0.0
 10
130.9869292013
 20
83.0698483356
 30
0.0
 10
130.9624892704
 20
82.9490932859
 30
0.0
 10
130.9624892704
 20
82.7757742616
 30
0.0
  0
SPLINE
  5
48E
100
AcDbEntity
  8
0
100
AcDbSpline
 62
7
  6
CONTINUOUS
 70
0
 71
3
 72
14
 73
10
 74
0
 42
0.0000001
 43
0.0000001
 44
0.0000000001
 40
0.0
 40
0.0
 40
0.0
 40
0.0
 40
0.0461928653
 40
0.1142765818
 40
0.2095512417
 40
0.3312287363
 40
0.4761636503
 40
0.6398180699
 40
1.0
 40
1.0
 40
1.0
 40
1.0
 10
112.1271634034
 20
113.2387161145
 30
0.0
 10
112.135390642
 20
113.2387166048
 30
0.0
 10
112.1549509375
 20
113.2281228172
 30
0.0
 10
112.1762650062
 20
113.1972155525
 30
0.0
 10
112.1974949031
 20
113.1508743381
 30
0.0
 10
112.2165447996
 20
113.089181138
 30
0.0
 10
112.2329253683
 20
113.0142457391
 30
0.0
 10
112.2501094533
 20
112.8963120343
 30
0.0
 10
112.2550410682
 20
112.8028667723
 30
0.0
 10
112.255041292
 20
112.7387161145
 30
0.0
  0
SPLINE
  5
48F
100
AcDbEntity
  8
0
100
AcDbSpline
 62
7
  6
CONTINUOUS
 70
0
 71
3
 72
11
 73
7
 74
0
 42
0.0000001
 43
0.0000001
 44
0.0000000001
 40
0.0
 40
0.0
 40
0.0
 40
0.0
 40
0.2466928157
 40
0.4956830744
 40
0.7472187939
 40
1.0
 40
1.0
 40
1.0
 40
1.0
 10
111.9323753247
 20
113.0387161145
 30
0.0
 10
111.9577062867
 20
113.0387161145
 30
0.0
 10
112.0091279031
 20
113.0493441386
 30
0.0
 10
112.0740508586
 20
113.0938499616
 30
0.0
 10
112.1169957837
 20
113.1604806605
 30
0.0
 10
112.1271634035
 20
113.2127599832
 30
0.0
 10
112.1271634034
 20
113.2387161145
 30
0.0
  0
SPLINE
  5
490
100
AcDbEntity
  8
0
100
AcDbSpline
 62
7
  6
CONTINUOUS
 70
0
 71
3
 72
12
 73
8
 74
0
 42
0.0000001
 43
0.0000001
 44
0.0000000001
 40
0.0
 40
0.0
 40
0.0
 40
0.0
 40
0.1443750027
 40
0.2431616217
 40
0.3621501283
 40
0.6558989559
 40
1.0
 40
1.0
 40
1.0
 40
1.0
 10
111.9323753247
 20
113.0387161145
 30
0.0
 10
111.9490920014
 20
113.0387163929
 30
0.0
 10
111.9760186446
 20
113.0221494746
 30
0.0
 10
112.0017143638
 20
112.9895228072
 30
0.0
 10
112.0305632723
 20
112.9372836398
 30
0.0
 10
112.0558755766
 20
112.8525885135
 30
0.0
 10
112.0629453478
 20
112.7785583711
 30
0.0
 10
112.0629453795
 20
112.7387161145
 30
0.0
  0
SPLINE
  5
491
100
AcDbEntity
  8
0
100
AcDbSpline
 62
7
  6
CONTINUOUS
 70
0
 71
3
 72
9
 73
5
 74
0
 42
0.0000001
 43
0.0000001
 44
0.0000000001
 40
0.0
 40
0.0
 40
0.0
 40
0.0
 40
0.5003084032
 40
1.0
 40
1.0
 40
1.0
 40
1.0
 10
112.255041292
 20
110.2958228956
 30
0.0
 10
112.2550285021
 20
110.2299045973
 30
0.0
 10
112.2838481112
 20
110.0966576838
 30
0.0
 10
112.3639775548
 20
109.9871101059
 30
0.0
 10
112.4121837297
 20
109.9422695051
 30
0.0
  0
SPLINE
  5
492
100
AcDbEntity
  8
0
100
AcDbSpline
 62
7
  6
CONTINUOUS
 70
0
 71
3
 72
9
 73
5
 74
0
 42
0.0000001
 43
0.0000001
 44
0.0000000001
 40
0.0
 40
0.0
 40
0.0
 40
0.0
 40
0.5000290987
 40
1.0
 40
1.0
 40
1.0
 40
1.0
 10
112.0629453795
 20
110.2958228956
 30
0.0
 10
112.0629120687
 20
110.2040993845
 30
0.0
 10
112.101521843
 20
110.0186946961
 30
0.0
 10
112.2103964534
 20
109.8643166638
 30
0.0
 10
112.2766006296
 20
109.8008481488
 30
0.0
  0
SPLINE
  5
493
100
AcDbEntity
  8
0
100
AcDbSpline
 62
7
  6
CONTINUOUS
 70
0
 71
3
 72
9
 73
5
 74
0
 42
0.0000001
 43
0.0000001
 44
0.0000000001
 40
0.0
 40
0.0
 40
0.0
 40
0.0
 40
0.5001994834
 40
1.0
 40
1.0
 40
1.0
 40
1.0
 10
112.7544561331
 20
109.3437413676
 30
0.0
 10
112.7829349824
 20
109.3165638352
 30
0.0
 10
112.8298731986
 20
109.2504932899
 30
0.0
 10
112.8465726742
 20
109.1709436954
 30
0.0
 10
112.8465730556
 20
109.1316093333
 30
0.0
  0
SPLINE
  5
494
100
AcDbEntity
  8
0
100
AcDbSpline
 62
7
  6
CONTINUOUS
 70
0
 71
3
 72
9
 73
5
 74
0
 42
0.0000001
 43
0.0000001
 44
0.0000000001
 40
0.0
 40
0.0
 40
0.0
 40
0.0
 40
0.5386034888
 40
1.0
 40
1.0
 40
1.0
 40
1.0
 10
113.037255158
 20
107.2287662586
 30
0.0
 10
113.0372550701
 20
107.1583092177
 30
0.0
 10
113.030863074
 20
107.0275494638
 30
0.0
 10
113.0091238858
 20
106.8976360839
 30
0.0
 10
112.9913268532
 20
106.8399623037
 30
0.0
  0
SPLINE
  5
495
100
AcDbEntity
  8
0
100
AcDbSpline
 62
7
  6
CONTINUOUS
 70
0
 71
3
 72
10
 73
6
 74
0
 42
0.0000001
 43
0.0000001
 44
0.0000000001
 40
0.0
 40
0.0
 40
0.0
 40
0.0
 40
0.534425689
 40
0.7831682763
 40
1.0
 40
1.0
 40
1.0
 40
1.0
 10
112.8465730556
 20
107.2287662586
 30
0.0
 10
112.8579725728
 20
107.1826605748
 30
0.0
 10
112.8713575721
 20
107.1140375226
 30
0.0
 10
112.8771616071
 20
107.0252870138
 30
0.0
 10
112.8749126326
 20
106.9837279319
 30
0.0
 10
112.8716493689
 20
106.9647365725
 30
0.0
  0
SPLINE
  5
496
100
AcDbEntity
  8
0
100
AcDbSpline
 62
7
  6
CONTINUOUS
 70
0
 71
3
 72
13
 73
9
 74
0
 42
0.0000001
 43
0.0000001
 44
0.0000000001
 40
0.0
 40
0.0
 40
0.0
 40
0.0
 40
0.3661259931
 40
0.6571642807
 40
0.7699753993
 40
0.8606347309
 40
0.9335639589
 40
1.0
 40
1.0
 40
1.0
 40
1.0
 10
112.9913467449
 20
106.8399637814
 30
0.0
 10
112.985699391
 20
106.8158864117
 30
0.0
 10
112.9714707697
 20
106.773513466
 30
0.0
 10
112.9442084261
 20
106.7283751611
 30
0.0
 10
112.9201829826
 20
106.7048980683
 30
0.0
 10
112.9040987134
 20
106.695007573
 30
0.0
 10
112.8883761993
 20
106.6917540026
 30
0.0
 10
112.8789862089
 20
106.6949919301
 30
0.0
 10
112.8752341775
 20
106.6974537487
 30
0.0
  0
SPLINE
  5
497
100
AcDbEntity
  8
0
100
AcDbSpline
 62
7
  6
CONTINUOUS
 70
0
 71
3
 72
9
 73
5
 74
0
 42
0.0000001
 43
0.0000001
 44
0.0000000001
 40
0.0
 40
0.0
 40
0.0
 40
0.0
 40
0.5353514724
 40
1.0
 40
1.0
 40
1.0
 40
1.0
 10
112.8716491746
 20
106.9647362359
 30
0.0
 10
112.9005423846
 20
106.9519180326
 30
0.0
 10
112.9511309607
 20
106.9188557096
 30
0.0
 10
112.9845262131
 20
106.8665368104
 30
0.0
 10
112.9913467449
 20
106.8399637814
 30
0.0
  0
SPLINE
  5
498
100
AcDbEntity
  8
0
100
AcDbSpline
 62
7
  6
CONTINUOUS
 70
0
 71
3
 72
11
 73
7
 74
0
 42
0.0000001
 43
0.0000001
 44
0.0000000001
 40
0.0
 40
0.0
 40
0.0
 40
0.0
 40
0.3234194263
 40
0.5732512036
 40
0.7880745559
 40
1.0
 40
1.0
 40
1.0
 40
1.0
 10
112.8716493689
 20
106.9647365725
 30
0.0
 10
112.8695511511
 20
106.9525616927
 30
0.0
 10
112.861611818
 20
106.931026278
 30
0.0
 10
112.837255724
 20
106.9110386775
 30
0.0
 10
112.8106394485
 20
106.9067597673
 30
0.0
 10
112.7946542487
 20
106.9123313812
 30
0.0
 10
112.7876434667
 20
106.9163791111
 30
0.0
  0
SPLINE
  5
499
100
AcDbEntity
  8
0
100
AcDbSpline
 62
7
  6
CONTINUOUS
 70
0
 71
3
 72
9
 73
5
 74
0
 42
0.0000001
 43
0.0000001
 44
0.0000000001
 40
0.0
 40
0.0
 40
0.0
 40
0.0
 40
0.3953202551
 40
1.0
 40
1.0
 40
1.0
 40
1.0
 10
112.875229076
 20
106.6974549921
 30
0.0
 10
112.8419979552
 20
106.7192558671
 30
0.0
 10
112.7585474864
 20
106.7753291029
 30
0.0
 10
112.6762001061
 20
106.833041208
 30
0.0
 10
112.6271393717
 20
106.8689401925
 30
0.0
  0
LINE
  5
49A
100
AcDbEntity
  8
0
100
AcDbLine
 62
7
  6
CONTINUOUS
 10
112.6271393717
 20
106.8689401925
 11
112.6241252004
 21
106.8711667288
  0
SPLINE
  5
49B
100
AcDbEntity
  8
0
100
AcDbSpline
 62
7
  6
CONTINUOUS
 70
0
 71
3
 72
9
 73
5
 74
0
 42
0.0000001
 43
0.0000001
 44
0.0000000001
 40
0.0
 40
0.0
 40
0.0
 40
0.0
 40
0.4944173493
 40
1.0
 40
1.0
 40
1.0
 40
1.0
 10
112.7876432617
 20
106.9163787561
 30
0.0
 10
112.8231816359
 20
106.8958598792
 30
0.0
 10
112.8821904245
 20
106.8275773987
 30
0.0
 10
112.8859745119
 20
106.7380191816
 30
0.0
 10
112.875229076
 20
106.6974549921
 30
0.0
  0
SPLINE
  5
49C
100
AcDbEntity
  8
0
100
AcDbSpline
 62
7
  6
CONTINUOUS
 70
0
 71
3
 72
9
 73
5
 74
0
 42
0.0000001
 43
0.0000001
 44
0.0000000001
 40
0.0
 40
0.0
 40
0.0
 40
0.0
 40
0.494239983
 40
1.0
 40
1.0
 40
1.0
 40
1.0
 10
127.6139119125
 20
104.8886700799
 30
0.0
 10
127.5390608828
 20
104.8203263687
 30
0.0
 10
127.3587911213
 20
104.7113310167
 30
0.0
 10
127.1519469928
 20
104.6745645296
 30
0.0
 10
127.0482260073
 20
104.6746036299
 30
0.0
  0
LINE
  5
49D
100
AcDbEntity
  8
0
100
AcDbLine
 62
7
  6
CONTINUOUS
 10
126.5740117812
 20
105.406464448
 11
126.9686023742
 21
106.0191355429
  0
SPLINE
  5
49E
100
AcDbEntity
  8
0
100
AcDbSpline
 62
7
  6
CONTINUOUS
 70
0
 71
3
 72
15
 73
11
 74
0
 42
0.0000001
 43
0.0000001
 44
0.0000000001
 40
0.0
 40
0.0
 40
0.0
 40
0.0
 40
0.0793536388
 40
0.1795622945
 40
0.2971730044
 40
0.429647843
 40
0.5719615264
 40
0.7183606994
 40
0.8630151213
 40
1.0
 40
1.0
 40
1.0
 40
1.0
 10
127.6139119125
 20
104.8886700799
 30
0.0
 10
127.5827291707
 20
104.8829344068
 30
0.0
 10
127.5106946329
 20
104.8765177018
 30
0.0
 10
127.3922096971
 20
104.8931919447
 30
0.0
 10
127.2586149791
 20
104.9361517437
 30
0.0
 10
127.1148633861
 20
104.9992903177
 30
0.0
 10
126.9676756094
 20
105.0814023574
 30
0.0
 10
126.824639913
 20
105.1793872075
 30
0.0
 10
126.6910602092
 20
105.2862536952
 30
0.0
 10
126.609114911
 20
105.3640269415
 30
0.0
 10
126.5733666752
 20
105.4054722067
 30
0.0
  0
LINE
  5
49F
100
AcDbEntity
  8
0
100
AcDbLine
 62
7
  6
CONTINUOUS
 10
127.6139117136
 20
104.8886702329
 11
128.0452825635
 21
105.4959086729
  0
SPLINE
  5
4A0
100
AcDbEntity
  8
0
100
AcDbSpline
 62
7
  6
CONTINUOUS
 70
0
 71
3
 72
9
 73
5
 74
0
 42
0.0000001
 43
0.0000001
 44
0.0000000001
 40
0.0
 40
0.0
 40
0.0
 40
0.0
 40
0.2778561185
 40
1.0
 40
1.0
 40
1.0
 40
1.0
 10
126.9686023742
 20
106.0191355429
 30
0.0
 10
127.0383996482
 20
106.1274867193
 30
0.0
 10
127.3157856031
 20
106.498923213
 30
0.0
 10
127.6963575843
 20
106.8007675803
 30
0.0
 10
128.0051987026
 20
106.9304755948
 30
0.0
  0
SPLINE
  5
4A1
100
AcDbEntity
  8
0
100
AcDbSpline
 62
7
  6
CONTINUOUS
 70
0
 71
3
 72
13
 73
9
 74
0
 42
0.0000001
 43
0.0000001
 44
0.0000000001
 40
0.0
 40
0.0
 40
0.0
 40
0.0
 40
0.0822406037
 40
0.183201301
 40
0.301801936
 40
0.4347250327
 40
0.7223404575
 40
1.0
 40
1.0
 40
1.0
 40
1.0
 10
128.0453083416
 20
105.4958848308
 30
0.0
 10
128.0130511052
 20
105.4847880407
 30
0.0
 10
127.936233468
 20
105.4749544205
 30
0.0
 10
127.8112280945
 20
105.4886688219
 30
0.0
 10
127.6699424036
 20
105.5284198059
 30
0.0
 10
127.4637137212
 20
105.6160342906
 30
0.0
 10
127.2168901497
 20
105.7709884328
 30
0.0
 10
127.0427773048
 20
105.9310350353
 30
0.0
 10
126.9685983242
 20
106.019135543
 30
0.0
  0
SPLINE
  5
4A2
100
AcDbEntity
  8
0
100
AcDbSpline
 62
7
  6
CONTINUOUS
 70
0
 71
3
 72
9
 73
5
 74
0
 42
0.0000001
 43
0.0000001
 44
0.0000000001
 40
0.0
 40
0.0
 40
0.0
 40
0.0
 40
0.5509815993
 40
1.0
 40
1.0
 40
1.0
 40
1.0
 10
128.0452825635
 20
105.4959086729
 30
0.0
 10
128.1213594056
 20
105.6398019652
 30
0.0
 10
128.2886658832
 20
105.8866358519
 30
0.0
 10
128.5042762521
 20
106.0923983319
 30
0.0
 10
128.6109679885
 20
106.1712125855
 30
0.0
  0
SPLINE
  5
4A3
100
AcDbEntity
  8
0
100
AcDbSpline
 62
7
  6
CONTINUOUS
 70
0
 71
3
 72
23
 73
19
 74
0
 42
0.0000001
 43
0.0000001
 44
0.0000000001
 40
0.0
 40
0.0
 40
0.0
 40
0.0
 40
0.2191698545
 40
0.4158690494
 40
0.5876729696
 40
0.663538993
 40
0.7323454448
 40
0.7938242536
 40
0.8477070448
 40
0.8937422761
 40
0.931731016
 40
0.9614837112
 40
0.9732150815
 40
0.9828324157
 40
0.9903276462
 40
0.9956927025
 40
0.9989195118
 40
1.0
 40
1.0
 40
1.0
 40
1.0
 10
128.0051987026
 20
106.9304755948
 30
0.0
 10
128.1636391658
 20
106.9970169599
 30
0.0
 10
128.4629081713
 20
107.126560654
 30
0.0
 10
128.8821369923
 20
107.3178385706
 30
0.0
 10
129.1967340662
 20
107.46762186
 30
0.0
 10
129.4196431732
 20
107.5766479163
 30
0.0
 10
129.5644251243
 20
107.6485195132
 30
0.0
 10
129.6934211398
 20
107.7134211337
 30
0.0
 10
129.8061993283
 20
107.7708264185
 30
0.0
 10
129.902383518
 20
107.8202327385
 30
0.0
 10
129.9815881729
 20
107.8612731771
 30
0.0
 10
130.0368621062
 20
107.8900627191
 30
0.0
 10
130.0723320615
 20
107.9086682077
 30
0.0
 10
130.0924380024
 20
107.9190880298
 30
0.0
 10
130.1078552344
 20
107.9274734653
 30
0.0
 10
130.1194469121
 20
107.932900497
 30
0.0
 10
130.1254047536
 20
107.9372151722
 30
0.0
 10
130.129171229
 20
107.9379837711
 30
0.0
 10
130.1295971386
 20
107.9387161145
 30
0.0
  0
SPLINE
  5
4A4
100
AcDbEntity
  8
0
100
AcDbSpline
 62
7
  6
CONTINUOUS
 70
0
 71
3
 72
11
 73
7
 74
0
 42
0.0000001
 43
0.0000001
 44
0.0000000001
 40
0.0
 40
0.0
 40
0.0
 40
0.0
 40
0.2242429953
 40
0.4715701805
 40
0.7344363201
 40
1.0
 40
1.0
 40
1.0
 40
1.0
 10
128.6109679884
 20
106.1712095394
 30
0.0
 10
128.5371876529
 20
106.1902379469
 30
0.0
 10
128.3897814619
 20
106.2626268153
 30
0.0
 10
128.2085472326
 20
106.4386628833
 30
0.0
 10
128.0721016402
 20
106.6673501172
 30
0.0
 10
128.0198130351
 20
106.8414327858
 30
0.0
 10
128.0051946872
 20
106.9304755948
 30
0.0
  0
SPLINE
  5
4A5
100
AcDbEntity
  8
0
100
AcDbSpline
 62
7
  6
CONTINUOUS
 70
0
 71
3
 72
21
 73
17
 74
0
 42
0.0000001
 43
0.0000001
 44
0.0000000001
 40
0.0
 40
0.0
 40
0.0
 40
0.0
 40
0.2185636314
 40
0.4150116267
 40
0.5868171032
 40
0.7316506199
 40
0.7932434326
 40
0.8472489433
 40
0.8934053708
 40
0.9315055255
 40
0.9613526508
 40
0.9827719271
 40
0.9902925425
 40
0.9956762228
 40
0.9989147742
 40
1.0
 40
1.0
 40
1.0
 40
1.0
 10
128.6109679885
 20
106.1712125855
 30
0.0
 10
128.7827180882
 20
106.2346352037
 30
0.0
 10
129.1076616588
 20
106.3582785965
 30
0.0
 10
129.5639363401
 20
106.5412233619
 30
0.0
 10
129.9604368305
 20
106.7071413933
 30
0.0
 10
130.2511945407
 20
106.8330373466
 30
0.0
 10
130.4507156696
 20
106.9212675432
 30
0.0
 10
130.5743992272
 20
106.9766062737
 30
0.0
 10
130.6799576871
 20
107.024265675
 30
0.0
 10
130.7669410457
 20
107.0638914467
 30
0.0
 10
130.8350058869
 20
107.095046324
 30
0.0
 10
130.8797059899
 20
107.1157309312
 30
0.0
 10
130.9058561927
 20
107.127653502
 30
0.0
 10
130.9180556419
 20
107.133539641
 30
0.0
 10
130.9255664537
 20
107.1365833784
 30
0.0
 10
130.9287154739
 20
107.1384945816
 30
0.0
 10
130.9295971386
 20
107.1387161145
 30
0.0
  0
SPLINE
  5
4A6
100
AcDbEntity
  8
0
100
AcDbSpline
 62
7
  6
CONTINUOUS
 70
0
 71
3
 72
18
 73
14
 74
0
 42
0.0000001
 43
0.0000001
 44
0.0000000001
 40
0.0
 40
0.0
 40
0.0
 40
0.0
 40
0.003548046
 40
0.014339667
 40
0.0324482356
 40
0.0579475851
 40
0.0909123079
 40
0.1314182129
 40
0.2356579924
 40
0.3724413352
 40
0.5437793212
 40
0.752028644
 40
1.0
 40
1.0
 40
1.0
 40
1.0
 10
112.0702825635
 20
106.2016515811
 30
0.0
 10
112.0702805647
 20
106.2020157073
 30
0.0
 10
112.072297388
 20
106.1998768234
 30
0.0
 10
112.0743290295
 20
106.1993706843
 30
0.0
 10
112.0794149599
 20
106.195525963
 30
0.0
 10
112.0857368048
 20
106.1914692415
 30
0.0
 10
112.0941962549
 20
106.1856034693
 30
0.0
 10
112.1091514114
 20
106.1752802079
 30
0.0
 10
112.1327232679
 20
106.1584917829
 30
0.0
 10
112.1665988486
 20
106.133151399
 30
0.0
 10
112.2082010196
 20
106.1003002874
 30
0.0
 10
112.2575332199
 20
106.0588822392
 30
0.0
 10
112.2923370754
 20
106.027543607
 30
0.0
 10
112.3109679885
 20
106.0102074951
 30
0.0
  0
SPLINE
  5
4A7
100
AcDbEntity
  8
0
100
AcDbSpline
 62
7
  6
CONTINUOUS
 70
0
 71
3
 72
11
 73
7
 74
0
 42
0.0000001
 43
0.0000001
 44
0.0000000001
 40
0.0
 40
0.0
 40
0.0
 40
0.0
 40
0.2115131706
 40
0.4567490723
 40
0.7249054788
 40
1.0
 40
1.0
 40
1.0
 40
1.0
 10
127.0482260073
 20
104.6746036299
 30
0.0
 10
126.9918238703
 20
104.7030130955
 30
0.0
 10
126.8817391485
 20
104.7876534459
 30
0.0
 10
126.7467595394
 20
104.958637894
 30
0.0
 10
126.6385961505
 20
105.1692151229
 30
0.0
 10
126.5904492439
 20
105.3251313199
 30
0.0
 10
126.5733666752
 20
105.4054722067
 30
0.0
  0
SPLINE
  5
4A8
100
AcDbEntity
  8
0
100
AcDbSpline
 62
7
  6
CONTINUOUS
 70
0
 71
3
 72
14
 73
10
 74
0
 42
0.0000001
 43
0.0000001
 44
0.0000000001
 40
0.0
 40
0.0
 40
0.0
 40
0.0
 40
0.1684246749
 40
0.2892848257
 40
0.4263787703
 40
0.573705008
 40
0.7237140919
 40
0.8681135959
 40
1.0
 40
1.0
 40
1.0
 40
1.0
 10
113.0706437288
 20
106.8001076666
 30
0.0
 10
113.7661514485
 20
106.4311259006
 30
0.0
 10
114.987101997
 20
105.8440648265
 30
0.0
 10
116.8568324796
 20
105.1474541085
 30
0.0
 10
118.6934114288
 20
104.6650857867
 30
0.0
 10
120.7156198917
 20
104.4112487347
 30
0.0
 10
122.7881437415
 20
104.4696679348
 30
0.0
 10
124.7563379182
 20
104.8189493743
 30
0.0
 10
125.993622653
 20
105.1985073935
 30
0.0
 10
126.5740117812
 20
105.406464448
 30
0.0
  0
SPLINE
  5
4A9
100
AcDbEntity
  8
0
100
AcDbSpline
 62
7
  6
CONTINUOUS
 70
0
 71
3
 72
11
 73
7
 74
0
 42
0.0000001
 43
0.0000001
 44
0.0000000001
 40
0.0
 40
0.0
 40
0.0
 40
0.0
 40
0.2441660058
 40
0.4939529111
 40
0.7472132942
 40
1.0
 40
1.0
 40
1.0
 40
1.0
 10
112.310967988
 20
106.0102004192
 30
0.0
 10
112.4078897417
 20
106.015203964
 30
0.0
 10
112.603737745
 20
106.0652146973
 30
0.0
 10
112.849346043
 20
106.2434508194
 30
0.0
 10
113.018929267
 20
106.4988769895
 30
0.0
 10
113.0658558281
 20
106.699744634
 30
0.0
 10
113.0706477807
 20
106.8001076669
 30
0.0
  0
SPLINE
  5
4AA
100
AcDbEntity
  8
0
100
AcDbSpline
 62
7
  6
CONTINUOUS
 70
0
 71
3
 72
14
 73
10
 74
0
 42
0.0000001
 43
0.0000001
 44
0.0000000001
 40
0.0
 40
0.0
 40
0.0
 40
0.0
 40
0.1703888877
 40
0.2921844066
 40
0.4294373699
 40
0.5759536479
 40
0.7247022507
 40
0.8682598713
 40
1.0
 40
1.0
 40
1.0
 40
1.0
 10
112.3109679885
 20
106.0102074951
 30
0.0
 10
113.0925243535
 20
105.6464785327
 30
0.0
 10
114.4574118005
 20
105.0725857116
 30
0.0
 10
116.5266902789
 20
104.4039479644
 30
0.0
 10
118.5320356807
 20
103.9518624544
 30
0.0
 10
120.714101993
 20
103.7216762973
 30
0.0
 10
122.9401494397
 20
103.7818650814
 30
0.0
 10
125.0647608693
 20
104.113802865
 30
0.0
 10
126.4123915129
 20
104.4747166405
 30
0.0
 10
127.0482260074
 20
104.6746034722
 30
0.0
  0
SPLINE
  5
4AB
100
AcDbEntity
  8
0
100
AcDbSpline
 62
7
  6
CONTINUOUS
 70
0
 71
3
 72
11
 73
7
 74
0
 42
0.0000001
 43
0.0000001
 44
0.0000000001
 40
0.0
 40
0.0
 40
0.0
 40
0.0
 40
0.2036091353
 40
0.4389409866
 40
0.7048422133
 40
1.0
 40
1.0
 40
1.0
 40
1.0
 10
104.8414630805
 20
102.0532453824
 30
0.0
 10
104.8414790288
 20
101.9103301803
 30
0.0
 10
104.8317595642
 20
101.6023336276
 30
0.0
 10
104.8240575221
 20
101.1076135521
 30
0.0
 10
104.833622269
 20
100.5486536215
 30
0.0
 10
104.8414601734
 20
100.1548977559
 30
0.0
 10
104.8414629026
 20
99.9477236772
 30
0.0
  0
SPLINE
  5
4AC
100
AcDbEntity
  8
0
100
AcDbSpline
 62
7
  6
CONTINUOUS
 70
0
 71
3
 72
9
 73
5
 74
0
 42
0.0000001
 43
0.0000001
 44
0.0000000001
 40
0.0
 40
0.0
 40
0.0
 40
0.0
 40
0.4921349904
 40
1.0
 40
1.0
 40
1.0
 40
1.0
 10
104.1486532809
 20
102.4243063332
 30
0.0
 10
104.2190021818
 20
102.3112738614
 30
0.0
 10
104.4289950586
 20
102.1189726157
 30
0.0
 10
104.7040712411
 20
102.0532478906
 30
0.0
 10
104.8414630805
 20
102.0532453824
 30
0.0
  0
SPLINE
  5
4AD
100
AcDbEntity
  8
0
100
AcDbSpline
 62
7
  6
CONTINUOUS
 70
0
 71
3
 72
10
 73
6
 74
0
 42
0.0000001
 43
0.0000001
 44
0.0000000001
 40
0.0
 40
0.0
 40
0.0
 40
0.0
 40
0.2320900039
 40
0.4760331784
 40
1.0
 40
1.0
 40
1.0
 40
1.0
 10
104.1486405827
 20
102.4243007746
 30
0.0
 10
104.166696018
 20
102.2578518455
 30
0.0
 10
104.1901698398
 20
101.9149475967
 30
0.0
 10
104.2030352437
 20
101.1936414304
 30
0.0
 10
104.1822227824
 20
100.6391089875
 30
0.0
 10
104.1486318837
 20
100.2626247918
 30
0.0
  0
SPLINE
  5
4AE
100
AcDbEntity
  8
0
100
AcDbSpline
 62
7
  6
CONTINUOUS
 70
0
 71
3
 72
9
 73
5
 74
0
 42
0.0000001
 43
0.0000001
 44
0.0000000001
 40
0.0
 40
0.0
 40
0.0
 40
0.0
 40
0.4768794961
 40
1.0
 40
1.0
 40
1.0
 40
1.0
 10
104.1486532301
 20
100.2626343409
 30
0.0
 10
104.222115515
 20
100.1624601999
 30
0.0
 10
104.4415457087
 20
99.9990348996
 30
0.0
 10
104.705193582
 20
99.9477253954
 30
0.0
 10
104.8414629026
 20
99.9477236773
 30
0.0
  0
SPLINE
  5
4AF
100
AcDbEntity
  8
0
100
AcDbSpline
 62
7
  6
CONTINUOUS
 70
0
 71
3
 72
11
 73
7
 74
0
 42
0.0000001
 43
0.0000001
 44
0.0000000001
 40
0.0
 40
0.0
 40
0.0
 40
0.0
 40
0.2493785845
 40
0.5000002596
 40
0.7506218184
 40
1.0
 40
1.0
 40
1.0
 40
1.0
 10
104.8414632943
 20
90.2442387244
 30
0.0
 10
104.8414629532
 20
89.8941821739
 30
0.0
 10
104.8327941458
 20
89.1923613144
 30
0.0
 10
104.8240257799
 20
88.1387152327
 30
0.0
 10
104.832789107
 20
87.0850696677
 30
0.0
 10
104.841464703
 20
86.3832495729
 30
0.0
 10
104.8414632625
 20
86.033193588
 30
0.0
  0
SPLINE
  5
4B0
100
AcDbEntity
  8
0
100
AcDbSpline
 62
7
  6
CONTINUOUS
 70
0
 71
3
 72
10
 73
6
 74
0
 42
0.0000001
 43
0.0000001
 44
0.0000000001
 40
0.0
 40
0.0
 40
0.0
 40
0.0
 40
0.1856020006
 40
0.4250014288
 40
1.0
 40
1.0
 40
1.0
 40
1.0
 10
104.1486533277
 20
90.3003891235
 30
0.0
 10
104.1905039347
 20
90.2902148654
 30
0.0
 10
104.2879674723
 20
90.273894753
 30
0.0
 10
104.5188289976
 20
90.2501597076
 30
0.0
 10
104.7080329023
 20
90.24424014
 30
0.0
 10
104.8414632943
 20
90.2442387242
 30
0.0
  0
SPLINE
  5
4B1
100
AcDbEntity
  8
0
100
AcDbSpline
 62
7
  6
CONTINUOUS
 70
0
 71
3
 72
9
 73
5
 74
0
 42
0.0000001
 43
0.0000001
 44
0.0000000001
 40
0.0
 40
0.0
 40
0.0
 40
0.0
 40
0.5000000649
 40
1.0
 40
1.0
 40
1.0
 40
1.0
 10
104.1486317533
 20
90.3003897824
 30
0.0
 10
104.1838737082
 20
89.5805187387
 30
0.0
 10
104.2088527052
 20
88.1387173908
 30
0.0
 10
104.1838754184
 20
86.696915891
 30
0.0
 10
104.1486320505
 20
85.9770451038
 30
0.0
  0
SPLINE
  5
4B2
100
AcDbEntity
  8
0
100
AcDbSpline
 62
7
  6
CONTINUOUS
 70
0
 71
3
 72
10
 73
6
 74
0
 42
0.0000001
 43
0.0000001
 44
0.0000000001
 40
0.0
 40
0.0
 40
0.0
 40
0.0
 40
0.1856024579
 40
0.4250018279
 40
1.0
 40
1.0
 40
1.0
 40
1.0
 10
104.1486533376
 20
85.9770434041
 30
0.0
 10
104.1905038103
 20
85.9872187201
 30
0.0
 10
104.2879673379
 20
86.0035400967
 30
0.0
 10
104.5188290165
 20
86.0272744902
 30
0.0
 10
104.7080329218
 20
86.0331929451
 30
0.0
 10
104.8414632625
 20
86.0331935882
 30
0.0
  0
SPLINE
  5
4B3
100
AcDbEntity
  8
0
100
AcDbSpline
 62
7
  6
CONTINUOUS
 70
0
 71
3
 72
11
 73
7
 74
0
 42
0.0000001
 43
0.0000001
 44
0.0000000001
 40
0.0
 40
0.0
 40
0.0
 40
0.0
 40
0.2951581483
 40
0.561059555
 40
0.7963913344
 40
1.0
 40
1.0
 40
1.0
 40
1.0
 10
104.8414629281
 20
76.3297085924
 30
0.0
 10
104.8414600922
 20
76.1225342549
 30
0.0
 10
104.8336229545
 20
75.728778003
 30
0.0
 10
104.8240550895
 20
75.1698177229
 30
0.0
 10
104.8317629036
 20
74.67509795
 30
0.0
 10
104.8414776318
 20
74.3671017274
 30
0.0
 10
104.8414630741
 20
74.2241868513
 30
0.0
  0
SPLINE
  5
4B4
100
AcDbEntity
  8
0
100
AcDbSpline
 62
7
  6
CONTINUOUS
 70
0
 71
3
 72
9
 73
5
 74
0
 42
0.0000001
 43
0.0000001
 44
0.0000000001
 40
0.0
 40
0.0
 40
0.0
 40
0.0
 40
0.476880054
 40
1.0
 40
1.0
 40
1.0
 40
1.0
 10
104.1486532188
 20
76.0147980449
 30
0.0
 10
104.2221150537
 20
76.1149727912
 30
0.0
 10
104.4415452873
 20
76.2783990074
 30
0.0
 10
104.7051936688
 20
76.329707327
 30
0.0
 10
104.8414629281
 20
76.3297085923
 30
0.0
  0
SPLINE
  5
4B5
100
AcDbEntity
  8
0
100
AcDbSpline
 62
7
  6
CONTINUOUS
 70
0
 71
3
 72
10
 73
6
 74
0
 42
0.0000001
 43
0.0000001
 44
0.0000000001
 40
0.0
 40
0.0
 40
0.0
 40
0.0
 40
0.5239669238
 40
0.7679102494
 40
1.0
 40
1.0
 40
1.0
 40
1.0
 10
104.1486318238
 20
76.0148089949
 30
0.0
 10
104.1822222106
 20
75.6383246084
 30
0.0
 10
104.2030332293
 20
75.0837919702
 30
0.0
 10
104.1901717057
 20
74.3624855181
 30
0.0
 10
104.1666956257
 20
74.0195814442
 30
0.0
 10
104.1486406234
 20
73.8531326203
 30
0.0
  0
SPLINE
  5
4B6
100
AcDbEntity
  8
0
100
AcDbSpline
 62
7
  6
CONTINUOUS
 70
0
 71
3
 72
9
 73
5
 74
0
 42
0.0000001
 43
0.0000001
 44
0.0000000001
 40
0.0
 40
0.0
 40
0.0
 40
0.0
 40
0.4921352946
 40
1.0
 40
1.0
 40
1.0
 40
1.0
 10
104.1486532966
 20
73.8531260036
 30
0.0
 10
104.2190020373
 20
73.9661586964
 30
0.0
 10
104.4289949204
 20
74.1584602679
 30
0.0
 10
104.7040712958
 20
74.2241844591
 30
0.0
 10
104.8414630741
 20
74.2241868513
 30
0.0
  0
SPLINE
  5
4B7
100
AcDbEntity
  8
0
100
AcDbSpline
 62
7
  6
CONTINUOUS
 70
0
 71
3
 72
9
 73
5
 74
0
 42
0.0000001
 43
0.0000001
 44
0.0000000001
 40
0.0
 40
0.0
 40
0.0
 40
0.0
 40
0.4920793373
 40
1.0
 40
1.0
 40
1.0
 40
1.0
 10
104.1486532811
 20
102.4243265893
 30
0.0
 10
104.083273676
 20
102.8326448006
 30
0.0
 10
103.8766715256
 20
103.6516314464
 30
0.0
 10
103.5538756084
 20
104.4300992941
 30
0.0
 10
103.3692341675
 20
104.8149275344
 30
0.0
  0
SPLINE
  5
4B8
100
AcDbEntity
  8
0
100
AcDbSpline
 62
7
  6
CONTINUOUS
 70
0
 71
3
 72
9
 73
5
 74
0
 42
0.0000001
 43
0.0000001
 44
0.0000000001
 40
0.0
 40
0.0
 40
0.0
 40
0.0
 40
0.5064880305
 40
1.0
 40
1.0
 40
1.0
 40
1.0
 10
102.9362214656
 20
105.0533324578
 30
0.0
 10
103.0226050338
 20
105.0544192139
 30
0.0
 10
103.1969724162
 20
105.0121762027
 30
0.0
 10
103.3261377656
 20
104.8872358044
 30
0.0
 10
103.3692341675
 20
104.8149275344
 30
0.0
  0
SPLINE
  5
4B9
100
AcDbEntity
  8
0
100
AcDbSpline
 62
7
  6
CONTINUOUS
 70
0
 71
3
 72
13
 73
9
 74
0
 42
0.0000001
 43
0.0000001
 44
0.0000000001
 40
0.0
 40
0.0
 40
0.0
 40
0.0
 40
0.2551288853
 40
0.3783541854
 40
0.5000001548
 40
0.6216460553
 40
0.7448713182
 40
1.0
 40
1.0
 40
1.0
 40
1.0
 10
102.91001432
 20
98.0710498622
 30
0.0
 10
103.1805321721
 20
98.6262182443
 30
0.0
 10
103.5203988897
 20
99.4853016222
 30
0.0
 10
103.7614332524
 20
100.6742237388
 30
0.0
 10
103.8224759491
 20
101.5621108871
 30
0.0
 10
103.7614340492
 20
102.449998075
 30
0.0
 10
103.5203983249
 20
103.638919177
 30
0.0
 10
103.1805320319
 20
104.4980019815
 30
0.0
 10
102.91001432
 20
105.0531698841
 30
0.0
  0
SPLINE
  5
4BA
100
AcDbEntity
  8
0
100
AcDbSpline
 62
7
  6
CONTINUOUS
 70
0
 71
3
 72
9
 73
5
 74
0
 42
0.0000001
 43
0.0000001
 44
0.0000000001
 40
0.0
 40
0.0
 40
0.0
 40
0.0
 40
0.5233992332
 40
1.0
 40
1.0
 40
1.0
 40
1.0
 10
102.9362214656
 20
98.0697323456
 30
0.0
 10
103.0234010888
 20
98.0608394958
 30
0.0
 10
103.1880737973
 20
98.0118921988
 30
0.0
 10
103.3230292816
 20
97.9019739325
 30
0.0
 10
103.3692341675
 20
97.8369154408
 30
0.0
  0
SPLINE
  5
4BB
100
AcDbEntity
  8
0
100
AcDbSpline
 62
7
  6
CONTINUOUS
 70
0
 71
3
 72
9
 73
5
 74
0
 42
0.0000001
 43
0.0000001
 44
0.0000000001
 40
0.0
 40
0.0
 40
0.0
 40
0.0
 40
0.508955397
 40
1.0
 40
1.0
 40
1.0
 40
1.0
 10
103.3692341675
 20
97.8369154408
 30
0.0
 10
103.5537060566
 20
98.2290141423
 30
0.0
 10
103.8757744734
 20
99.0196161741
 30
0.0
 10
104.0830558055
 20
99.8497014739
 30
0.0
 10
104.1486532305
 20
100.262599723
 30
0.0
  0
SPLINE
  5
4BC
100
AcDbEntity
  8
0
100
AcDbSpline
 62
7
  6
CONTINUOUS
 70
0
 71
3
 72
9
 73
5
 74
0
 42
0.0000001
 43
0.0000001
 44
0.0000000001
 40
0.0
 40
0.0
 40
0.0
 40
0.0
 40
0.4999885216
 40
1.0
 40
1.0
 40
1.0
 40
1.0
 10
104.1486533281
 20
90.300442267
 30
0.0
 10
104.0839657953
 20
91.1116101783
 30
0.0
 10
103.8829680428
 20
92.7288925607
 30
0.0
 10
103.5573107815
 20
94.3249796397
 30
0.0
 10
103.3692341675
 20
95.1167282445
 30
0.0
  0
SPLINE
  5
4BD
100
AcDbEntity
  8
0
100
AcDbSpline
 62
7
  6
CONTINUOUS
 70
0
 71
3
 72
10
 73
6
 74
0
 42
0.0000001
 43
0.0000001
 44
0.0000000001
 40
0.0
 40
0.0
 40
0.0
 40
0.0
 40
0.5791891521
 40
0.8162585756
 40
1.0
 40
1.0
 40
1.0
 40
1.0
 10
102.9362214656
 20
95.1223162195
 30
0.0
 10
103.0196100103
 20
95.1318714156
 30
0.0
 10
103.1381256769
 20
95.1397255388
 30
0.0
 10
103.2829301207
 20
95.1328343498
 30
0.0
 10
103.3435260799
 20
95.1236638419
 30
0.0
 10
103.3692341675
 20
95.1167282445
 30
0.0
  0
SPLINE
  5
4BE
100
AcDbEntity
  8
0
100
AcDbSpline
 62
7
  6
CONTINUOUS
 70
0
 71
3
 72
13
 73
9
 74
0
 42
0.0000001
 43
0.0000001
 44
0.0000000001
 40
0.0
 40
0.0
 40
0.0
 40
0.0
 40
0.2499554219
 40
0.3749774814
 40
0.5000000028
 40
0.6250225209
 40
0.750044577
 40
1.0
 40
1.0
 40
1.0
 40
1.0
 10
102.91001432
 20
81.1565960926
 30
0.0
 10
103.1882453704
 20
82.2985918866
 30
0.0
 10
103.5262884782
 20
84.0338930358
 30
0.0
 10
103.7620725096
 20
86.3746186724
 30
0.0
 10
103.8222868682
 20
88.1387161491
 30
0.0
 10
103.7620726701
 20
89.9028136176
 30
0.0
 10
103.526288662
 20
92.2435392332
 30
0.0
 10
103.1882454682
 20
93.9788403606
 30
0.0
 10
102.91001432
 20
95.1208361363
 30
0.0
  0
SPLINE
  5
4BF
100
AcDbEntity
  8
0
100
AcDbSpline
 62
7
  6
CONTINUOUS
 70
0
 71
3
 72
10
 73
6
 74
0
 42
0.0000001
 43
0.0000001
 44
0.0000000001
 40
0.0
 40
0.0
 40
0.0
 40
0.0
 40
0.579189001
 40
0.8162584076
 40
1.0
 40
1.0
 40
1.0
 40
1.0
 10
102.9362214656
 20
81.1551159988
 30
0.0
 10
103.0196099963
 20
81.145560781
 30
0.0
 10
103.1381256249
 20
81.1377065255
 30
0.0
 10
103.2829301285
 20
81.1445975677
 30
0.0
 10
103.3435260529
 20
81.1537684362
 30
0.0
 10
103.3692341675
 20
81.1607040396
 30
0.0
  0
SPLINE
  5
4C0
100
AcDbEntity
  8
0
100
AcDbSpline
 62
7
  6
CONTINUOUS
 70
0
 71
3
 72
10
 73
6
 74
0
 42
0.0000001
 43
0.0000001
 44
0.0000000001
 40
0.0
 40
0.0
 40
0.0
 40
0.0
 40
0.5097386243
 40
0.75635513
 40
1.0
 40
1.0
 40
1.0
 40
1.0
 10
93.2456225424
 20
78.2063823667
 30
0.0
 10
92.9818266804
 20
77.6501449214
 30
0.0
 10
92.6519422866
 20
76.7899696165
 30
0.0
 10
92.4189714834
 20
75.6024234351
 30
0.0
 10
92.3795971386
 20
75.0095765492
 30
0.0
 10
92.3795971386
 20
74.715322356
 30
0.0
  0
SPLINE
  5
4C1
100
AcDbEntity
  8
0
100
AcDbSpline
 62
7
  6
CONTINUOUS
 70
0
 71
3
 72
10
 73
6
 74
0
 42
0.0000001
 43
0.0000001
 44
0.0000000001
 40
0.0
 40
0.0
 40
0.0
 40
0.0
 40
0.2436448834
 40
0.4902614003
 40
1.0
 40
1.0
 40
1.0
 40
1.0
 10
92.3795971386
 20
74.715322356
 30
0.0
 10
92.3795971386
 20
74.4210681464
 30
0.0
 10
92.4189714891
 20
73.8282212308
 30
0.0
 10
92.6519423012
 20
72.6406750508
 30
0.0
 10
92.9818266931
 20
71.7804997633
 30
0.0
 10
93.2456225424
 20
71.2242623449
 30
0.0
  0
SPLINE
  5
4C2
100
AcDbEntity
  8
0
100
AcDbSpline
 62
7
  6
CONTINUOUS
 70
0
 71
3
 72
10
 73
6
 74
0
 42
0.0000001
 43
0.0000001
 44
0.0000000001
 40
0.0
 40
0.0
 40
0.0
 40
0.0
 40
0.4999142641
 40
0.7499571065
 40
1.0
 40
1.0
 40
1.0
 40
1.0
 10
93.2456225424
 20
95.1208361363
 30
0.0
 10
92.9745797222
 20
93.9777995113
 30
0.0
 10
92.6465451643
 20
92.2417668716
 30
0.0
 10
92.4183920515
 20
89.9018169886
 30
0.0
 10
92.3795971386
 20
88.7262839983
 30
0.0
 10
92.3795971385
 20
88.138716116
 30
0.0
  0
SPLINE
  5
4C3
100
AcDbEntity
  8
0
100
AcDbSpline
 62
7
  6
CONTINUOUS
 70
0
 71
3
 72
10
 73
6
 74
0
 42
0.0000001
 43
0.0000001
 44
0.0000000001
 40
0.0
 40
0.0
 40
0.0
 40
0.0
 40
0.2500429007
 40
0.500085749
 40
1.0
 40
1.0
 40
1.0
 40
1.0
 10
92.3795971385
 20
88.138716116
 30
0.0
 10
92.3795971385
 20
87.5511482164
 30
0.0
 10
92.4183920545
 20
86.3756151948
 30
0.0
 10
92.6465451724
 20
84.0356653113
 30
0.0
 10
92.9745797291
 20
82.2996326881
 30
0.0
 10
93.2456225424
 20
81.1565960926
 30
0.0
  0
SPLINE
  5
4C4
100
AcDbEntity
  8
0
100
AcDbSpline
 62
7
  6
CONTINUOUS
 70
0
 71
3
 72
10
 73
6
 74
0
 42
0.0000001
 43
0.0000001
 44
0.0000000001
 40
0.0
 40
0.0
 40
0.0
 40
0.0
 40
0.5097386243
 40
0.75635513
 40
1.0
 40
1.0
 40
1.0
 40
1.0
 10
93.2456225424
 20
105.0531698841
 30
0.0
 10
92.9818266804
 20
104.4969324388
 30
0.0
 10
92.6519422866
 20
103.6367571338
 30
0.0
 10
92.4189714834
 20
102.4492109524
 30
0.0
 10
92.3795971386
 20
101.8563640666
 30
0.0
 10
92.3795971386
 20
101.5621098733
 30
0.0
  0
SPLINE
  5
4C5
100
AcDbEntity
  8
0
100
AcDbSpline
 62
7
  6
CONTINUOUS
 70
0
 71
3
 72
10
 73
6
 74
0
 42
0.0000001
 43
0.0000001
 44
0.0000000001
 40
0.0
 40
0.0
 40
0.0
 40
0.0
 40
0.2436448834
 40
0.4902614003
 40
1.0
 40
1.0
 40
1.0
 40
1.0
 10
92.3795971386
 20
101.5621098733
 30
0.0
 10
92.3795971386
 20
101.2678556638
 30
0.0
 10
92.4189714891
 20
100.6750087481
 30
0.0
 10
92.6519423012
 20
99.4874625682
 30
0.0
 10
92.9818266931
 20
98.6272872807
 30
0.0
 10
93.2456225424
 20
98.0710498622
 30
0.0
  0
SPLINE
  5
4C6
100
AcDbEntity
  8
0
100
AcDbSpline
 62
7
  6
CONTINUOUS
 70
0
 71
3
 72
9
 73
5
 74
0
 42
0.0000001
 43
0.0000001
 44
0.0000000001
 40
0.0
 40
0.0
 40
0.0
 40
0.0
 40
0.5000114782
 40
1.0
 40
1.0
 40
1.0
 40
1.0
 10
103.3692341675
 20
81.1607040396
 30
0.0
 10
103.5573107991
 20
81.9524527094
 30
0.0
 10
103.8829684971
 20
83.548539872
 30
0.0
 10
104.0839653382
 20
85.1658224759
 30
0.0
 10
104.1486533379
 20
85.9769904181
 30
0.0
  0
SPLINE
  5
4C7
100
AcDbEntity
  8
0
100
AcDbSpline
 62
7
  6
CONTINUOUS
 70
0
 71
3
 72
9
 73
5
 74
0
 42
0.0000001
 43
0.0000001
 44
0.0000000001
 40
0.0
 40
0.0
 40
0.0
 40
0.0
 40
0.4910445869
 40
1.0
 40
1.0
 40
1.0
 40
1.0
 10
104.1486532192
 20
76.0148326026
 30
0.0
 10
104.0830562781
 20
76.4277309042
 30
0.0
 10
103.8757740299
 20
77.2578160139
 30
0.0
 10
103.5537060554
 20
78.0484181317
 30
0.0
 10
103.3692341675
 20
78.4405168371
 30
0.0
  0
SPLINE
  5
4C8
100
AcDbEntity
  8
0
100
AcDbSpline
 62
7
  6
CONTINUOUS
 70
0
 71
3
 72
9
 73
5
 74
0
 42
0.0000001
 43
0.0000001
 44
0.0000000001
 40
0.0
 40
0.0
 40
0.0
 40
0.0
 40
0.523399128
 40
1.0
 40
1.0
 40
1.0
 40
1.0
 10
102.9362214656
 20
78.2076998741
 30
0.0
 10
103.0234010909
 20
78.2165927026
 30
0.0
 10
103.1880739611
 20
78.2655397487
 30
0.0
 10
103.3230292612
 20
78.3754583187
 30
0.0
 10
103.3692341675
 20
78.4405168371
 30
0.0
  0
SPLINE
  5
4C9
100
AcDbEntity
  8
0
100
AcDbSpline
 62
7
  6
CONTINUOUS
 70
0
 71
3
 72
13
 73
9
 74
0
 42
0.0000001
 43
0.0000001
 44
0.0000000001
 40
0.0
 40
0.0
 40
0.0
 40
0.0
 40
0.2551286905
 40
0.3783539472
 40
0.499999844
 40
0.6216458137
 40
0.744871114
 40
1.0
 40
1.0
 40
1.0
 40
1.0
 10
102.91001432
 20
71.2242623449
 30
0.0
 10
103.1805319918
 20
71.7794302904
 30
0.0
 10
103.520398038
 20
72.638513178
 30
0.0
 10
103.7614339714
 20
73.8274342261
 30
0.0
 10
103.8224759266
 20
74.7153213889
 30
0.0
 10
103.7614333834
 20
75.6032085369
 30
0.0
 10
103.5203991206
 20
76.7921306861
 30
0.0
 10
103.1805322573
 20
77.6512140242
 30
0.0
 10
102.91001432
 20
78.2063823667
 30
0.0
  0
SPLINE
  5
4CA
100
AcDbEntity
  8
0
100
AcDbSpline
 62
7
  6
CONTINUOUS
 70
0
 71
3
 72
9
 73
5
 74
0
 42
0.0000001
 43
0.0000001
 44
0.0000000001
 40
0.0
 40
0.0
 40
0.0
 40
0.0
 40
0.5064879139
 40
1.0
 40
1.0
 40
1.0
 40
1.0
 10
102.9362214656
 20
71.2240997701
 30
0.0
 10
103.0226050166
 20
71.2230130118
 30
0.0
 10
103.1969724189
 20
71.2652559756
 30
0.0
 10
103.3261377537
 20
71.3901964105
 30
0.0
 10
103.3692341675
 20
71.4625046996
 30
0.0
  0
SPLINE
  5
4CB
100
AcDbEntity
  8
0
100
AcDbSpline
 62
7
  6
CONTINUOUS
 70
0
 71
3
 72
9
 73
5
 74
0
 42
0.0000001
 43
0.0000001
 44
0.0000000001
 40
0.0
 40
0.0
 40
0.0
 40
0.0
 40
0.5079206992
 40
1.0
 40
1.0
 40
1.0
 40
1.0
 10
103.3692341675
 20
71.4625046996
 30
0.0
 10
103.553875631
 20
71.8473329635
 30
0.0
 10
103.8766718289
 20
72.6258007569
 30
0.0
 10
104.0832732613
 20
73.4447875248
 30
0.0
 10
104.1486532968
 20
73.8531056364
 30
0.0
  0
SPLINE
  5
4CC
100
AcDbEntity
  8
0
100
AcDbSpline
 62
7
  6
CONTINUOUS
 70
0
 71
3
 72
9
 73
5
 74
0
 42
0.0000001
 43
0.0000001
 44
0.0000000001
 40
0.0
 40
0.0
 40
0.0
 40
0.0
 40
0.2373325247
 40
1.0
 40
1.0
 40
1.0
 40
1.0
 10
134.4633376178
 20
122.600605269
 30
0.0
 10
134.4560622307
 20
122.564210915
 30
0.0
 10
134.4284845694
 20
122.4102723566
 30
0.0
 10
134.4059277199
 20
122.2553832262
 30
0.0
 10
134.3811602796
 20
122.1387161145
 30
0.0
  0
ELLIPSE
  5
4CD
100
AcDbEntity
  8
0
100
AcDbEllipse
 62
7
  6
CONTINUOUS
 10
133.3487920573
 20
122.1759838957
 30
0.0
 11
0.5486916773
 21
1.2874646535
 31
0.0
 40
0.7145358838
 41
-1.5707963268
 42
-1.3028918007
  0
ELLIPSE
  5
4CE
100
AcDbEntity
  8
0
100
AcDbEllipse
 62
7
  6
CONTINUOUS
 10
134.803801086
 20
122.1387161145
 30
0.0
 11
-0.0
 21
1.0
 31
0.0
 40
0.383864035
 41
0.0
 42
1.0906723322
  0
ELLIPSE
  5
4CF
100
AcDbEntity
  8
0
100
AcDbEllipse
 62
7
  6
CONTINUOUS
 10
120.3131974461
 20
121.4294907377
 30
0.0
 11
-1.2104221425
 21
1.2980188316
 31
0.0
 40
0.563438437
 41
0.5435120867
 42
1.5707963268
  0
ELLIPSE
  5
4D0
100
AcDbEntity
  8
0
100
AcDbEllipse
 62
7
  6
CONTINUOUS
 10
134.419937051
 20
123.1387161145
 30
0.0
 11
0.0
 21
3.0
 31
0.0
 40
0.383864035
 41
0.0
 42
1.5707963268
  0
ELLIPSE
  5
4D1
100
AcDbEntity
  8
0
100
AcDbEllipse
 62
7
  6
CONTINUOUS
 10
115.8989838838
 20
123.1387161145
 30
0.0
 11
3.0
 21
0.0
 31
0.0
 40
1.0
 41
-0.0
 42
1.5707963268
  0
ELLIPSE
  5
4D2
100
AcDbEntity
  8
0
100
AcDbEllipse
 62
7
  6
CONTINUOUS
 10
132.1971999522
 20
119.473857744
 30
0.0
 11
-0.5486916773
 21
-1.2874646535
 31
0.0
 40
0.7145358838
 41
1.5707963268
 42
2.1085963504
  0
ENDSEC
  0
SECTION
  2
OBJECTS
  0
DICTIONARY
  5
4D3
100
AcDbDictionary
  3
ACAD_GROUP
350
4D4
  3
ACAD_MLINESTYLE
350
4D5
  0
DICTIONARY
  5
4D4
102
{ACAD_REACTORS
330
4D3
102
}
100
AcDbDictionary
  0
DICTIONARY
  5
4D5
102
{ACAD_REACTORS
330
4D3
102
}
100
AcDbDictionary
  3
STANDARD
350
4D6
  0
MLINESTYLE
  5
4D6
102
{ACAD_REACTORS
330
4D5
102
}
100
AcDbMlineStyle
  2
STANDARD
 70
0
  3

 62
256
 51
90.0
 52
90.0
 71
2
 49
0.5
 62
256
  6
BYLAYER
 49
-0.5
 62
256
  6
BYLAYER
  0
ENDSEC
  0
EOF
