999
DXF file: C:\Users\64ciro\Desktop\FILE 3D-2D\ARMATEC\h36nll015_3080.dxf
999
Pro/ENGINEER 2017260 by Parametric Technology Corporation
  0
SECTION
  2
HEADER
  9
$ACADVER
  1
AC1014
  9
$DWGCODEPAGE
  3
ANSI_1252
  9
$EXTMAX
 10
297.0
 20
210.0
 30
0.0
  9
$EXTMIN
 10
0.0
 20
0.0
 30
0.0
  9
$LIMMIN
 10
0.0
 20
0.0
  9
$LIMMAX
 10
297.0
 20
210.0
  9
$VIEWCTR
 10
148.5
 20
105.0
  9
$VIEWSIZE
 40
210.0
  9
$CLAYER
  8
0
  9
$LTSCALE
 40
16.335
  9
$CELTYPE
  6
BYLAYER
  9
$DIMSCALE
 40
1.0
  9
$DIMASZ
 40
1.5
  9
$DIMEXO
 40
0.0625
  9
$DIMDLI
 40
11.286
  9
$DIMEXE
 40
0.125
  9
$DIMCEN
 40
2.673
  9
$DIMLFAC
 40
1.0
  9
$DIMBLK
  1
_CLOSED
  9
$DIMALT
 70
0
  9
$DIMALTF
 40
25.4
  9
$DIMTXT
 40
2.0
  9
$DIMTOL
 70
1
  9
$DIMLIM
 70
0
  9
$DIMTFAC
 40
1.0
  9
$DIMTP
 40
0.01
  9
$DIMTM
 40
0.01
  9
$DIMGAP
 40
0.625
  9
$AUNITS
 70
0
  9
$PDMODE
 70
3
  9
$PDSIZE
 40
0.3125
  9
$HANDSEED
  5
57E
  9
$TILEMODE
 70
1
  9
$MEASUREMENT
 70
1
  0
ENDSEC
  0
SECTION
  2
CLASSES
  0
ENDSEC
  0
SECTION
  2
TABLES
  0
TABLE
  2
VPORT
  5
8
100
AcDbSymbolTable
 70
2
  0
VPORT
  5
1F4
100
AcDbSymbolTableRecord
100
AcDbViewportTableRecord
  2
*ACTIVE
 70
0
 10
0.0
 20
0.0
 11
1.0
 21
1.0
 12
148.5
 22
105.0
 13
0.0
 23
0.0
 14
1.0
 24
1.0
 15
0.0
 25
0.0
 16
0.0
 26
0.0
 36
1.0
 17
0.0
 27
0.0
 37
0.0
 40
210.0
 41
1.4142857143
 42
50.0
 43
0.0
 44
0.0
 50
0.0
 51
0.0
 71
0
 72
100
 73
1
 74
1
 75
0
 76
0
 77
0
 78
0
  0
ENDTAB
  0
TABLE
  2
LTYPE
  5
5
100
AcDbSymbolTable
 70
6
  0
LTYPE
  5
14
100
AcDbSymbolTableRecord
100
AcDbLinetypeTableRecord
  2
BYBLOCK
 70
0
  3

 72
65
 73
0
 40
0.0
  0
LTYPE
  5
15
100
AcDbSymbolTableRecord
100
AcDbLinetypeTableRecord
  2
BYLAYER
 70
0
  3

 72
65
 73
0
 40
0.0
  0
LTYPE
  5
16
100
AcDbSymbolTableRecord
100
AcDbLinetypeTableRecord
  2
CONTINUOUS
 70
64
  3
Solid line
 72
65
 73
0
 40
0.0
  0
LTYPE
  5
1F5
100
AcDbSymbolTableRecord
100
AcDbLinetypeTableRecord
  2
CENTER
 70
64
  3
____ _ ____ _ ____ _ ____ _ ____ _ ____ _ ____
 72
65
 73
4
 40
0.6
 49
0.375
 74
0
 49
-0.075
 74
0
 49
0.075
 74
0
 49
-0.075
 74
0
  0
LTYPE
  5
1F6
100
AcDbSymbolTableRecord
100
AcDbLinetypeTableRecord
  2
HIDDEN
 70
64
  3
- - - - - - - - - - - - - - - - - - - -
 72
65
 73
2
 40
0.2
 49
0.1
 74
0
 49
-0.1
 74
0
  0
LTYPE
  5
1F7
100
AcDbSymbolTableRecord
100
AcDbLinetypeTableRecord
  2
PHANTOM
 70
64
  3
_____ _ _ _____ _ _ _____ _ _ _____
 72
65
 73
6
 40
0.8
 49
0.45
 74
0
 49
-0.05
 74
0
 49
0.1
 74
0
 49
-0.05
 74
0
 49
0.1
 74
0
 49
-0.05
 74
0
  0
LTYPE
  5
1F8
100
AcDbSymbolTableRecord
100
AcDbLinetypeTableRecord
  2
DOT
 70
64
  3
. . . . . . . . . . . . . . . . . . . .
 72
65
 73
2
 40
0.2
 49
0.1
 74
0
 49
-0.1
 74
0
  0
LTYPE
  5
1F9
100
AcDbSymbolTableRecord
100
AcDbLinetypeTableRecord
  2
DASHED
 70
64
  3
- - - - - - - - - - - - - - - - - - - -
 72
65
 73
2
 40
0.2
 49
0.1
 74
0
 49
-0.1
 74
0
  0
ENDTAB
  0
TABLE
  2
LAYER
  5
2
100
AcDbSymbolTable
 70
36
  0
LAYER
  5
10
100
AcDbSymbolTableRecord
100
AcDbLayerTableRecord
  2
0
 70
0
 62
7
  6
CONTINUOUS
  0
LAYER
  5
1FA
100
AcDbSymbolTableRecord
100
AcDbLayerTableRecord
  2
DEFAULT_1
 70
0
 62
7
  6
CENTER
  0
LAYER
  5
1FB
100
AcDbSymbolTableRecord
100
AcDbLayerTableRecord
  2
DEFAULT_2
 70
0
 62
8
  6
HIDDEN
  0
LAYER
  5
1FC
100
AcDbSymbolTableRecord
100
AcDbLayerTableRecord
  2
DEFAULT_3
 70
0
 62
7
  6
PHANTOM
  0
LAYER
  5
1FD
100
AcDbSymbolTableRecord
100
AcDbLayerTableRecord
  2
ASSI
 70
0
 62
7
  6
CONTINUOUS
  0
LAYER
  5
1FE
100
AcDbSymbolTableRecord
100
AcDbLayerTableRecord
  2
COSMETICA
 70
0
 62
7
  6
CONTINUOUS
  0
LAYER
  5
1FF
100
AcDbSymbolTableRecord
100
AcDbLayerTableRecord
  2
CSYS
 70
0
 62
7
  6
CONTINUOUS
  0
LAYER
  5
200
100
AcDbSymbolTableRecord
100
AcDbLayerTableRecord
  2
DETTAGLI
 70
0
 62
7
  6
CONTINUOUS
  0
LAYER
  5
201
100
AcDbSymbolTableRecord
100
AcDbLayerTableRecord
  2
FILETTI
 70
0
 62
7
  6
CONTINUOUS
  0
LAYER
  5
202
100
AcDbSymbolTableRecord
100
AcDbLayerTableRecord
  2
GEOM
 70
0
 62
7
  6
CONTINUOUS
  0
LAYER
  5
203
100
AcDbSymbolTableRecord
100
AcDbLayerTableRecord
  2
GEOMETRIA_SOLIDA
 70
0
 62
7
  6
CONTINUOUS
  0
LAYER
  5
204
100
AcDbSymbolTableRecord
100
AcDbLayerTableRecord
  2
LAY0001
 70
0
 62
7
  6
CONTINUOUS
  0
LAYER
  5
205
100
AcDbSymbolTableRecord
100
AcDbLayerTableRecord
  2
LAY0002
 70
0
 62
7
  6
CONTINUOUS
  0
LAYER
  5
206
100
AcDbSymbolTableRecord
100
AcDbLayerTableRecord
  2
LAY0003
 70
0
 62
7
  6
CONTINUOUS
  0
LAYER
  5
207
100
AcDbSymbolTableRecord
100
AcDbLayerTableRecord
  2
NOGEOM
 70
0
 62
7
  6
CONTINUOUS
  0
LAYER
  5
208
100
AcDbSymbolTableRecord
100
AcDbLayerTableRecord
  2
PIANI
 70
0
 62
7
  6
CONTINUOUS
  0
LAYER
  5
209
100
AcDbSymbolTableRecord
100
AcDbLayerTableRecord
  2
QUOTE
 70
0
 62
7
  6
CONTINUOUS
  0
LAYER
  5
20A
100
AcDbSymbolTableRecord
100
AcDbLayerTableRecord
  2
RACCORDI
 70
0
 62
7
  6
CONTINUOUS
  0
LAYER
  5
20B
100
AcDbSymbolTableRecord
100
AcDbLayerTableRecord
  2
RIF
 70
0
 62
7
  6
CONTINUOUS
  0
LAYER
  5
20C
100
AcDbSymbolTableRecord
100
AcDbLayerTableRecord
  2
TABELLE
 70
0
 62
7
  6
CONTINUOUS
  0
ENDTAB
  0
TABLE
  2
STYLE
  5
3
100
AcDbSymbolTable
 70
1
  0
STYLE
  5
11
100
AcDbSymbolTableRecord
100
AcDbTextStyleTableRecord
  2
STANDARD
 70
0
 40
0.0
 41
0.8
 50
0.0
 71
0
 42
0.2
  3
txt
  4

  0
STYLE
  5
20D
100
AcDbSymbolTableRecord
100
AcDbTextStyleTableRecord
  2
TEXTSTYLE_1
 70
0
 40
0.0
 41
0.8
 50
0.0
 71
0
 42
0.2
  3
gdt
  4

  0
ENDTAB
  0
TABLE
  2
VIEW
  5
6
100
AcDbSymbolTable
 70
0
  0
ENDTAB
  0
TABLE
  2
UCS
  5
7
100
AcDbSymbolTable
 70
0
  0
ENDTAB
  0
TABLE
  2
APPID
  5
9
100
AcDbSymbolTable
 70
1
  0
APPID
  5
20E
100
AcDbSymbolTableRecord
100
AcDbRegAppTableRecord
  2
ACAD
 70
0
  0
ENDTAB
  0
TABLE
  2
BLOCK_RECORD
  5
1
100
AcDbSymbolTable
 70
0
  0
BLOCK_RECORD
  5
1F
100
AcDbSymbolTableRecord
100
AcDbBlockTableRecord
  2
*MODEL_SPACE
  0
BLOCK_RECORD
  5
1B
100
AcDbSymbolTableRecord
100
AcDbBlockTableRecord
  2
*PAPER_SPACE
  0
ENDTAB
  0
TABLE
  2
DIMSTYLE
  5
A
100
AcDbSymbolTable
 70
1
  0
DIMSTYLE
105
20F
100
AcDbSymbolTableRecord
100
AcDbDimStyleTableRecord
  2
STANDARD
 70
0
  3

  4

  5
_CLOSED
  6
_CLOSED
  7
_CLOSED
 40
1.0
 41
1.5
 42
0.0625
 43
0.38
 44
0.125
 45
0.0
 46
0.0
 47
0.01
 48
0.01
140
2.0
141
0.09
142
0.0
143
25.4
144
1.0
145
0.0
146
1.0
147
0.625
 71
1.0
 72
0.0
 73
0
 74
0
 75
0
 76
0
 77
1
 78
8
 79
2
170
0
171
1
172
0
173
0
174
0
175
0
176
0
177
0
178
0
270
2
179
2
271
2
272
2
273
2
274
2
275
0
280
0
281
0
282
0
283
1
284
8
285
0
286
0
287
3
288
0
340
11
  0
ENDTAB
  0
ENDSEC
  0
SECTION
  2
BLOCKS
  0
BLOCK
  5
20
100
AcDbEntity
  8
0
100
AcDbBlockBegin
  2
*MODEL_SPACE
 70
0
 10
0.0
 20
0.0
 30
0.0
  3
*MODEL_SPACE
  1

  0
ENDBLK
  5
21
100
AcDbEntity
  8
0
100
AcDbBlockEnd
  0
BLOCK
  5
1C
100
AcDbEntity
  8
0
100
AcDbBlockBegin
  2
*PAPER_SPACE
 70
0
 10
0.0
 20
0.0
 30
0.0
  3
*PAPER_SPACE
  1

  0
ENDBLK
  5
1D
100
AcDbEntity
  8
0
100
AcDbBlockEnd
  0
ENDSEC
  0
SECTION
  2
ENTITIES
  0
LINE
  5
210
100
AcDbEntity
  8
0
100
AcDbLine
 62
7
  6
CONTINUOUS
 10
0.0
 20
0.0
 11
0.0
 21
210.0
  0
LINE
  5
211
100
AcDbEntity
  8
0
100
AcDbLine
 62
7
  6
CONTINUOUS
 10
0.0
 20
0.0
 11
297.0
 21
0.0
  0
LINE
  5
212
100
AcDbEntity
  8
0
100
AcDbLine
 62
7
  6
CONTINUOUS
 10
0.0
 20
210.0
 11
297.0
 21
210.0
  0
LINE
  5
213
100
AcDbEntity
  8
0
100
AcDbLine
 62
7
  6
CONTINUOUS
 10
297.0
 20
0.0
 11
297.0
 21
210.0
  0
LINE
  5
214
100
AcDbEntity
  8
0
100
AcDbLine
 62
7
  6
CONTINUOUS
 10
96.145504714
 20
61.2727859698
 11
96.1379138037
 21
61.2793571193
  0
LINE
  5
215
100
AcDbEntity
  8
0
100
AcDbLine
 62
7
  6
CONTINUOUS
 10
97.6379144579
 20
61.2793571168
 11
97.6455053652
 21
61.2727859698
  0
LINE
  5
216
100
AcDbEntity
  8
0
100
AcDbLine
 62
7
  6
CONTINUOUS
 10
99.1379138038
 20
61.279357107
 11
99.1455046998
 21
61.2727859698
  0
LINE
  5
217
100
AcDbEntity
  8
0
100
AcDbLine
 62
7
  6
CONTINUOUS
 10
93.9181546979
 20
62.2727859698
 11
94.8691164137
 21
61.3218242539
  0
LINE
  5
218
100
AcDbEntity
  8
0
100
AcDbLine
 62
7
  6
CONTINUOUS
 10
95.5599314251
 20
62.2799038017
 11
96.1379138037
 21
61.2793571193
  0
LINE
  5
219
100
AcDbEntity
  8
0
100
AcDbLine
 62
7
  6
CONTINUOUS
 10
97.0599320688
 20
62.279903816
 11
97.6379144579
 21
61.2793571168
  0
LINE
  5
21A
100
AcDbEntity
  8
0
100
AcDbLine
 62
7
  6
CONTINUOUS
 10
98.5599314395
 20
62.2799037674
 11
99.1379138038
 21
61.279357107
  0
LINE
  5
21B
100
AcDbEntity
  8
0
100
AcDbLine
 62
7
  6
CONTINUOUS
 10
100.0599315789
 20
62.2799038105
 11
100.3742889128
 21
61.7357299078
  0
LINE
  5
21C
100
AcDbEntity
  8
0
100
AcDbLine
 62
7
  6
CONTINUOUS
 10
100.3742889128
 20
61.7357299078
 11
100.3792762316
 21
61.7339075035
  0
LINE
  5
21D
100
AcDbEntity
  8
0
100
AcDbLine
 62
7
  6
CONTINUOUS
 10
112.7323682603
 20
60.1585724074
 11
111.2039411355
 21
61.6869995321
  0
LINE
  5
21E
100
AcDbEntity
  8
0
100
AcDbLine
 62
7
  6
CONTINUOUS
 10
94.6763772999
 20
86.2656681602
 11
94.3986480102
 21
86.746435046
  0
LINE
  5
21F
100
AcDbEntity
  8
0
100
AcDbLine
 62
7
  6
CONTINUOUS
 10
125.0131294447
 20
58.9778112229
 11
124.6231799511
 21
59.3677607166
  0
LINE
  5
220
100
AcDbEntity
  8
0
100
AcDbLine
 62
7
  6
CONTINUOUS
 10
96.1763777925
 20
86.2656681222
 11
95.5983954047
 21
87.2662148192
  0
LINE
  5
221
100
AcDbEntity
  8
0
100
AcDbLine
 62
7
  6
CONTINUOUS
 10
97.676377983
 20
86.2656681515
 11
97.0983956063
 21
87.2662148316
  0
LINE
  5
222
100
AcDbEntity
  8
0
100
AcDbLine
 62
7
  6
CONTINUOUS
 10
99.1763773171
 20
86.2656681494
 11
98.5983949438
 21
87.2662148234
  0
LINE
  5
223
100
AcDbEntity
  8
0
100
AcDbLine
 62
7
  6
CONTINUOUS
 10
100.676377951
 20
86.2656681201
 11
100.3452187945
 21
86.8389278708
  0
LINE
  5
224
100
AcDbEntity
  8
0
100
AcDbLine
 62
7
  6
CONTINUOUS
 10
93.9181546979
 20
62.2727859698
 11
93.9181546979
 21
86.2727859698
  0
LINE
  5
225
100
AcDbEntity
  8
0
100
AcDbLine
 62
7
  6
CONTINUOUS
 10
107.1350367061
 20
149.9727859698
 11
105.9181546979
 21
148.6678397804
  0
LINE
  5
226
100
AcDbEntity
  8
0
100
AcDbLine
 62
7
  6
CONTINUOUS
 10
107.8065769764
 20
149.9727859698
 11
105.9181546979
 21
147.947701007
  0
LINE
  5
227
100
AcDbEntity
  8
0
100
AcDbLine
 62
7
  6
CONTINUOUS
 10
114.7993525444
 20
158.2155203799
 11
115.4181546979
 21
158.5727859698
  0
LINE
  5
228
100
AcDbEntity
  8
0
100
AcDbLine
 62
7
  6
CONTINUOUS
 10
131.5018235239
 20
58.7727859698
 11
125.5081041915
 21
58.7727859698
  0
LINE
  5
229
100
AcDbEntity
  8
0
100
AcDbLine
 62
7
  6
CONTINUOUS
 10
124.1282052042
 20
59.5727859698
 11
114.1465818226
 21
59.5727859698
  0
LINE
  5
22A
100
AcDbEntity
  8
GEOM
100
AcDbLine
 62
7
  6
CONTINUOUS
 10
132.5917948794
 20
60.2727859698
 11
137.8030960181
 21
60.2727859698
  0
LINE
  5
22B
100
AcDbEntity
  8
GEOM
100
AcDbLine
 62
7
  6
CONTINUOUS
 10
132.5917954518
 20
60.7121279572
 11
137.2603541287
 21
60.712125798
  0
LINE
  5
22C
100
AcDbEntity
  8
0
100
AcDbLine
 62
7
  6
CONTINUOUS
 10
96.145504714
 20
61.2727859698
 11
96.3408047772
 21
61.2727859698
  0
LINE
  5
22D
100
AcDbEntity
  8
0
100
AcDbLine
 62
7
  6
CONTINUOUS
 10
97.6455053652
 20
61.2727859698
 11
97.8408041592
 21
61.2727859698
  0
LINE
  5
22E
100
AcDbEntity
  8
0
100
AcDbLine
 62
7
  6
CONTINUOUS
 10
99.1455046998
 20
61.2727859698
 11
99.3408042979
 21
61.2727859698
  0
LINE
  5
22F
100
AcDbEntity
  8
0
100
AcDbLine
 62
7
  6
CONTINUOUS
 10
143.4955049856
 20
61.2727859698
 11
143.6908047337
 21
61.2727859698
  0
LINE
  5
230
100
AcDbEntity
  8
0
100
AcDbLine
 62
7
  6
CONTINUOUS
 10
144.9955052762
 20
61.2727859698
 11
145.190804057
 21
61.2727859698
  0
LINE
  5
231
100
AcDbEntity
  8
0
100
AcDbLine
 62
7
  6
CONTINUOUS
 10
146.495504637
 20
61.2727859698
 11
146.690804635
 21
61.2727859698
  0
LINE
  5
232
100
AcDbEntity
  8
0
100
AcDbLine
 62
7
  6
CONTINUOUS
 10
95.5908042723
 20
87.2727859698
 11
95.5983954047
 21
87.2662148192
  0
LINE
  5
233
100
AcDbEntity
  8
0
100
AcDbLine
 62
7
  6
CONTINUOUS
 10
97.0983956063
 20
87.2662148316
 11
97.0908047091
 21
87.2727859698
  0
LINE
  5
234
100
AcDbEntity
  8
0
100
AcDbLine
 62
7
  6
CONTINUOUS
 10
98.5983949438
 20
87.2662148234
 11
98.5908040372
 21
87.2727859698
  0
LINE
  5
235
100
AcDbEntity
  8
0
100
AcDbLine
 62
7
  6
CONTINUOUS
 10
100.3266488748
 20
86.8642917928
 11
99.9181546979
 21
87.2727859698
  0
LINE
  5
236
100
AcDbEntity
  8
0
100
AcDbLine
 62
7
  6
CONTINUOUS
 10
100.3266288295
 20
86.8643118302
 11
100.3452187945
 21
86.8389278708
  0
LINE
  5
237
100
AcDbEntity
  8
0
100
AcDbLine
 62
7
  6
CONTINUOUS
 10
99.9181546979
 20
87.2727859691
 11
99.9181546979
 21
87.2621951874
  0
LINE
  5
238
100
AcDbEntity
  8
0
100
AcDbLine
 62
7
  6
CONTINUOUS
 10
100.7717080885
 20
62.1263393604
 11
100.7717080885
 21
82.8398601301
  0
LINE
  5
239
100
AcDbEntity
  8
0
100
AcDbLine
 62
7
  6
CONTINUOUS
 10
101.1252614791
 20
62.2727859698
 11
101.1252614791
 21
86.2727859698
  0
LINE
  5
23A
100
AcDbEntity
  8
0
100
AcDbLine
 62
7
  6
CONTINUOUS
 10
105.9181546979
 20
137.1614611044
 11
105.6681546979
 21
136.7284484025
  0
LINE
  5
23B
100
AcDbEntity
  8
0
100
AcDbLine
 62
7
  6
CONTINUOUS
 10
109.6681546979
 20
144.4727859698
 11
109.9681546979
 21
144.7727859698
  0
LINE
  5
23C
100
AcDbEntity
  8
0
100
AcDbLine
 62
7
  6
CONTINUOUS
 10
112.1181546979
 20
146.5727859698
 11
111.4181546979
 21
145.8727859698
  0
LINE
  5
23D
100
AcDbEntity
  8
0
100
AcDbLine
 62
7
  6
CONTINUOUS
 10
114.7993525444
 20
155.3702209182
 11
113.7181546979
 21
154.7459910505
  0
LINE
  5
23E
100
AcDbEntity
  8
0
100
AcDbLine
 62
7
  6
CONTINUOUS
 10
148.9099317129
 20
62.2727859698
 11
148.7681546979
 21
62.2727859698
  0
LINE
  5
23F
100
AcDbEntity
  8
0
100
AcDbLine
 62
7
  6
CONTINUOUS
 10
109.7897275731
 20
62.2727859698
 11
101.1252614791
 21
62.2727859698
  0
LINE
  5
240
100
AcDbEntity
  8
0
100
AcDbLine
 62
7
  6
CONTINUOUS
 10
95.4181544304
 20
62.2727859926
 11
95.5681544304
 21
62.2727859926
  0
LINE
  5
241
100
AcDbEntity
  8
0
100
AcDbLine
 62
7
  6
CONTINUOUS
 10
96.9181550712
 20
62.2727860094
 11
97.0681550712
 21
62.2727860094
  0
LINE
  5
242
100
AcDbEntity
  8
0
100
AcDbLine
 62
7
  6
CONTINUOUS
 10
98.4181544295
 20
62.2727859715
 11
98.5681544295
 21
62.2727859715
  0
LINE
  5
243
100
AcDbEntity
  8
0
100
AcDbLine
 62
7
  6
CONTINUOUS
 10
99.9181545858
 20
62.2727859999
 11
100.0681545858
 21
62.2727859999
  0
LINE
  5
244
100
AcDbEntity
  8
0
100
AcDbLine
 62
7
  6
CONTINUOUS
 10
142.768154698
 20
62.2727859993
 11
142.9099316901
 21
62.2727859993
  0
LINE
  5
245
100
AcDbEntity
  8
0
100
AcDbLine
 62
7
  6
CONTINUOUS
 10
144.268155005
 20
62.272785973
 11
144.40993201
 21
62.272785973
  0
LINE
  5
246
100
AcDbEntity
  8
0
100
AcDbLine
 62
7
  6
CONTINUOUS
 10
145.7681543469
 20
62.272786003
 11
145.9099313449
 21
62.272786003
  0
LINE
  5
247
100
AcDbEntity
  8
0
100
AcDbLine
 62
7
  6
CONTINUOUS
 10
147.2681549173
 20
62.2727859905
 11
147.4099319108
 21
62.2727859905
  0
LINE
  5
248
100
AcDbEntity
  8
0
100
AcDbLine
 62
7
  6
CONTINUOUS
 10
141.5039411355
 20
62.7727859698
 11
138.9181546979
 21
62.7727859698
  0
LINE
  5
249
100
AcDbEntity
  8
0
100
AcDbLine
 62
7
  6
CONTINUOUS
 10
98.2181546979
 20
73.0184444106
 11
98.7955049671
 21
72.9139159473
  0
LINE
  5
24A
100
AcDbEntity
  8
GEOM
100
AcDbLine
 62
7
  6
CONTINUOUS
 10
137.2603541287
 20
69.0951164401
 11
137.4335592095
 21
69.0599882178
  0
LINE
  5
24B
100
AcDbEntity
  8
GEOM
100
AcDbLine
 62
7
  6
CONTINUOUS
 10
132.3402630281
 20
69.1507788055
 11
132.5917948794
 21
69.0951164401
  0
LINE
  5
24C
100
AcDbEntity
  8
0
100
AcDbLine
 62
7
  6
CONTINUOUS
 10
148.9129437954
 20
62.2746897757
 11
148.9181546979
 21
62.2727859698
  0
LINE
  5
24D
100
AcDbEntity
  8
0
100
AcDbLine
 62
7
  6
CONTINUOUS
 10
147.9671915517
 20
61.3218228242
 11
147.9623640957
 21
61.3235889072
  0
LINE
  5
24E
100
AcDbEntity
  8
0
100
AcDbLine
 62
7
  6
CONTINUOUS
 10
116.6486593786
 20
73.1373154979
 11
115.6981546979
 21
75.0027859698
  0
LINE
  5
24F
100
AcDbEntity
  8
0
100
AcDbLine
 62
7
  6
CONTINUOUS
 10
116.901182782
 20
73.6329205824
 11
116.2032015048
 21
75.0027859698
  0
LINE
  5
250
100
AcDbEntity
  8
0
100
AcDbLine
 62
7
  6
CONTINUOUS
 10
105.4181546979
 20
140.3727859698
 11
105.4181546979
 21
137.1614611044
  0
LINE
  5
251
100
AcDbEntity
  8
0
100
AcDbLine
 62
7
  6
CONTINUOUS
 10
105.9181546979
 20
135.9727859698
 11
105.9181546979
 21
136.5841108352
  0
LINE
  5
252
100
AcDbEntity
  8
0
100
AcDbLine
 62
7
  6
CONTINUOUS
 10
105.9181546979
 20
137.1614611044
 11
105.9181546979
 21
149.9727859698
  0
LINE
  5
253
100
AcDbEntity
  8
0
100
AcDbLine
 62
7
  6
CONTINUOUS
 10
108.9181546979
 20
140.8727859698
 11
108.9181546979
 21
149.4727859698
  0
LINE
  5
254
100
AcDbEntity
  8
0
100
AcDbLine
 62
7
  6
CONTINUOUS
 10
121.2722566641
 20
153.5727859698
 11
121.192318915
 21
153.3727859698
  0
LINE
  5
255
100
AcDbEntity
  8
0
100
AcDbLine
 62
7
  6
CONTINUOUS
 10
122.9448662116
 20
153.5727859698
 11
122.8443021366
 21
153.3727859698
  0
LINE
  5
256
100
AcDbEntity
  8
0
100
AcDbLine
 62
7
  6
CONTINUOUS
 10
124.2722566641
 20
153.5727859698
 11
124.1609101755
 21
153.3727859698
  0
LINE
  5
257
100
AcDbEntity
  8
0
100
AcDbLine
 62
7
  6
CONTINUOUS
 10
110.8237094464
 20
136.5485219011
 11
110.9586295063
 21
136.6899432418
  0
LINE
  5
258
100
AcDbEntity
  8
0
100
AcDbLine
 62
7
  6
CONTINUOUS
 10
110.28461179
 20
137.064207326
 11
110.4202315099
 21
137.2056286822
  0
LINE
  5
259
100
AcDbEntity
  8
0
100
AcDbLine
 62
7
  6
CONTINUOUS
 10
112.0756472197
 20
145.3358838247
 11
111.4285618549
 21
144.9985551934
  0
LINE
  5
25A
100
AcDbEntity
  8
GEOM
100
AcDbLine
 62
7
  6
CONTINUOUS
 10
132.5917948794
 20
68.0344562683
 11
137.2603559281
 21
68.034449612
  0
LINE
  5
25B
100
AcDbEntity
  8
GEOM
100
AcDbLine
 62
7
  6
CONTINUOUS
 10
132.5917948794
 20
69.0951164401
 11
137.2603541287
 21
69.0951164401
  0
LINE
  5
25C
100
AcDbEntity
  8
0
100
AcDbLine
 62
7
  6
CONTINUOUS
 10
123.6181546979
 20
71.5827859698
 11
114.6181546979
 21
71.5827859698
  0
LINE
  5
25D
100
AcDbEntity
  8
0
100
AcDbLine
 62
7
  6
CONTINUOUS
 10
123.1681546979
 20
72.0327859698
 11
115.0681546979
 21
72.0327859698
  0
LINE
  5
25E
100
AcDbEntity
  8
0
100
AcDbLine
 62
7
  6
CONTINUOUS
 10
120.6682483118
 20
72.7127859698
 11
120.2182483118
 21
72.7127859698
  0
LINE
  5
25F
100
AcDbEntity
  8
0
100
AcDbLine
 62
7
  6
CONTINUOUS
 10
119.5882483118
 20
72.7127859698
 11
119.1382483118
 21
72.7127859698
  0
LINE
  5
260
100
AcDbEntity
  8
0
100
AcDbLine
 62
7
  6
CONTINUOUS
 10
117.3414350324
 20
72.7127859698
 11
116.8363882255
 21
72.7127859698
  0
LINE
  5
261
100
AcDbEntity
  8
GEOM
100
AcDbLine
 62
7
  6
CONTINUOUS
 10
132.498018222
 20
71.2684188351
 11
132.7968766314
 21
71.2630336626
  0
LINE
  5
262
100
AcDbEntity
  8
0
100
AcDbLine
 62
7
  6
CONTINUOUS
 10
94.3936353917
 20
86.7482666636
 11
94.3986480103
 21
86.746435046
  0
LINE
  5
263
100
AcDbEntity
  8
0
100
AcDbLine
 62
7
  6
CONTINUOUS
 10
143.4879140731
 20
61.2793571223
 11
143.4955049856
 21
61.2727859698
  0
LINE
  5
264
100
AcDbEntity
  8
0
100
AcDbLine
 62
7
  6
CONTINUOUS
 10
144.9879143756
 20
61.2793571121
 11
144.9955052762
 21
61.2727859698
  0
LINE
  5
265
100
AcDbEntity
  8
0
100
AcDbLine
 62
7
  6
CONTINUOUS
 10
146.4879137297
 20
61.2793571179
 11
146.495504637
 21
61.2727859698
  0
LINE
  5
266
100
AcDbEntity
  8
0
100
AcDbLine
 62
7
  6
CONTINUOUS
 10
142.6400457955
 20
62.0508948721
 11
142.2110479167
 21
62.4798927509
  0
LINE
  5
267
100
AcDbEntity
  8
0
100
AcDbLine
 62
7
  6
CONTINUOUS
 10
109.6681546979
 20
141.3227859698
 11
109.6681546979
 21
144.4727859698
  0
LINE
  5
268
100
AcDbEntity
  8
0
100
AcDbLine
 62
7
  6
CONTINUOUS
 10
109.7897275731
 20
62.2727859698
 11
109.7897275731
 21
86.2727859698
  0
LINE
  5
269
100
AcDbEntity
  8
0
100
AcDbLine
 62
7
  6
CONTINUOUS
 10
110.1015029388
 20
140.3727859698
 11
110.1015029388
 21
137.4884713947
  0
LINE
  5
26A
100
AcDbEntity
  8
0
100
AcDbLine
 62
7
  6
CONTINUOUS
 10
110.2935988514
 20
140.3727859698
 11
110.2935988514
 21
137.4884713947
  0
LINE
  5
26B
100
AcDbEntity
  8
0
100
AcDbLine
 62
7
  6
CONTINUOUS
 10
110.6681546979
 20
133.7262270027
 11
110.6681546979
 21
86.8213064104
  0
LINE
  5
26C
100
AcDbEntity
  8
0
100
AcDbLine
 62
7
  6
CONTINUOUS
 10
110.8851306149
 20
136.4071005448
 11
110.8851306149
 21
134.2937762216
  0
LINE
  5
26D
100
AcDbEntity
  8
0
100
AcDbLine
 62
7
  6
CONTINUOUS
 10
111.0758127174
 20
136.4071005448
 11
111.0758127174
 21
134.2937762216
  0
LINE
  5
26E
100
AcDbEntity
  8
0
100
AcDbLine
 62
7
  6
CONTINUOUS
 10
111.2039411355
 20
61.6869995321
 11
111.2039411355
 21
86.3930733886
  0
LINE
  5
26F
100
AcDbEntity
  8
0
100
AcDbLine
 62
7
  6
CONTINUOUS
 10
111.4181546979
 20
145.8727859698
 11
111.4181546979
 21
145.8378651286
  0
LINE
  5
270
100
AcDbEntity
  8
0
100
AcDbLine
 62
7
  6
CONTINUOUS
 10
111.4181546979
 20
144.9877081843
 11
111.4181546979
 21
144.7727859698
  0
LINE
  5
271
100
AcDbEntity
  8
0
100
AcDbLine
 62
7
  6
CONTINUOUS
 10
112.7323682603
 20
60.1585724074
 11
112.7323682603
 21
87.1156559782
  0
LINE
  5
272
100
AcDbEntity
  8
0
100
AcDbLine
 62
7
  6
CONTINUOUS
 10
112.9181546979
 20
146.5727859698
 11
112.9181546979
 21
149.5727859698
  0
LINE
  5
273
100
AcDbEntity
  8
0
100
AcDbLine
 62
7
  6
CONTINUOUS
 10
113.1181546979
 20
112.4071005448
 11
113.1181546979
 21
116.9071005448
  0
LINE
  5
274
100
AcDbEntity
  8
0
100
AcDbLine
 62
7
  6
CONTINUOUS
 10
113.3870802652
 20
149.1397732679
 11
113.3870802652
 21
146.5727859698
  0
LINE
  5
275
100
AcDbEntity
  8
0
100
AcDbLine
 62
7
  6
CONTINUOUS
 10
113.4181546979
 20
154.2263758082
 11
113.4181546979
 21
153.5727859698
  0
LINE
  5
276
100
AcDbEntity
  8
0
100
AcDbLine
 62
7
  6
CONTINUOUS
 10
113.6244046979
 20
116.4283771976
 11
113.6244046979
 21
114.9922068878
  0
LINE
  5
277
100
AcDbEntity
  8
0
100
AcDbLine
 62
7
  6
CONTINUOUS
 10
113.6244046979
 20
114.4177388712
 11
113.6244046979
 21
112.4071005448
  0
LINE
  5
278
100
AcDbEntity
  8
0
100
AcDbLine
 62
7
  6
CONTINUOUS
 10
114.1465818226
 20
87.0028811396
 11
114.1465818226
 21
59.5727859698
  0
LINE
  5
279
100
AcDbEntity
  8
0
100
AcDbLine
 62
7
  6
CONTINUOUS
 10
114.6181546979
 20
106.0666751727
 11
114.6181546979
 21
104.5347599252
  0
LINE
  5
27A
100
AcDbEntity
  8
0
100
AcDbLine
 62
7
  6
CONTINUOUS
 10
114.6181546979
 20
71.5827859698
 11
114.6181546979
 21
76.9827859698
  0
LINE
  5
27B
100
AcDbEntity
  8
0
100
AcDbLine
 62
7
  6
CONTINUOUS
 10
114.7993525444
 20
155.3702209182
 11
114.7993525444
 21
158.2155203799
  0
LINE
  5
27C
100
AcDbEntity
  8
0
100
AcDbLine
 62
7
  6
CONTINUOUS
 10
115.0181546979
 20
149.9727859698
 11
115.0181546979
 21
149.5727859698
  0
LWPOLYLINE
  5
27D
100
AcDbEntity
  8
0
100
AcDbPolyline
 62
7
  6
CONTINUOUS
 90
12
 70
0
 10
110.6681554971
 20
86.8213067827
 10
110.6660801756
 20
86.7757969285
 10
110.6560986665
 20
86.7121656195
 10
110.6380202093
 20
86.6503457091
 10
110.6121449136
 20
86.5913629974
 10
110.5789022571
 20
86.536196185
 10
110.538843967
 20
86.4857606446
 10
110.4926348605
 20
86.4408932198
 10
110.4410417314
 20
86.4023382858
 10
110.3849208066
 20
86.3707355524
 10
110.3252035985
 20
86.3466093749
 10
110.2943010304
 20
86.3374792544
  0
LINE
  5
27E
100
AcDbEntity
  8
0
100
AcDbLine
 62
7
  6
CONTINUOUS
 10
115.979414924
 20
152.9727859698
 11
115.984655702
 21
153.0727859698
  0
LINE
  5
27F
100
AcDbEntity
  8
0
100
AcDbLine
 62
7
  6
CONTINUOUS
 10
117.5640527316
 20
153.5727859698
 11
117.5460572251
 21
153.3727859698
  0
LINE
  5
280
100
AcDbEntity
  8
0
100
AcDbLine
 62
7
  6
CONTINUOUS
 10
115.8119047007
 20
131.853909181
 11
115.7181546979
 21
131.3751855656
  0
LINE
  5
281
100
AcDbEntity
  8
0
100
AcDbLine
 62
7
  6
CONTINUOUS
 10
116.3744046755
 20
131.7581642433
 11
116.2806546979
 21
131.3751855656
  0
LINE
  5
282
100
AcDbEntity
  8
0
100
AcDbLine
 62
7
  6
CONTINUOUS
 10
119.4181546979
 20
153.5727859698
 11
119.3666681384
 21
153.3727859698
  0
LINE
  5
283
100
AcDbEntity
  8
0
100
AcDbLine
 62
7
  6
CONTINUOUS
 10
115.9994046979
 20
132.2368878588
 11
115.8119047007
 21
131.853909181
  0
LINE
  5
284
100
AcDbEntity
  8
0
100
AcDbLine
 62
7
  6
CONTINUOUS
 10
125.4181546979
 20
153.5727859698
 11
125.317930044
 21
153.3727859698
  0
LINE
  5
285
100
AcDbEntity
  8
0
100
AcDbLine
 62
7
  6
CONTINUOUS
 10
125.1244937957
 20
153.5727859698
 11
125.0132642636
 21
153.3727859698
  0
LINE
  5
286
100
AcDbEntity
  8
0
100
AcDbLine
 62
7
  6
CONTINUOUS
 10
116.5619046979
 20
132.0453985199
 11
116.3744046755
 21
131.7581642433
  0
LINE
  5
287
100
AcDbEntity
  8
0
100
AcDbLine
 62
7
  6
CONTINUOUS
 10
116.3744046755
 20
132.6198665365
 11
115.9994046979
 21
132.2368878588
  0
LINE
  5
288
100
AcDbEntity
  8
GEOM
100
AcDbLine
 62
7
  6
CONTINUOUS
 10
132.498018222
 20
77.2771531041
 11
132.7968766314
 21
77.2825382769
  0
LINE
  5
289
100
AcDbEntity
  8
0
100
AcDbLine
 62
7
  6
CONTINUOUS
 10
98.0681546979
 20
73.0184444106
 11
98.2181546979
 21
73.0184444106
  0
LINE
  5
28A
100
AcDbEntity
  8
0
100
AcDbLine
 62
7
  6
CONTINUOUS
 10
121.9282483118
 20
74.2727859698
 11
121.6582483118
 21
74.2727859698
  0
LINE
  5
28B
100
AcDbEntity
  8
0
100
AcDbLine
 62
7
  6
CONTINUOUS
 10
122.3782483118
 20
74.7327859698
 11
121.9282483118
 21
74.7327859698
  0
LINE
  5
28C
100
AcDbEntity
  8
0
100
AcDbLine
 62
7
  6
CONTINUOUS
 10
120.6682483118
 20
75.0027859698
 11
120.2182483118
 21
75.0027859698
  0
LINE
  5
28D
100
AcDbEntity
  8
0
100
AcDbLine
 62
7
  6
CONTINUOUS
 10
119.5882483118
 20
75.0027859698
 11
119.1382483118
 21
75.0027859698
  0
LINE
  5
28E
100
AcDbEntity
  8
0
100
AcDbLine
 62
7
  6
CONTINUOUS
 10
118.5082483118
 20
75.0027859698
 11
118.0032015048
 21
75.0027859698
  0
LINE
  5
28F
100
AcDbEntity
  8
0
100
AcDbLine
 62
7
  6
CONTINUOUS
 10
116.2032015048
 20
75.0027859698
 11
115.6981546979
 21
75.0027859698
  0
LINE
  5
290
100
AcDbEntity
  8
0
100
AcDbLine
 62
7
  6
CONTINUOUS
 10
119.5882483118
 20
75.4527859698
 11
119.1382483118
 21
75.4527859698
  0
LINE
  5
291
100
AcDbEntity
  8
0
100
AcDbLine
 62
7
  6
CONTINUOUS
 10
119.5882483118
 20
75.9027859698
 11
119.1382483118
 21
75.9027859698
  0
LINE
  5
292
100
AcDbEntity
  8
0
100
AcDbLine
 62
7
  6
CONTINUOUS
 10
123.1681546979
 20
76.5327859698
 11
115.0681546979
 21
76.5327859698
  0
LINE
  5
293
100
AcDbEntity
  8
0
100
AcDbLine
 62
7
  6
CONTINUOUS
 10
123.6181546979
 20
76.9827859698
 11
114.6181546979
 21
76.9827859698
  0
LINE
  5
294
100
AcDbEntity
  8
GEOM
100
AcDbLine
 62
7
  6
CONTINUOUS
 10
137.8026830453
 20
74.2634178738
 11
137.9181546979
 21
74.2633163772
  0
LINE
  5
295
100
AcDbEntity
  8
0
100
AcDbLine
 62
7
  6
CONTINUOUS
 10
115.8914431841
 20
153.5727859698
 11
115.9087002561
 21
153.3727859698
  0
LINE
  5
296
100
AcDbEntity
  8
0
100
AcDbLine
 62
7
  6
CONTINUOUS
 10
115.0681546979
 20
72.0327859698
 11
115.0681546979
 21
76.5327859698
  0
LINE
  5
297
100
AcDbEntity
  8
0
100
AcDbLine
 62
7
  6
CONTINUOUS
 10
115.7181546979
 20
131.3751855656
 11
115.7181546979
 21
129.9390153899
  0
LINE
  5
298
100
AcDbEntity
  8
0
100
AcDbLine
 62
7
  6
CONTINUOUS
 10
115.7337796174
 20
115.853909181
 11
115.7337796174
 21
115.5666749045
  0
LINE
  5
299
100
AcDbEntity
  8
0
100
AcDbLine
 62
7
  6
CONTINUOUS
 10
115.7431546979
 20
105.8751858338
 11
115.7431546979
 21
98.4071005448
  0
LINE
  5
29A
100
AcDbEntity
  8
0
100
AcDbLine
 62
7
  6
CONTINUOUS
 10
116.2400296174
 20
115.853909181
 11
116.2400296174
 21
115.470930235
  0
LINE
  5
29B
100
AcDbEntity
  8
0
100
AcDbLine
 62
7
  6
CONTINUOUS
 10
116.2806546979
 20
131.3751855656
 11
116.2806546979
 21
129.9390153899
  0
LINE
  5
29C
100
AcDbEntity
  8
0
100
AcDbLine
 62
7
  6
CONTINUOUS
 10
116.8681546979
 20
107.4071005448
 11
116.8681546979
 21
98.4071005448
  0
LINE
  5
29D
100
AcDbEntity
  8
0
100
AcDbLine
 62
7
  6
CONTINUOUS
 10
116.9150296979
 20
116.9071005448
 11
116.9150296979
 21
112.4071005448
  0
LINE
  5
29E
100
AcDbEntity
  8
0
100
AcDbLine
 62
7
  6
CONTINUOUS
 10
116.9181546979
 20
153.3727859698
 11
116.9181546979
 21
153.0727859698
  0
LINE
  5
29F
100
AcDbEntity
  8
0
100
AcDbLine
 62
7
  6
CONTINUOUS
 10
116.9375414431
 20
149.9727859698
 11
116.9375414431
 21
149.0218397798
  0
LINE
  5
2A0
100
AcDbEntity
  8
0
100
AcDbLine
 62
7
  6
CONTINUOUS
 10
117.1087536211
 20
155.3702209182
 11
117.1087536211
 21
158.2155203799
  0
LINE
  5
2A1
100
AcDbEntity
  8
0
100
AcDbLine
 62
7
  6
CONTINUOUS
 10
117.4212796979
 20
116.3326325282
 11
117.4212796979
 21
112.4071005448
  0
LINE
  5
2A2
100
AcDbEntity
  8
0
100
AcDbLine
 62
7
  6
CONTINUOUS
 10
118.3681546085
 20
107.4071005448
 11
118.3681546085
 21
102.4283771976
  0
LINE
  5
2A3
100
AcDbEntity
  8
0
100
AcDbLine
 62
7
  6
CONTINUOUS
 10
119.1382483118
 20
72.7127859698
 11
119.1382483118
 21
75.0027859698
  0
LINE
  5
2A4
100
AcDbEntity
  8
0
100
AcDbLine
 62
7
  6
CONTINUOUS
 10
119.1382483118
 20
75.4527859698
 11
119.1382483118
 21
75.9027859698
  0
LINE
  5
2A5
100
AcDbEntity
  8
0
100
AcDbLine
 62
7
  6
CONTINUOUS
 10
119.3056545191
 20
106.4496538504
 11
119.3056545191
 21
103.385823892
  0
LINE
  5
2A6
100
AcDbEntity
  8
0
100
AcDbLine
 62
7
  6
CONTINUOUS
 10
119.4181546979
 20
132.9071005448
 11
119.4181546979
 21
128.4071005448
  0
LINE
  5
2A7
100
AcDbEntity
  8
0
100
AcDbLine
 62
7
  6
CONTINUOUS
 10
119.5882483118
 20
72.7127859698
 11
119.5882483118
 21
75.0027859698
  0
LINE
  5
2A8
100
AcDbEntity
  8
0
100
AcDbLine
 62
7
  6
CONTINUOUS
 10
119.5882483118
 20
75.4527859698
 11
119.5882483118
 21
75.9027859698
  0
LINE
  5
2A9
100
AcDbEntity
  8
0
100
AcDbLine
 62
7
  6
CONTINUOUS
 10
119.7837798588
 20
116.9071005448
 11
119.7837798588
 21
113.0773132979
  0
LINE
  5
2AA
100
AcDbEntity
  8
0
100
AcDbLine
 62
7
  6
CONTINUOUS
 10
119.9806546979
 20
132.4283771976
 11
119.9806546979
 21
130.9922068878
  0
LINE
  5
2AB
100
AcDbEntity
  8
0
100
AcDbLine
 62
7
  6
CONTINUOUS
 10
119.9806546979
 20
130.4177388712
 11
119.9806546979
 21
128.4071005448
  0
LINE
  5
2AC
100
AcDbEntity
  8
0
100
AcDbLine
 62
7
  6
CONTINUOUS
 10
120.2182483118
 20
72.7127859698
 11
120.2182483118
 21
72.8327859698
  0
LINE
  5
2AD
100
AcDbEntity
  8
0
100
AcDbLine
 62
7
  6
CONTINUOUS
 10
120.2182483118
 20
74.1620548493
 11
120.2182483118
 21
75.0027859698
  0
LINE
  5
2AE
100
AcDbEntity
  8
0
100
AcDbLine
 62
7
  6
CONTINUOUS
 10
120.2900298588
 20
116.9071005448
 11
120.2900298588
 21
112.4071005448
  0
LINE
  5
2AF
100
AcDbEntity
  8
0
100
AcDbLine
 62
7
  6
CONTINUOUS
 10
119.3744046979
 20
129.5560367122
 11
119.2806547873
 21
129.0773132979
  0
LINE
  5
2B0
100
AcDbEntity
  8
0
100
AcDbLine
 62
7
  6
CONTINUOUS
 10
115.7337796174
 20
115.5666749045
 11
115.6494046979
 21
115.2794408962
  0
LINE
  5
2B1
100
AcDbEntity
  8
0
100
AcDbLine
 62
7
  6
CONTINUOUS
 10
116.2400296174
 20
115.470930235
 11
116.1556546979
 21
115.1836962267
  0
LINE
  5
2B2
100
AcDbEntity
  8
0
100
AcDbLine
 62
7
  6
CONTINUOUS
 10
118.8119046979
 20
129.5560367122
 11
118.7181547873
 21
129.2688027039
  0
LINE
  5
2B3
100
AcDbEntity
  8
0
100
AcDbLine
 62
7
  6
CONTINUOUS
 10
122.3244046085
 20
131.5666749045
 11
122.2306546979
 21
131.2794408962
  0
LINE
  5
2B4
100
AcDbEntity
  8
0
100
AcDbLine
 62
7
  6
CONTINUOUS
 10
122.8869046085
 20
131.470930235
 11
122.7931546979
 21
131.1836962267
  0
LINE
  5
2B5
100
AcDbEntity
  8
0
100
AcDbLine
 62
7
  6
CONTINUOUS
 10
95.3879136738
 20
87.2662148268
 11
94.8099313055
 21
86.2656681605
  0
LINE
  5
2B6
100
AcDbEntity
  8
0
100
AcDbLine
 62
7
  6
CONTINUOUS
 10
96.8879141658
 20
87.2662148188
 11
96.3099317782
 21
86.2656681222
  0
LINE
  5
2B7
100
AcDbEntity
  8
0
100
AcDbLine
 62
7
  6
CONTINUOUS
 10
98.3879143778
 20
87.266214832
 11
97.8099320008
 21
86.2656681513
  0
LINE
  5
2B8
100
AcDbEntity
  8
0
100
AcDbLine
 62
7
  6
CONTINUOUS
 10
122.7931546979
 20
131.1836962267
 11
122.5119046979
 21
130.800717549
  0
LINE
  5
2B9
100
AcDbEntity
  8
0
100
AcDbLine
 62
7
  6
CONTINUOUS
 10
152.2893085774
 20
169.5439364085
 11
138.684199141
 21
153.3299983601
  0
LINE
  5
2BA
100
AcDbEntity
  8
0
100
AcDbLine
 62
7
  6
CONTINUOUS
 10
119.2806547873
 20
129.0773132979
 11
118.9056546085
 21
128.6943345867
  0
LINE
  5
2BB
100
AcDbEntity
  8
0
100
AcDbLine
 62
7
  6
CONTINUOUS
 10
122.2306546979
 20
131.2794408962
 11
122.0431546085
 21
131.0879515573
  0
LINE
  5
2BC
100
AcDbEntity
  8
0
100
AcDbLine
 62
7
  6
CONTINUOUS
 10
128.8009974104
 20
137.2056286822
 11
128.2853119854
 21
136.6899432573
  0
LINE
  5
2BD
100
AcDbEntity
  8
0
100
AcDbLine
 62
7
  6
CONTINUOUS
 10
116.8431546979
 20
132.2368878588
 11
116.5619046979
 21
132.0453985199
  0
LINE
  5
2BE
100
AcDbEntity
  8
GEOM
100
AcDbLine
 62
7
  6
CONTINUOUS
 10
137.2603541294
 20
79.4504554958
 11
137.4335592095
 21
79.4855837217
  0
LINE
  5
2BF
100
AcDbEntity
  8
0
100
AcDbLine
 62
7
  6
CONTINUOUS
 10
97.4908044287
 20
72.9139159473
 11
98.0681546979
 21
73.0184444106
  0
LINE
  5
2C0
100
AcDbEntity
  8
GEOM
100
AcDbLine
 62
7
  6
CONTINUOUS
 10
132.5917948794
 20
79.4504554994
 11
137.2603541287
 21
79.4504554994
  0
LINE
  5
2C1
100
AcDbEntity
  8
GEOM
100
AcDbLine
 62
7
  6
CONTINUOUS
 10
132.5917948794
 20
80.5111156712
 11
137.2603562599
 21
80.5111236936
  0
LINE
  5
2C2
100
AcDbEntity
  8
0
100
AcDbLine
 62
7
  6
CONTINUOUS
 10
119.3056545191
 20
99.1730579674
 11
118.7431547873
 21
99.9390153899
  0
LINE
  5
2C3
100
AcDbEntity
  8
0
100
AcDbLine
 62
7
  6
CONTINUOUS
 10
142.9099316901
 20
62.2799038117
 11
143.4879140731
 21
61.2793571223
  0
LINE
  5
2C4
100
AcDbEntity
  8
0
100
AcDbLine
 62
7
  6
CONTINUOUS
 10
144.40993201
 20
62.2799037743
 11
144.9879143756
 21
61.2793571121
  0
LINE
  5
2C5
100
AcDbEntity
  8
0
100
AcDbLine
 62
7
  6
CONTINUOUS
 10
145.9099313449
 20
62.2799038103
 11
146.4879137297
 21
61.2793571179
  0
LINE
  5
2C6
100
AcDbEntity
  8
0
100
AcDbLine
 62
7
  6
CONTINUOUS
 10
118.7431547873
 20
99.9390153899
 11
118.3681546085
 21
100.7049728795
  0
LINE
  5
2C7
100
AcDbEntity
  8
0
100
AcDbLine
 62
7
  6
CONTINUOUS
 10
119.8681545191
 20
99.9390153899
 11
119.4931548767
 21
100.7049728795
  0
LINE
  5
2C8
100
AcDbEntity
  8
0
100
AcDbLine
 62
7
  6
CONTINUOUS
 10
115.7337796174
 20
115.853909181
 11
115.6494046979
 21
116.1411431893
  0
LINE
  5
2C9
100
AcDbEntity
  8
0
100
AcDbLine
 62
7
  6
CONTINUOUS
 10
116.2400296174
 20
115.853909181
 11
116.1556546979
 21
116.1411431893
  0
LINE
  5
2CA
100
AcDbEntity
  8
0
100
AcDbLine
 62
7
  6
CONTINUOUS
 10
115.8119047007
 20
129.4602920427
 11
115.7181546979
 21
129.9390153899
  0
LINE
  5
2CB
100
AcDbEntity
  8
0
100
AcDbLine
 62
7
  6
CONTINUOUS
 10
122.8516536938
 20
153.0727859698
 11
122.8568944718
 21
152.9727859698
  0
LINE
  5
2CC
100
AcDbEntity
  8
0
100
AcDbLine
 62
7
  6
CONTINUOUS
 10
120.6682483118
 20
74.5527859698
 11
120.6682483118
 21
75.0027859698
  0
LINE
  5
2CD
100
AcDbEntity
  8
0
100
AcDbLine
 62
7
  6
CONTINUOUS
 10
120.9650296979
 20
116.2368878588
 11
120.9650296979
 21
115.470930235
  0
LINE
  5
2CE
100
AcDbEntity
  8
0
100
AcDbLine
 62
7
  6
CONTINUOUS
 10
121.4712796979
 20
116.1411431893
 11
121.4712796979
 21
112.4071005448
  0
LINE
  5
2CF
100
AcDbEntity
  8
0
100
AcDbLine
 62
7
  6
CONTINUOUS
 10
121.7275557746
 20
155.3702209182
 11
121.7275557746
 21
158.2155203799
  0
LINE
  5
2D0
100
AcDbEntity
  8
0
100
AcDbLine
 62
7
  6
CONTINUOUS
 10
121.9181546979
 20
153.3727859698
 11
121.9181546979
 21
153.0727859698
  0
LINE
  5
2D1
100
AcDbEntity
  8
0
100
AcDbLine
 62
7
  6
CONTINUOUS
 10
121.9181546979
 20
135.9727859698
 11
121.9181546979
 21
142.9727859698
  0
LINE
  5
2D2
100
AcDbEntity
  8
0
100
AcDbLine
 62
7
  6
CONTINUOUS
 10
121.9282483118
 20
74.2727859698
 11
121.9282483118
 21
74.7327859698
  0
LINE
  5
2D3
100
AcDbEntity
  8
0
100
AcDbLine
 62
7
  6
CONTINUOUS
 10
121.9775296979
 20
116.9071005448
 11
121.9775296979
 21
112.4071005448
  0
LINE
  5
2D4
100
AcDbEntity
  8
0
100
AcDbLine
 62
7
  6
CONTINUOUS
 10
122.3244046085
 20
131.853909181
 11
122.3244046085
 21
131.5666749045
  0
LINE
  5
2D5
100
AcDbEntity
  8
0
100
AcDbLine
 62
7
  6
CONTINUOUS
 10
122.3782483118
 20
74.1392851811
 11
122.3782483118
 21
74.7327859698
  0
LINE
  5
2D6
100
AcDbEntity
  8
0
100
AcDbLine
 62
7
  6
CONTINUOUS
 10
122.6525300198
 20
114.9922068878
 11
122.6525300198
 21
114.3219942018
  0
LINE
  5
2D7
100
AcDbEntity
  8
0
100
AcDbLine
 62
7
  6
CONTINUOUS
 10
122.8869046085
 20
131.853909181
 11
122.8869046085
 21
131.470930235
  0
LINE
  5
2D8
100
AcDbEntity
  8
0
100
AcDbLine
 62
7
  6
CONTINUOUS
 10
123.074404376
 20
114.9922068878
 11
123.074404376
 21
114.800717549
  0
LINE
  5
2D9
100
AcDbEntity
  8
0
100
AcDbLine
 62
7
  6
CONTINUOUS
 10
123.1587800198
 20
114.0347600594
 11
123.1587800198
 21
113.747526051
  0
LINE
  5
2DA
100
AcDbEntity
  8
0
100
AcDbLine
 62
7
  6
CONTINUOUS
 10
123.1681546979
 20
72.0327859698
 11
123.1681546979
 21
76.5327859698
  0
LINE
  5
2DB
100
AcDbEntity
  8
0
100
AcDbLine
 62
7
  6
CONTINUOUS
 10
123.6181546979
 20
71.5827859698
 11
123.6181546979
 21
76.9827859698
  0
LINE
  5
2DC
100
AcDbEntity
  8
0
100
AcDbLine
 62
7
  6
CONTINUOUS
 10
124.0369568514
 20
155.3702209182
 11
124.0369568514
 21
158.2155203799
  0
LINE
  5
2DD
100
AcDbEntity
  8
0
100
AcDbLine
 62
7
  6
CONTINUOUS
 10
124.1282052042
 20
59.5727859698
 11
124.1282052042
 21
86.7952895972
  0
LINE
  5
2DE
100
AcDbEntity
  8
0
100
AcDbLine
 62
7
  6
CONTINUOUS
 10
124.1806546979
 20
101.470930235
 11
124.1806546979
 21
101.0879515573
  0
LINE
  5
2DF
100
AcDbEntity
  8
0
100
AcDbLine
 62
7
  6
CONTINUOUS
 10
124.6231799511
 20
87.0389571565
 11
124.6231799511
 21
59.3677607166
  0
LINE
  5
2E0
100
AcDbEntity
  8
0
100
AcDbLine
 62
7
  6
CONTINUOUS
 10
124.7431546979
 20
107.4071005448
 11
124.7431546979
 21
106.4496538504
  0
LINE
  5
2E1
100
AcDbEntity
  8
0
100
AcDbLine
 62
7
  6
CONTINUOUS
 10
125.0131294447
 20
58.9778112229
 11
125.0131294447
 21
87.6309856409
  0
LINE
  5
2E2
100
AcDbEntity
  8
0
100
AcDbLine
 62
7
  6
CONTINUOUS
 10
125.1181543403
 20
101.6624195739
 11
125.1181543403
 21
100.8964622184
  0
LINE
  5
2E3
100
AcDbEntity
  8
0
100
AcDbLine
 62
7
  6
CONTINUOUS
 10
125.2681546979
 20
114.0347600594
 11
125.2681546979
 21
113.747526051
  0
LINE
  5
2E4
100
AcDbEntity
  8
0
100
AcDbLine
 62
7
  6
CONTINUOUS
 10
125.4181546979
 20
154.2263758082
 11
125.4181546979
 21
153.5727859698
  0
LINE
  5
2E5
100
AcDbEntity
  8
0
100
AcDbLine
 62
7
  6
CONTINUOUS
 10
125.5081041915
 20
88.2283344864
 11
125.5081041915
 21
58.7727859698
  0
LINE
  5
2E6
100
AcDbEntity
  8
0
100
AcDbLine
 62
7
  6
CONTINUOUS
 10
125.6900300198
 20
114.1305048629
 11
125.6900300198
 21
113.6517813816
  0
LINE
  5
2E7
100
AcDbEntity
  8
0
100
AcDbLine
 62
7
  6
CONTINUOUS
 10
122.7369046979
 20
115.6624195739
 11
122.6525300198
 21
114.9922068878
  0
LINE
  5
2E8
100
AcDbEntity
  8
0
100
AcDbLine
 62
7
  6
CONTINUOUS
 10
123.1587800198
 20
115.5666749045
 11
123.074404376
 21
114.9922068878
  0
LINE
  5
2E9
100
AcDbEntity
  8
0
100
AcDbLine
 62
7
  6
CONTINUOUS
 10
123.2431546979
 20
115.853909181
 11
123.1587800198
 21
115.5666749045
  0
LINE
  5
2EA
100
AcDbEntity
  8
0
100
AcDbLine
 62
7
  6
CONTINUOUS
 10
123.2431546979
 20
114.3219942018
 11
123.1587800198
 21
114.0347600594
  0
LINE
  5
2EB
100
AcDbEntity
  8
0
100
AcDbLine
 62
7
  6
CONTINUOUS
 10
122.9056550198
 20
116.1411431893
 11
122.7369046979
 21
115.6624195739
  0
LINE
  5
2EC
100
AcDbEntity
  8
0
100
AcDbLine
 62
7
  6
CONTINUOUS
 10
132.5018951772
 20
149.4346751243
 11
131.3069025052
 21
146.6307127355
  0
LINE
  5
2ED
100
AcDbEntity
  8
0
100
AcDbLine
 62
7
  6
CONTINUOUS
 10
132.3072893107
 20
148.6179938584
 11
126.9181546979
 21
135.9727859698
  0
LINE
  5
2EE
100
AcDbEntity
  8
0
100
AcDbLine
 62
7
  6
CONTINUOUS
 10
99.8879136864
 20
87.2662148231
 11
99.3099313135
 21
86.2656681496
  0
LINE
  5
2EF
100
AcDbEntity
  8
0
100
AcDbLine
 62
7
  6
CONTINUOUS
 10
100.8555764685
 20
86.3446801756
 11
100.8099319396
 21
86.2656681201
  0
LINE
  5
2F0
100
AcDbEntity
  8
0
100
AcDbLine
 62
7
  6
CONTINUOUS
 10
116.1556546979
 20
115.1836962267
 11
115.9025296979
 21
114.800717549
  0
LINE
  5
2F1
100
AcDbEntity
  8
0
100
AcDbLine
 62
7
  6
CONTINUOUS
 10
140.9823324704
 20
151.401635531
 11
154.2877051218
 21
167.2583611891
  0
LINE
  5
2F2
100
AcDbEntity
  8
0
100
AcDbLine
 62
7
  6
CONTINUOUS
 10
115.6494046979
 20
115.2794408962
 11
115.4806546174
 21
115.0879515573
  0
LINE
  5
2F3
100
AcDbEntity
  8
0
100
AcDbLine
 62
7
  6
CONTINUOUS
 10
118.7181547873
 20
129.2688027039
 11
118.4369047873
 21
129.0773132979
  0
LINE
  5
2F4
100
AcDbEntity
  8
0
100
AcDbLine
 62
7
  6
CONTINUOUS
 10
116.7494047202
 20
132.8113558754
 11
116.3744046755
 21
132.6198665365
  0
LINE
  5
2F5
100
AcDbEntity
  8
0
100
AcDbLine
 62
7
  6
CONTINUOUS
 10
122.5119046979
 20
130.800717549
 11
122.1369047873
 21
130.6092282101
  0
LINE
  5
2F6
100
AcDbEntity
  8
0
100
AcDbLine
 62
7
  6
CONTINUOUS
 10
118.9056546085
 20
128.6943345867
 11
118.5306546979
 21
128.5028452226
  0
LINE
  5
2F7
100
AcDbEntity
  8
GEOM
100
AcDbLine
 62
7
  6
CONTINUOUS
 10
132.3402630278
 20
79.3947931358
 11
132.5917948793
 21
79.4504555001
  0
LINE
  5
2F8
100
AcDbEntity
  8
0
100
AcDbLine
 62
7
  6
CONTINUOUS
 10
141.5039411355
 20
85.7727859698
 11
138.9181546979
 21
85.7727859698
  0
LINE
  5
2F9
100
AcDbEntity
  8
0
100
AcDbLine
 62
7
  6
CONTINUOUS
 10
148.1681550544
 20
86.272785963
 11
148.0263780531
 21
86.272785963
  0
LINE
  5
2FA
100
AcDbEntity
  8
0
100
AcDbLine
 62
7
  6
CONTINUOUS
 10
146.6681545828
 20
86.272785937
 11
146.5263775903
 21
86.272785937
  0
LINE
  5
2FB
100
AcDbEntity
  8
0
100
AcDbLine
 62
7
  6
CONTINUOUS
 10
145.1681545058
 20
86.2727859568
 11
145.026377496
 21
86.2727859568
  0
LINE
  5
2FC
100
AcDbEntity
  8
0
100
AcDbLine
 62
7
  6
CONTINUOUS
 10
143.6681549996
 20
86.2727859539
 11
143.5263780041
 21
86.2727859539
  0
LINE
  5
2FD
100
AcDbEntity
  8
0
100
AcDbLine
 62
7
  6
CONTINUOUS
 10
109.7897275731
 20
86.2727859698
 11
101.1252614791
 21
86.2727859698
  0
LINE
  5
2FE
100
AcDbEntity
  8
0
100
AcDbLine
 62
7
  6
CONTINUOUS
 10
100.8181549454
 20
86.2727859296
 11
100.6681549454
 21
86.2727859296
  0
LINE
  5
2FF
100
AcDbEntity
  8
0
100
AcDbLine
 62
7
  6
CONTINUOUS
 10
99.3181543152
 20
86.2727859556
 11
99.1681543152
 21
86.2727859556
  0
LINE
  5
300
100
AcDbEntity
  8
0
100
AcDbLine
 62
7
  6
CONTINUOUS
 10
97.818154992
 20
86.2727859482
 11
97.668154992
 21
86.2727859482
  0
LINE
  5
301
100
AcDbEntity
  8
0
100
AcDbLine
 62
7
  6
CONTINUOUS
 10
96.3181547853
 20
86.2727859329
 11
96.1681547853
 21
86.2727859329
  0
LINE
  5
302
100
AcDbEntity
  8
0
100
AcDbLine
 62
7
  6
CONTINUOUS
 10
94.8181543026
 20
86.2727859624
 11
94.6681543026
 21
86.2727859624
  0
LINE
  5
303
100
AcDbEntity
  8
0
100
AcDbLine
 62
7
  6
CONTINUOUS
 10
95.3955045766
 20
87.2727859698
 11
95.5908044931
 21
87.2727859698
  0
LINE
  5
304
100
AcDbEntity
  8
0
100
AcDbLine
 62
7
  6
CONTINUOUS
 10
96.8955050777
 20
87.2727859698
 11
97.0908047091
 21
87.2727859698
  0
LINE
  5
305
100
AcDbEntity
  8
0
100
AcDbLine
 62
7
  6
CONTINUOUS
 10
98.3955052745
 20
87.2727859698
 11
98.5908040372
 21
87.2727859698
  0
LINE
  5
306
100
AcDbEntity
  8
0
100
AcDbLine
 62
7
  6
CONTINUOUS
 10
99.8955045934
 20
87.2727859698
 11
99.9181546979
 21
87.2727859698
  0
LINE
  5
307
100
AcDbEntity
  8
0
100
AcDbLine
 62
7
  6
CONTINUOUS
 10
144.2455052786
 20
87.2727859698
 11
144.4408042287
 21
87.2727859698
  0
LINE
  5
308
100
AcDbEntity
  8
0
100
AcDbLine
 62
7
  6
CONTINUOUS
 10
145.7455047833
 20
87.2727859698
 11
145.9408042931
 21
87.2727859698
  0
LINE
  5
309
100
AcDbEntity
  8
0
100
AcDbLine
 62
7
  6
CONTINUOUS
 10
147.2455048724
 20
87.2727859698
 11
147.4408047807
 21
87.2727859698
  0
LINE
  5
30A
100
AcDbEntity
  8
GEOM
100
AcDbLine
 62
7
  6
CONTINUOUS
 10
132.5917948794
 20
87.8334461415
 11
137.2603541287
 21
87.8334461415
  0
LINE
  5
30B
100
AcDbEntity
  8
GEOM
100
AcDbLine
 62
7
  6
CONTINUOUS
 10
132.5917948794
 20
88.2727859698
 11
137.8030960181
 21
88.2727859698
  0
LINE
  5
30C
100
AcDbEntity
  8
0
100
AcDbLine
 62
7
  6
CONTINUOUS
 10
143.1204520935
 20
86.9683584476
 11
143.1155269388
 21
86.9701582106
  0
LINE
  5
30D
100
AcDbEntity
  8
0
100
AcDbLine
 62
7
  6
CONTINUOUS
 10
120.2431546979
 20
98.5985899005
 11
119.3056545191
 21
99.1730579674
  0
LINE
  5
30E
100
AcDbEntity
  8
0
100
AcDbLine
 62
7
  6
CONTINUOUS
 10
120.4306545191
 20
99.5560367122
 11
119.8681545191
 21
99.9390153899
  0
LINE
  5
30F
100
AcDbEntity
  8
0
100
AcDbLine
 62
7
  6
CONTINUOUS
 10
123.6181546979
 20
102.6198665365
 11
123.0556546979
 21
103.0028452143
  0
LINE
  5
310
100
AcDbEntity
  8
0
100
AcDbLine
 62
7
  6
CONTINUOUS
 10
144.4483951247
 20
87.2662148313
 11
144.4408042287
 21
87.2727859698
  0
LINE
  5
311
100
AcDbEntity
  8
0
100
AcDbLine
 62
7
  6
CONTINUOUS
 10
115.6494046979
 20
116.1411431893
 11
115.4806546174
 21
116.3326325282
  0
LINE
  5
312
100
AcDbEntity
  8
0
100
AcDbLine
 62
7
  6
CONTINUOUS
 10
124.7431546979
 20
102.6198665365
 11
124.1806546979
 21
103.385823892
  0
LINE
  5
313
100
AcDbEntity
  8
0
100
AcDbLine
 62
7
  6
CONTINUOUS
 10
116.1556546979
 20
116.1411431893
 11
115.9025296979
 21
116.5241218671
  0
LINE
  5
314
100
AcDbEntity
  8
0
100
AcDbLine
 62
7
  6
CONTINUOUS
 10
123.9931543403
 20
102.0453985199
 11
123.6181546979
 21
102.6198665365
  0
LINE
  5
315
100
AcDbEntity
  8
0
100
AcDbLine
 62
7
  6
CONTINUOUS
 10
147.4099319108
 20
62.2799038017
 11
147.9623640957
 21
61.3235889072
  0
LINE
  5
316
100
AcDbEntity
  8
0
100
AcDbLine
 62
7
  6
CONTINUOUS
 10
117.6744046979
 20
116.9071005448
 11
119.7837798588
 21
113.0773132979
  0
LINE
  5
317
100
AcDbEntity
  8
0
100
AcDbLine
 62
7
  6
CONTINUOUS
 10
119.5306548588
 20
112.4071005448
 11
117.4212796979
 21
116.3326325282
  0
LINE
  5
318
100
AcDbEntity
  8
0
100
AcDbLine
 62
7
  6
CONTINUOUS
 10
115.9994046979
 20
129.0773132979
 11
115.8119047007
 21
129.4602920427
  0
LINE
  5
319
100
AcDbEntity
  8
0
100
AcDbLine
 62
7
  6
CONTINUOUS
 10
125.1181543403
 20
101.6624195739
 11
124.7431546979
 21
102.6198665365
  0
LINE
  5
31A
100
AcDbEntity
  8
0
100
AcDbLine
 62
7
  6
CONTINUOUS
 10
122.9056550198
 20
113.1730579674
 11
122.7369046979
 21
113.6517813816
  0
LINE
  5
31B
100
AcDbEntity
  8
0
100
AcDbLine
 62
7
  6
CONTINUOUS
 10
124.1806546979
 20
101.470930235
 11
123.9931543403
 21
102.0453985199
  0
LINE
  5
31C
100
AcDbEntity
  8
0
100
AcDbLine
 62
7
  6
CONTINUOUS
 10
118.8119046979
 20
131.7581642433
 11
118.7181547873
 21
132.0453985199
  0
LINE
  5
31D
100
AcDbEntity
  8
0
100
AcDbLine
 62
7
  6
CONTINUOUS
 10
123.2431546979
 20
113.4602920427
 11
123.1587800198
 21
113.747526051
  0
LINE
  5
31E
100
AcDbEntity
  8
0
100
AcDbLine
 62
7
  6
CONTINUOUS
 10
125.2681546979
 20
114.0347600594
 11
125.1837800198
 21
114.3219942018
  0
LINE
  5
31F
100
AcDbEntity
  8
0
100
AcDbLine
 62
7
  6
CONTINUOUS
 10
114.5640527316
 20
153.5727859698
 11
114.6148731396
 21
153.3727859698
  0
LINE
  5
320
100
AcDbEntity
  8
0
100
AcDbLine
 62
7
  6
CONTINUOUS
 10
116.3744046755
 20
129.5560367122
 11
116.2806546979
 21
129.9390153899
  0
LINE
  5
321
100
AcDbEntity
  8
0
100
AcDbLine
 62
7
  6
CONTINUOUS
 10
119.3744046979
 20
131.7581642433
 11
119.2806547873
 21
132.2368878588
  0
LINE
  5
322
100
AcDbEntity
  8
0
100
AcDbLine
 62
7
  6
CONTINUOUS
 10
122.7369046979
 20
113.6517813816
 11
122.6525300198
 21
114.3219942018
  0
LINE
  5
323
100
AcDbEntity
  8
0
100
AcDbLine
 62
7
  6
CONTINUOUS
 10
132.5249863423
 20
88.551694687
 11
132.498018222
 21
88.8599417125
  0
LINE
  5
324
100
AcDbEntity
  8
0
100
AcDbLine
 62
7
  6
CONTINUOUS
 10
128.1681546979
 20
136.4071005448
 11
128.1681546979
 21
90.2727859698
  0
LINE
  5
325
100
AcDbEntity
  8
0
100
AcDbLine
 62
7
  6
CONTINUOUS
 10
128.9181546979
 20
140.6656388292
 11
128.9181546979
 21
137.4884713947
  0
LINE
  5
326
100
AcDbEntity
  8
0
100
AcDbLine
 62
7
  6
CONTINUOUS
 10
130.9181546979
 20
58.7727859698
 11
130.9181546979
 21
89.7727859698
  0
LINE
  5
327
100
AcDbEntity
  8
0
100
AcDbLine
 62
7
  6
CONTINUOUS
 10
131.3069025052
 20
149.9727859698
 11
131.3069025052
 21
146.6307127355
  0
LINE
  5
328
100
AcDbEntity
  8
0
100
AcDbLine
 62
7
  6
CONTINUOUS
 10
125.2681546979
 20
113.747526051
 11
125.1837800198
 21
113.4602920427
  0
LINE
  5
329
100
AcDbEntity
  8
0
100
AcDbLine
 62
7
  6
CONTINUOUS
 10
124.1806546979
 20
101.0879515573
 11
123.9931543403
 21
100.5134835407
  0
LINE
  5
32A
100
AcDbEntity
  8
0
100
AcDbLine
 62
7
  6
CONTINUOUS
 10
125.6900300198
 20
113.6517813816
 11
125.5212796979
 21
113.1730579674
  0
LINE
  5
32B
100
AcDbEntity
  8
0
100
AcDbLine
 62
7
  6
CONTINUOUS
 10
94.8739452682
 20
61.3235889373
 11
95.4263774359
 21
62.2799038019
  0
LINE
  5
32C
100
AcDbEntity
  8
0
100
AcDbLine
 62
7
  6
CONTINUOUS
 10
96.3483956844
 20
61.2793571167
 11
96.9263780735
 21
62.279903816
  0
LINE
  5
32D
100
AcDbEntity
  8
0
100
AcDbLine
 62
7
  6
CONTINUOUS
 10
123.4119050198
 20
116.1411431893
 11
123.2431546979
 21
115.853909181
  0
LINE
  5
32E
100
AcDbEntity
  8
0
100
AcDbLine
 62
7
  6
CONTINUOUS
 10
125.1837800198
 20
113.4602920427
 11
125.0150296979
 21
113.1730579674
  0
LINE
  5
32F
100
AcDbEntity
  8
0
100
AcDbLine
 62
7
  6
CONTINUOUS
 10
123.1587800198
 20
116.5241218671
 11
122.9056550198
 21
116.1411431893
  0
LINE
  5
330
100
AcDbEntity
  8
0
100
AcDbLine
 62
7
  6
CONTINUOUS
 10
125.5212796979
 20
113.1730579674
 11
125.2681546979
 21
112.7900792561
  0
LINE
  5
331
100
AcDbEntity
  8
0
100
AcDbLine
 62
7
  6
CONTINUOUS
 10
121.4712796979
 20
116.9071005448
 11
120.9650296979
 21
116.2368878588
  0
LINE
  5
332
100
AcDbEntity
  8
0
100
AcDbLine
 62
7
  6
CONTINUOUS
 10
121.4712796979
 20
116.1411431893
 11
120.9650296979
 21
115.470930235
  0
LINE
  5
333
100
AcDbEntity
  8
0
100
AcDbLine
 62
7
  6
CONTINUOUS
 10
115.7431546979
 20
107.4071005448
 11
114.6181546979
 21
106.0666751727
  0
LINE
  5
334
100
AcDbEntity
  8
0
100
AcDbLine
 62
7
  6
CONTINUOUS
 10
115.7431546979
 20
105.8751858338
 11
114.6181546979
 21
104.5347599252
  0
LINE
  5
335
100
AcDbEntity
  8
0
100
AcDbLine
 62
7
  6
CONTINUOUS
 10
115.9025296979
 20
114.800717549
 11
115.5650297784
 21
114.5134835407
  0
LINE
  5
336
100
AcDbEntity
  8
0
100
AcDbLine
 62
7
  6
CONTINUOUS
 10
122.0431546085
 20
131.0879515573
 11
121.7619046085
 21
130.9922068878
  0
LINE
  5
337
100
AcDbEntity
  8
0
100
AcDbLine
 62
7
  6
CONTINUOUS
 10
131.5018235239
 20
89.7727859698
 11
128.6681546979
 21
89.7727859698
  0
LINE
  5
338
100
AcDbEntity
  8
0
100
AcDbLine
 62
7
  6
CONTINUOUS
 10
121.1806548767
 20
98.4071005448
 11
120.2431546979
 21
98.5985899005
  0
LINE
  5
339
100
AcDbEntity
  8
0
100
AcDbLine
 62
7
  6
CONTINUOUS
 10
121.1806548767
 20
99.3645473733
 11
120.4306545191
 21
99.5560367122
  0
LINE
  5
33A
100
AcDbEntity
  8
0
100
AcDbLine
 62
7
  6
CONTINUOUS
 10
124.1806546979
 20
103.385823892
 11
123.2431545191
 21
103.9602919086
  0
LINE
  5
33B
100
AcDbEntity
  8
0
100
AcDbLine
 62
7
  6
CONTINUOUS
 10
115.9025296979
 20
116.5241218671
 11
115.5650297784
 21
116.8113558754
  0
LINE
  5
33C
100
AcDbEntity
  8
0
100
AcDbLine
 62
7
  6
CONTINUOUS
 10
145.9483952055
 20
87.2662148171
 11
145.9408042931
 21
87.2727859698
  0
LINE
  5
33D
100
AcDbEntity
  8
0
100
AcDbLine
 62
7
  6
CONTINUOUS
 10
147.4408047729
 20
87.2727859698
 11
147.4483956853
 21
87.2662148241
  0
LINE
  5
33E
100
AcDbEntity
  8
0
100
AcDbLine
 62
7
  6
CONTINUOUS
 10
148.4426739792
 20
86.7482666884
 11
148.9181546979
 21
86.2727859698
  0
LINE
  5
33F
100
AcDbEntity
  8
0
100
AcDbLine
 62
7
  6
CONTINUOUS
 10
125.1837800198
 20
114.3219942018
 11
125.0150296979
 21
114.5134835407
  0
LINE
  5
340
100
AcDbEntity
  8
0
100
AcDbLine
 62
7
  6
CONTINUOUS
 10
123.1587800198
 20
112.7900792561
 11
122.9056550198
 21
113.1730579674
  0
LINE
  5
341
100
AcDbEntity
  8
0
100
AcDbLine
 62
7
  6
CONTINUOUS
 10
125.4369050198
 20
116.1411431893
 11
125.1837800198
 21
116.5241218671
  0
LINE
  5
342
100
AcDbEntity
  8
0
100
AcDbLine
 62
7
  6
CONTINUOUS
 10
116.5619046979
 20
129.2688027039
 11
116.3744046755
 21
129.5560367122
  0
LINE
  5
343
100
AcDbEntity
  8
0
100
AcDbLine
 62
7
  6
CONTINUOUS
 10
123.4119050198
 20
113.1730579674
 11
123.2431546979
 21
113.4602920427
  0
LINE
  5
344
100
AcDbEntity
  8
0
100
AcDbLine
 62
7
  6
CONTINUOUS
 10
125.099404376
 20
115.853909181
 11
124.9306550198
 21
116.1411431893
  0
LINE
  5
345
100
AcDbEntity
  8
0
100
AcDbLine
 62
7
  6
CONTINUOUS
 10
143.5263780041
 20
86.2656681445
 11
143.1204520935
 21
86.9683584476
  0
LINE
  5
346
100
AcDbEntity
  8
0
100
AcDbLine
 62
7
  6
CONTINUOUS
 10
145.026377496
 20
86.2656681596
 11
144.4483951247
 21
87.2662148313
  0
LINE
  5
347
100
AcDbEntity
  8
0
100
AcDbLine
 62
7
  6
CONTINUOUS
 10
113.7118156001
 20
153.5727859698
 11
113.7912246885
 21
153.3727859698
  0
LINE
  5
348
100
AcDbEntity
  8
0
100
AcDbLine
 62
7
  6
CONTINUOUS
 10
122.9806547873
 20
128.4071005448
 11
122.1369047873
 21
130.6092282101
  0
LINE
  5
349
100
AcDbEntity
  8
0
100
AcDbLine
 62
7
  6
CONTINUOUS
 10
122.3244046085
 20
128.4071005448
 11
121.5744046532
 21
130.4177388712
  0
LINE
  5
34A
100
AcDbEntity
  8
0
100
AcDbLine
 62
7
  6
CONTINUOUS
 10
125.6900300198
 20
114.1305048629
 11
125.5212796979
 21
114.6092282101
  0
LINE
  5
34B
100
AcDbEntity
  8
0
100
AcDbLine
 62
7
  6
CONTINUOUS
 10
122.3244046085
 20
131.853909181
 11
122.2306546979
 21
132.1411431893
  0
LINE
  5
34C
100
AcDbEntity
  8
0
100
AcDbLine
 62
7
  6
CONTINUOUS
 10
122.8869046085
 20
131.853909181
 11
122.7931546979
 21
132.1411431893
  0
LINE
  5
34D
100
AcDbEntity
  8
0
100
AcDbLine
 62
7
  6
CONTINUOUS
 10
125.5212796979
 20
115.853909181
 11
125.4369050198
 21
116.1411431893
  0
LINE
  5
34E
100
AcDbEntity
  8
0
100
AcDbLine
 62
7
  6
CONTINUOUS
 10
131.5018235239
 20
89.7727859698
 11
131.5018235239
 21
58.7727859698
  0
LINE
  5
34F
100
AcDbEntity
  8
GEOM
100
AcDbLine
 62
7
  6
CONTINUOUS
 10
132.498018222
 20
88.8599417125
 11
132.498018222
 21
88.5471998206
  0
LINE
  5
350
100
AcDbEntity
  8
GEOM
100
AcDbLine
 62
7
  6
CONTINUOUS
 10
132.498018222
 20
86.490729175
 11
132.498018222
 21
82.2419124273
  0
LINE
  5
351
100
AcDbEntity
  8
GEOM
100
AcDbLine
 62
7
  6
CONTINUOUS
 10
132.498018222
 20
77.2771531041
 11
132.498018222
 21
71.2684188355
  0
LINE
  5
352
100
AcDbEntity
  8
GEOM
100
AcDbLine
 62
7
  6
CONTINUOUS
 10
132.498018222
 20
66.3036595122
 11
132.498018222
 21
62.0548427645
  0
LINE
  5
353
100
AcDbEntity
  8
GEOM
100
AcDbLine
 62
7
  6
CONTINUOUS
 10
132.498018222
 20
59.9983721189
 11
132.498018222
 21
59.685630227
  0
LINE
  5
354
100
AcDbEntity
  8
0
100
AcDbLine
 62
7
  6
CONTINUOUS
 10
133.2950049639
 20
152.9727859698
 11
133.2950049639
 21
149.9727859698
  0
LINE
  5
355
100
AcDbEntity
  8
0
100
AcDbLine
 62
7
  6
CONTINUOUS
 10
133.7617951772
 20
152.9727859698
 11
133.7617951772
 21
149.9727859698
  0
LINE
  5
356
100
AcDbEntity
  8
0
100
AcDbLine
 62
7
  6
CONTINUOUS
 10
125.1181543403
 20
100.8964622184
 11
124.7431546979
 21
99.9390153899
  0
LINE
  5
357
100
AcDbEntity
  8
0
100
AcDbLine
 62
7
  6
CONTINUOUS
 10
97.8483950552
 20
61.279357107
 11
98.4263774197
 21
62.2799037677
  0
LINE
  5
358
100
AcDbEntity
  8
0
100
AcDbLine
 62
7
  6
CONTINUOUS
 10
99.3483952092
 20
61.2793571203
 11
99.9263775928
 21
62.2799038106
  0
LINE
  5
359
100
AcDbEntity
  8
0
100
AcDbLine
 62
7
  6
CONTINUOUS
 10
123.4119050198
 20
114.5134835407
 11
123.2431546979
 21
114.3219942018
  0
LINE
  5
35A
100
AcDbEntity
  8
0
100
AcDbLine
 62
7
  6
CONTINUOUS
 10
93.9181546979
 20
86.2727859698
 11
94.3936353917
 21
86.7482666636
  0
LINE
  5
35B
100
AcDbEntity
  8
0
100
AcDbLine
 62
7
  6
CONTINUOUS
 10
95.3955042982
 20
87.2727859698
 11
95.3879136738
 21
87.2662148268
  0
LINE
  5
35C
100
AcDbEntity
  8
0
100
AcDbLine
 62
7
  6
CONTINUOUS
 10
123.6650300198
 20
116.3326325282
 11
123.4119050198
 21
116.1411431893
  0
LINE
  5
35D
100
AcDbEntity
  8
0
100
AcDbLine
 62
7
  6
CONTINUOUS
 10
123.580654376
 20
115.1836962267
 11
123.074404376
 21
114.800717549
  0
LINE
  5
35E
100
AcDbEntity
  8
0
100
AcDbLine
 62
7
  6
CONTINUOUS
 10
123.6650300198
 20
114.7049728795
 11
123.4119050198
 21
114.5134835407
  0
LINE
  5
35F
100
AcDbEntity
  8
0
100
AcDbLine
 62
7
  6
CONTINUOUS
 10
123.580654376
 20
116.8113558754
 11
123.1587800198
 21
116.5241218671
  0
LINE
  5
360
100
AcDbEntity
  8
0
100
AcDbLine
 62
7
  6
CONTINUOUS
 10
122.3056548767
 20
98.4071005448
 11
121.1806548767
 21
98.4071005448
  0
LINE
  5
361
100
AcDbEntity
  8
0
100
AcDbLine
 62
7
  6
CONTINUOUS
 10
116.8681546979
 20
98.4071005448
 11
115.7431546979
 21
98.4071005448
  0
LINE
  5
362
100
AcDbEntity
  8
0
100
AcDbLine
 62
7
  6
CONTINUOUS
 10
122.3056548767
 20
99.3645473733
 11
121.1806548767
 21
99.3645473733
  0
LINE
  5
363
100
AcDbEntity
  8
0
100
AcDbLine
 62
7
  6
CONTINUOUS
 10
123.2431545191
 20
103.9602919086
 11
122.3056548767
 21
104.1517812475
  0
LINE
  5
364
100
AcDbEntity
  8
0
100
AcDbLine
 62
7
  6
CONTINUOUS
 10
123.0556546979
 20
103.0028452143
 11
122.3056548767
 21
103.1943345531
  0
LINE
  5
365
100
AcDbEntity
  8
0
100
AcDbLine
 62
7
  6
CONTINUOUS
 10
123.580654376
 20
112.5028452226
 11
123.1587800198
 21
112.7900792561
  0
LINE
  5
366
100
AcDbEntity
  8
0
100
AcDbLine
 62
7
  6
CONTINUOUS
 10
125.2681546979
 20
114.8964622184
 11
124.846279376
 21
115.1836962267
  0
LINE
  5
367
100
AcDbEntity
  8
0
100
AcDbLine
 62
7
  6
CONTINUOUS
 10
123.6650300198
 20
112.9815686285
 11
123.4119050198
 21
113.1730579674
  0
LINE
  5
368
100
AcDbEntity
  8
0
100
AcDbLine
 62
7
  6
CONTINUOUS
 10
125.0150296979
 20
114.5134835407
 11
124.7619046979
 21
114.7049728795
  0
LINE
  5
369
100
AcDbEntity
  8
0
100
AcDbLine
 62
7
  6
CONTINUOUS
 10
124.9306550198
 20
116.1411431893
 11
124.6775300198
 21
116.3326325282
  0
LINE
  5
36A
100
AcDbEntity
  8
0
100
AcDbLine
 62
7
  6
CONTINUOUS
 10
116.3744046755
 20
128.6943345867
 11
115.9994046979
 21
129.0773132979
  0
LINE
  5
36B
100
AcDbEntity
  8
0
100
AcDbLine
 62
7
  6
CONTINUOUS
 10
125.2681546979
 20
114.8964622184
 11
125.5212796979
 21
114.6092282101
  0
LINE
  5
36C
100
AcDbEntity
  8
0
100
AcDbLine
 62
7
  6
CONTINUOUS
 10
146.5263775903
 20
86.265668125
 11
145.9483952055
 21
87.2662148171
  0
LINE
  5
36D
100
AcDbEntity
  8
0
100
AcDbLine
 62
7
  6
CONTINUOUS
 10
148.0263780531
 20
86.2656681586
 11
147.4483956853
 21
87.2662148241
  0
LINE
  5
36E
100
AcDbEntity
  8
0
100
AcDbLine
 62
7
  6
CONTINUOUS
 10
113.4181546979
 20
153.5727859698
 11
113.5183793518
 21
153.3727859698
  0
LINE
  5
36F
100
AcDbEntity
  8
GEOM
100
AcDbLine
 62
7
  6
CONTINUOUS
 10
137.9181546979
 20
60.309496238
 11
137.9181546979
 21
88.2357956671
  0
LINE
  5
370
100
AcDbEntity
  8
GEOM
100
AcDbLine
 62
7
  6
CONTINUOUS
 10
138.9181546979
 20
62.7727859698
 11
138.9181546979
 21
85.7727859698
  0
LINE
  5
371
100
AcDbEntity
  8
GEOM
100
AcDbLine
 62
7
  6
CONTINUOUS
 10
141.5039411355
 20
62.7727859698
 11
141.5039411355
 21
85.7727859698
  0
LINE
  5
372
100
AcDbEntity
  8
GEOM
100
AcDbLine
 62
7
  6
CONTINUOUS
 10
142.2110479167
 20
62.4798927509
 11
142.2110479167
 21
86.0656791886
  0
LINE
  5
373
100
AcDbEntity
  8
0
100
AcDbLine
 62
7
  6
CONTINUOUS
 10
132.5241806867
 20
59.9846685674
 11
132.498018222
 21
59.685630227
  0
LINE
  5
374
100
AcDbEntity
  8
0
100
AcDbLine
 62
7
  6
CONTINUOUS
 10
116.6486593786
 20
73.1373154979
 11
116.901182782
 21
73.6329205824
  0
LINE
  5
375
100
AcDbEntity
  8
0
100
AcDbLine
 62
7
  6
CONTINUOUS
 10
116.8363882255
 20
72.7127859698
 11
118.0032015048
 21
75.0027859698
  0
LINE
  5
376
100
AcDbEntity
  8
0
100
AcDbLine
 62
7
  6
CONTINUOUS
 10
117.3414350324
 20
72.7127859698
 11
118.5082483118
 21
75.0027859698
  0
LINE
  5
377
100
AcDbEntity
  8
0
100
AcDbLine
 62
7
  6
CONTINUOUS
 10
123.9931543403
 20
100.5134835407
 11
123.6181546979
 21
99.9390153899
  0
LINE
  5
378
100
AcDbEntity
  8
0
100
AcDbLine
 62
7
  6
CONTINUOUS
 10
124.7431546979
 20
99.9390153899
 11
124.1806546979
 21
99.1730579674
  0
LINE
  5
379
100
AcDbEntity
  8
0
100
AcDbLine
 62
7
  6
CONTINUOUS
 10
125.0150296979
 20
113.1730579674
 11
124.7619046979
 21
112.9815686285
  0
LINE
  5
37A
100
AcDbEntity
  8
0
100
AcDbLine
 62
7
  6
CONTINUOUS
 10
125.2681546979
 20
112.7900792561
 11
124.846279376
 21
112.5028452226
  0
LINE
  5
37B
100
AcDbEntity
  8
0
100
AcDbLine
 62
7
  6
CONTINUOUS
 10
115.4806546174
 20
115.0879515573
 11
115.2275296174
 21
114.9922068878
  0
LINE
  5
37C
100
AcDbEntity
  8
0
100
AcDbLine
 62
7
  6
CONTINUOUS
 10
123.9181550198
 20
116.4283771976
 11
123.6650300198
 21
116.3326325282
  0
LINE
  5
37D
100
AcDbEntity
  8
0
100
AcDbLine
 62
7
  6
CONTINUOUS
 10
123.2431545191
 20
98.5985899005
 11
122.3056548767
 21
98.4071005448
  0
LINE
  5
37E
100
AcDbEntity
  8
0
100
AcDbLine
 62
7
  6
CONTINUOUS
 10
118.3681546085
 20
100.7049728795
 11
119.4931548767
 21
100.7049728795
  0
LINE
  5
37F
100
AcDbEntity
  8
0
100
AcDbLine
 62
7
  6
CONTINUOUS
 10
119.6806546979
 20
102.4283771976
 11
118.3681546085
 21
102.4283771976
  0
LINE
  5
380
100
AcDbEntity
  8
0
100
AcDbLine
 62
7
  6
CONTINUOUS
 10
122.3056548767
 20
103.1943345531
 11
121.1806548767
 21
103.1943345531
  0
LINE
  5
381
100
AcDbEntity
  8
0
100
AcDbLine
 62
7
  6
CONTINUOUS
 10
122.3056548767
 20
104.1517812475
 11
121.1806548767
 21
104.1517812475
  0
LINE
  5
382
100
AcDbEntity
  8
0
100
AcDbLine
 62
7
  6
CONTINUOUS
 10
123.9181550198
 20
112.8858239591
 11
123.6650300198
 21
112.9815686285
  0
LINE
  5
383
100
AcDbEntity
  8
0
100
AcDbLine
 62
7
  6
CONTINUOUS
 10
115.4806546174
 20
116.3326325282
 11
115.2275296174
 21
116.4283771976
  0
LINE
  5
384
100
AcDbEntity
  8
0
100
AcDbLine
 62
7
  6
CONTINUOUS
 10
124.7619046979
 20
114.7049728795
 11
124.5087796979
 21
114.800717549
  0
LINE
  5
385
100
AcDbEntity
  8
0
100
AcDbLine
 62
7
  6
CONTINUOUS
 10
125.1837800198
 20
116.5241218671
 11
124.7619046979
 21
116.8113558754
  0
LINE
  5
386
100
AcDbEntity
  8
0
100
AcDbLine
 62
7
  6
CONTINUOUS
 10
109.6681546979
 20
141.3227859698
 11
109.7767333416
 21
141.214207326
  0
LINE
  5
387
100
AcDbEntity
  8
0
100
AcDbLine
 62
7
  6
CONTINUOUS
 10
119.2806547873
 20
132.2368878588
 11
118.9056546085
 21
132.6198665365
  0
LINE
  5
388
100
AcDbEntity
  8
0
100
AcDbLine
 62
7
  6
CONTINUOUS
 10
122.7931546979
 20
132.1411431893
 11
122.5119046979
 21
132.5241218671
  0
LINE
  5
389
100
AcDbEntity
  8
0
100
AcDbLine
 62
7
  6
CONTINUOUS
 10
142.4181546642
 20
73.0184381613
 11
142.4181546633
 21
80.2727779129
  0
LINE
  5
38A
100
AcDbEntity
  8
0
100
AcDbLine
 62
7
  6
CONTINUOUS
 10
143.4181546979
 20
68.868567685
 11
143.4181546979
 21
61.94919814
  0
LINE
  5
38B
100
AcDbEntity
  8
0
100
AcDbLine
 62
7
  6
CONTINUOUS
 10
120.4306545191
 20
103.0028452143
 11
119.6806546979
 21
102.4283771976
  0
LINE
  5
38C
100
AcDbEntity
  8
0
100
AcDbLine
 62
7
  6
CONTINUOUS
 10
119.3056545191
 20
103.385823892
 11
120.2431546979
 21
103.9602919086
  0
LINE
  5
38D
100
AcDbEntity
  8
0
100
AcDbLine
 62
7
  6
CONTINUOUS
 10
123.9181550198
 20
114.800717549
 11
123.6650300198
 21
114.7049728795
  0
LINE
  5
38E
100
AcDbEntity
  8
0
100
AcDbLine
 62
7
  6
CONTINUOUS
 10
124.7619046979
 20
112.9815686285
 11
124.5087796979
 21
112.8858239591
  0
LINE
  5
38F
100
AcDbEntity
  8
0
100
AcDbLine
 62
7
  6
CONTINUOUS
 10
123.0556546979
 20
99.5560367122
 11
122.3056548767
 21
99.3645473733
  0
LINE
  5
390
100
AcDbEntity
  8
0
100
AcDbLine
 62
7
  6
CONTINUOUS
 10
121.1806548767
 20
104.1517812475
 11
120.2431546979
 21
103.9602919086
  0
LINE
  5
391
100
AcDbEntity
  8
0
100
AcDbLine
 62
7
  6
CONTINUOUS
 10
124.7431546979
 20
106.4496538504
 11
119.3056545191
 21
106.4496538504
  0
LINE
  5
392
100
AcDbEntity
  8
0
100
AcDbLine
 62
7
  6
CONTINUOUS
 10
116.8681546979
 20
107.4071005448
 11
115.7431546979
 21
107.4071005448
  0
LINE
  5
393
100
AcDbEntity
  8
0
100
AcDbLine
 62
7
  6
CONTINUOUS
 10
118.3681546085
 20
107.4071005448
 11
124.7431546979
 21
107.4071005448
  0
LINE
  5
394
100
AcDbEntity
  8
0
100
AcDbLine
 62
7
  6
CONTINUOUS
 10
124.0025296979
 20
112.4071005448
 11
123.580654376
 21
112.5028452226
  0
LINE
  5
395
100
AcDbEntity
  8
0
100
AcDbLine
 62
7
  6
CONTINUOUS
 10
115.5650297784
 20
116.8113558754
 11
115.1431546979
 21
116.9071005448
  0
LINE
  5
396
100
AcDbEntity
  8
0
100
AcDbLine
 62
7
  6
CONTINUOUS
 10
124.4244050198
 20
115.2794408962
 11
124.846279376
 21
115.1836962267
  0
LINE
  5
397
100
AcDbEntity
  8
0
100
AcDbLine
 62
7
  6
CONTINUOUS
 10
124.7619046979
 20
116.8113558754
 11
124.340029376
 21
116.9071005448
  0
LINE
  5
398
100
AcDbEntity
  8
0
100
AcDbLine
 62
7
  6
CONTINUOUS
 10
124.6775300198
 20
116.3326325282
 11
124.4244050198
 21
116.4283771976
  0
LINE
  5
399
100
AcDbEntity
  8
0
100
AcDbLine
 62
7
  6
CONTINUOUS
 10
116.7494047202
 20
128.5028452226
 11
116.3744046755
 21
128.6943345867
  0
LINE
  5
39A
100
AcDbEntity
  8
0
100
AcDbLine
 62
7
  6
CONTINUOUS
 10
105.6681546979
 20
136.7284484025
 11
110.7944800134
 21
133.7687631016
  0
LINE
  5
39B
100
AcDbEntity
  8
0
100
AcDbLine
 62
7
  6
CONTINUOUS
 10
116.8431546979
 20
129.0773132979
 11
116.5619046979
 21
129.2688027039
  0
LINE
  5
39C
100
AcDbEntity
  8
0
100
AcDbLine
 62
7
  6
CONTINUOUS
 10
118.7181547873
 20
132.0453985199
 11
118.4369047873
 21
132.2368878588
  0
LINE
  5
39D
100
AcDbEntity
  8
0
100
AcDbLine
 62
7
  6
CONTINUOUS
 10
122.5119046979
 20
132.5241218671
 11
122.1369047873
 21
132.8113558754
  0
LINE
  5
39E
100
AcDbEntity
  8
0
100
AcDbLine
 62
7
  6
CONTINUOUS
 10
122.2306546979
 20
132.1411431893
 11
122.0431546085
 21
132.3326325282
  0
LINE
  5
39F
100
AcDbEntity
  8
0
100
AcDbLine
 62
7
  6
CONTINUOUS
 10
147.9181546979
 20
61.9492019509
 11
147.9181546979
 21
68.8685603128
  0
LINE
  5
3A0
100
AcDbEntity
  8
0
100
AcDbLine
 62
7
  6
CONTINUOUS
 10
148.9181546979
 20
62.2727859698
 11
148.9181546979
 21
86.2727859698
  0
LINE
  5
3A1
100
AcDbEntity
  8
0
100
AcDbLine
 62
7
  6
CONTINUOUS
 10
123.6181546979
 20
99.9390153899
 11
123.0556546979
 21
99.5560367122
  0
LINE
  5
3A2
100
AcDbEntity
  8
0
100
AcDbLine
 62
7
  6
CONTINUOUS
 10
124.1806546979
 20
99.1730579674
 11
123.2431545191
 21
98.5985899005
  0
LINE
  5
3A3
100
AcDbEntity
  8
0
100
AcDbLine
 62
7
  6
CONTINUOUS
 10
121.1806548767
 20
103.1943345531
 11
120.4306545191
 21
103.0028452143
  0
LINE
  5
3A4
100
AcDbEntity
  8
0
100
AcDbLine
 62
7
  6
CONTINUOUS
 10
124.4244050198
 20
112.4071005448
 11
124.0025296979
 21
112.4071005448
  0
LINE
  5
3A5
100
AcDbEntity
  8
0
100
AcDbLine
 62
7
  6
CONTINUOUS
 10
121.9775296979
 20
112.4071005448
 11
121.4712796979
 21
112.4071005448
  0
LINE
  5
3A6
100
AcDbEntity
  8
0
100
AcDbLine
 62
7
  6
CONTINUOUS
 10
120.2900298588
 20
112.4071005448
 11
119.5306548588
 21
112.4071005448
  0
LINE
  5
3A7
100
AcDbEntity
  8
0
100
AcDbLine
 62
7
  6
CONTINUOUS
 10
117.4212796979
 20
112.4071005448
 11
116.9150296979
 21
112.4071005448
  0
LINE
  5
3A8
100
AcDbEntity
  8
0
100
AcDbLine
 62
7
  6
CONTINUOUS
 10
113.6244046979
 20
112.4071005448
 11
113.1181546979
 21
112.4071005448
  0
LINE
  5
3A9
100
AcDbEntity
  8
0
100
AcDbLine
 62
7
  6
CONTINUOUS
 10
124.5087796979
 20
112.8858239591
 11
123.9181550198
 21
112.8858239591
  0
LINE
  5
3AA
100
AcDbEntity
  8
0
100
AcDbLine
 62
7
  6
CONTINUOUS
 10
115.1431546979
 20
114.4177388712
 11
113.6244046979
 21
114.4177388712
  0
LINE
  5
3AB
100
AcDbEntity
  8
0
100
AcDbLine
 62
7
  6
CONTINUOUS
 10
124.5087796979
 20
114.800717549
 11
123.9181550198
 21
114.800717549
  0
LINE
  5
3AC
100
AcDbEntity
  8
0
100
AcDbLine
 62
7
  6
CONTINUOUS
 10
115.2275296174
 20
114.9922068878
 11
113.6244046979
 21
114.9922068878
  0
LINE
  5
3AD
100
AcDbEntity
  8
0
100
AcDbLine
 62
7
  6
CONTINUOUS
 10
124.4244050198
 20
115.2794408962
 11
124.0025296979
 21
115.2794408962
  0
LINE
  5
3AE
100
AcDbEntity
  8
0
100
AcDbLine
 62
7
  6
CONTINUOUS
 10
125.5212796979
 20
115.853909181
 11
125.099404376
 21
115.853909181
  0
LINE
  5
3AF
100
AcDbEntity
  8
0
100
AcDbLine
 62
7
  6
CONTINUOUS
 10
118.9056546085
 20
132.6198665365
 11
118.5306546979
 21
132.8113558754
  0
LINE
  5
3B0
100
AcDbEntity
  8
0
100
AcDbLine
 62
7
  6
CONTINUOUS
 10
105.9181546979
 20
137.1614611044
 11
110.8851306149
 21
134.2937762216
  0
LINE
  5
3B1
100
AcDbEntity
  8
0
100
AcDbLine
 62
7
  6
CONTINUOUS
 10
121.9181546979
 20
142.9727859698
 11
115.3905490949
 21
149.9727859698
  0
LINE
  5
3B2
100
AcDbEntity
  8
0
100
AcDbLine
 62
7
  6
CONTINUOUS
 10
116.9375414431
 20
149.0218397798
 11
116.0507697748
 21
149.9727859698
  0
LINE
  5
3B3
100
AcDbEntity
  8
0
100
AcDbLine
 62
7
  6
CONTINUOUS
 10
153.9181546979
 20
168.3094610117
 11
153.9181546979
 21
170.6361109278
  0
LINE
  5
3B4
100
AcDbEntity
  8
0
100
AcDbLine
 62
7
  6
CONTINUOUS
 10
153.9181546979
 20
170.9727859698
 11
153.9181546979
 21
171.1727859698
  0
LINE
  5
3B5
100
AcDbEntity
  8
0
100
AcDbLine
 62
7
  6
CONTINUOUS
 10
155.2181546979
 20
166.4727859698
 11
155.2181546979
 21
172.4727859698
  0
LINE
  5
3B6
100
AcDbEntity
  8
0
100
AcDbLine
 62
7
  6
CONTINUOUS
 10
156.1156184674
 20
172.4727859698
 11
156.1156184674
 21
172.5727859698
  0
LINE
  5
3B7
100
AcDbEntity
  8
0
100
AcDbLine
 62
7
  6
CONTINUOUS
 10
157.5648937635
 20
172.4727859698
 11
157.5648937635
 21
172.5727859698
  0
LINE
  5
3B8
100
AcDbEntity
  8
0
100
AcDbLine
 62
7
  6
CONTINUOUS
 10
158.4344590716
 20
172.4727859698
 11
158.4344590716
 21
172.5727859698
  0
LINE
  5
3B9
100
AcDbEntity
  8
0
100
AcDbLine
 62
7
  6
CONTINUOUS
 10
100.7717080885
 20
62.1263393604
 11
100.3792762316
 21
61.7339075035
  0
LINE
  5
3BA
100
AcDbEntity
  8
0
100
AcDbLine
 62
7
  6
CONTINUOUS
 10
124.846279376
 20
112.5028452226
 11
124.4244050198
 21
112.4071005448
  0
LINE
  5
3BB
100
AcDbEntity
  8
0
100
AcDbLine
 62
7
  6
CONTINUOUS
 10
124.0025296979
 20
115.2794408962
 11
123.580654376
 21
115.1836962267
  0
LINE
  5
3BC
100
AcDbEntity
  8
0
100
AcDbLine
 62
7
  6
CONTINUOUS
 10
124.4244050198
 20
116.4283771976
 11
123.9181550198
 21
116.4283771976
  0
LINE
  5
3BD
100
AcDbEntity
  8
0
100
AcDbLine
 62
7
  6
CONTINUOUS
 10
115.2275296174
 20
116.4283771976
 11
113.6244046979
 21
116.4283771976
  0
LINE
  5
3BE
100
AcDbEntity
  8
0
100
AcDbLine
 62
7
  6
CONTINUOUS
 10
124.340029376
 20
116.9071005448
 11
124.0025296979
 21
116.9071005448
  0
LINE
  5
3BF
100
AcDbEntity
  8
0
100
AcDbLine
 62
7
  6
CONTINUOUS
 10
121.9775296979
 20
116.9071005448
 11
121.4712796979
 21
116.9071005448
  0
LINE
  5
3C0
100
AcDbEntity
  8
0
100
AcDbLine
 62
7
  6
CONTINUOUS
 10
120.2900298588
 20
116.9071005448
 11
119.7837798588
 21
116.9071005448
  0
LINE
  5
3C1
100
AcDbEntity
  8
0
100
AcDbLine
 62
7
  6
CONTINUOUS
 10
117.6744046979
 20
116.9071005448
 11
116.9150296979
 21
116.9071005448
  0
LINE
  5
3C2
100
AcDbEntity
  8
0
100
AcDbLine
 62
7
  6
CONTINUOUS
 10
115.1431546979
 20
116.9071005448
 11
113.1181546979
 21
116.9071005448
  0
LINE
  5
3C3
100
AcDbEntity
  8
0
100
AcDbLine
 62
7
  6
CONTINUOUS
 10
117.2181547426
 20
128.4071005448
 11
116.7494047202
 21
128.5028452226
  0
LINE
  5
3C4
100
AcDbEntity
  8
0
100
AcDbLine
 62
7
  6
CONTINUOUS
 10
117.2181547426
 20
128.9815686285
 11
116.8431546979
 21
129.0773132979
  0
LINE
  5
3C5
100
AcDbEntity
  8
0
100
AcDbLine
 62
7
  6
CONTINUOUS
 10
122.0431546085
 20
132.3326325282
 11
121.7619046085
 21
132.4283771976
  0
LWPOLYLINE
  5
3C6
100
AcDbEntity
  8
0
100
AcDbPolyline
 62
7
  6
CONTINUOUS
 90
16
 70
0
 10
112.0758590127
 20
145.4895779709
 10
112.078413265
 20
145.4880947188
 10
112.0824057115
 20
145.485363608
 10
112.0889205625
 20
145.4799087194
 10
112.0978713396
 20
145.4701298232
 10
112.1070538425
 20
145.4560378612
 10
112.114201519
 20
145.4387974935
 10
112.117993211
 20
145.4180108259
 10
112.1163634983
 20
145.3952906929
 10
112.1100528322
 20
145.3756757809
 10
112.1016844264
 20
145.3606497347
 10
112.0925010656
 20
145.3492220296
 10
112.0842685932
 20
145.3416424622
 10
112.0787500574
 20
145.3376899657
 10
112.0760092835
 20
145.3360757307
 10
112.0756863731
 20
145.3359042205
  0
LINE
  5
3C7
100
AcDbEntity
  8
0
100
AcDbLine
 62
7
  6
CONTINUOUS
 10
161.8982274346
 20
172.4727859698
 11
161.8982274346
 21
172.5727859698
  0
LINE
  5
3C8
100
AcDbEntity
  8
0
100
AcDbLine
 62
7
  6
CONTINUOUS
 10
162.7822853141
 20
172.4727859698
 11
162.7822853141
 21
172.5727859698
  0
LINE
  5
3C9
100
AcDbEntity
  8
0
100
AcDbLine
 62
7
  6
CONTINUOUS
 10
144.2379143691
 20
87.2662148198
 11
143.6640438919
 21
86.2727859539
  0
LINE
  5
3CA
100
AcDbEntity
  8
0
100
AcDbLine
 62
7
  6
CONTINUOUS
 10
145.7379138867
 20
87.2662148309
 11
145.1640434053
 21
86.2727859568
  0
LINE
  5
3CB
100
AcDbEntity
  8
0
100
AcDbLine
 62
7
  6
CONTINUOUS
 10
147.2379139603
 20
87.2662148175
 11
146.6640434737
 21
86.272785937
  0
LINE
  5
3CC
100
AcDbEntity
  8
0
100
AcDbLine
 62
7
  6
CONTINUOUS
 10
148.4376613607
 20
86.7464350713
 11
148.1640439495
 21
86.272785963
  0
LINE
  5
3CD
100
AcDbEntity
  8
0
100
AcDbLine
 62
7
  6
CONTINUOUS
 10
115.5650297784
 20
114.5134835407
 11
115.1431546979
 21
114.4177388712
  0
LINE
  5
3CE
100
AcDbEntity
  8
0
100
AcDbLine
 62
7
  6
CONTINUOUS
 10
124.0025296979
 20
116.9071005448
 11
123.580654376
 21
116.8113558754
  0
LINE
  5
3CF
100
AcDbEntity
  8
0
100
AcDbLine
 62
7
  6
CONTINUOUS
 10
118.5306546979
 20
132.8113558754
 11
118.0619046085
 21
132.9071005448
  0
LINE
  5
3D0
100
AcDbEntity
  8
0
100
AcDbLine
 62
7
  6
CONTINUOUS
 10
122.1369047873
 20
132.8113558754
 11
121.6681546979
 21
132.9071005448
  0
LINE
  5
3D1
100
AcDbEntity
  8
0
100
AcDbLine
 62
7
  6
CONTINUOUS
 10
118.4369047873
 20
132.2368878588
 11
118.0619046085
 21
132.3326325282
  0
LINE
  5
3D2
100
AcDbEntity
  8
0
100
AcDbLine
 62
7
  6
CONTINUOUS
 10
111.4285618554
 20
145.8270181193
 11
112.07564722
 21
145.489689488
  0
LINE
  5
3D3
100
AcDbEntity
  8
0
100
AcDbLine
 62
7
  6
CONTINUOUS
 10
125.1244937957
 20
153.5727859698
 11
125.3161329152
 21
153.3727859698
  0
LINE
  5
3D4
100
AcDbEntity
  8
0
100
AcDbLine
 62
7
  6
CONTINUOUS
 10
164.3475026898
 20
172.4727859698
 11
164.3475026898
 21
172.5727859698
  0
LINE
  5
3D5
100
AcDbEntity
  8
0
100
AcDbLine
 62
7
  6
CONTINUOUS
 10
165.0268503353
 20
172.4727859698
 11
165.0268503353
 21
172.5727859698
  0
LINE
  5
3D6
100
AcDbEntity
  8
0
100
AcDbLine
 62
7
  6
CONTINUOUS
 10
165.1464155577
 20
172.4727859698
 11
165.1464155577
 21
172.5727859698
  0
LINE
  5
3D7
100
AcDbEntity
  8
0
100
AcDbLine
 62
7
  6
CONTINUOUS
 10
165.3520315714
 20
172.4727859698
 11
165.3520315714
 21
172.5727859698
  0
LINE
  5
3D8
100
AcDbEntity
  8
0
100
AcDbLine
 62
7
  6
CONTINUOUS
 10
166.2007633113
 20
172.4727859698
 11
166.2007633113
 21
172.5727859698
  0
LINE
  5
3D9
100
AcDbEntity
  8
0
100
AcDbLine
 62
7
  6
CONTINUOUS
 10
166.8203285597
 20
172.4727859698
 11
166.8203285597
 21
172.5727859698
  0
LINE
  5
3DA
100
AcDbEntity
  8
0
100
AcDbLine
 62
7
  6
CONTINUOUS
 10
167.4725025408
 20
172.4727859698
 11
167.4725025408
 21
172.5727859698
  0
LINE
  5
3DB
100
AcDbEntity
  8
0
100
AcDbLine
 62
7
  6
CONTINUOUS
 10
168.1246762984
 20
172.4727859698
 11
168.1246762984
 21
172.5727859698
  0
LINE
  5
3DC
100
AcDbEntity
  8
0
100
AcDbLine
 62
7
  6
CONTINUOUS
 10
168.5252315671
 20
172.4727859698
 11
168.5252315671
 21
172.5727859698
  0
LINE
  5
3DD
100
AcDbEntity
  8
0
100
AcDbLine
 62
7
  6
CONTINUOUS
 10
169.4507635646
 20
172.4727859698
 11
169.4507635646
 21
172.5727859698
  0
LINE
  5
3DE
100
AcDbEntity
  8
0
100
AcDbLine
 62
7
  6
CONTINUOUS
 10
143.1155269388
 20
86.9701582106
 11
142.2110479167
 21
86.0656791886
  0
LINE
  5
3DF
100
AcDbEntity
  8
0
100
AcDbLine
 62
7
  6
CONTINUOUS
 10
144.2379143691
 20
87.2662148198
 11
144.2455052786
 21
87.2727859698
  0
LINE
  5
3E0
100
AcDbEntity
  8
0
100
AcDbLine
 62
7
  6
CONTINUOUS
 10
122.9806547873
 20
128.4071005448
 11
122.3244046085
 21
128.4071005448
  0
LINE
  5
3E1
100
AcDbEntity
  8
0
100
AcDbLine
 62
7
  6
CONTINUOUS
 10
119.9806546979
 20
128.4071005448
 11
119.4181546979
 21
128.4071005448
  0
LINE
  5
3E2
100
AcDbEntity
  8
0
100
AcDbLine
 62
7
  6
CONTINUOUS
 10
118.0619046085
 20
128.4071005448
 11
117.2181547426
 21
128.4071005448
  0
LINE
  5
3E3
100
AcDbEntity
  8
0
100
AcDbLine
 62
7
  6
CONTINUOUS
 10
118.0619046085
 20
128.9815686285
 11
117.2181547426
 21
128.9815686285
  0
LINE
  5
3E4
100
AcDbEntity
  8
0
100
AcDbLine
 62
7
  6
CONTINUOUS
 10
119.3744046979
 20
129.5560367122
 11
118.8119046979
 21
129.5560367122
  0
LINE
  5
3E5
100
AcDbEntity
  8
0
100
AcDbLine
 62
7
  6
CONTINUOUS
 10
121.5744046532
 20
130.4177388712
 11
119.9806546979
 21
130.4177388712
  0
LINE
  5
3E6
100
AcDbEntity
  8
0
100
AcDbLine
 62
7
  6
CONTINUOUS
 10
121.7619046085
 20
130.9922068878
 11
119.9806546979
 21
130.9922068878
  0
LINE
  5
3E7
100
AcDbEntity
  8
0
100
AcDbLine
 62
7
  6
CONTINUOUS
 10
119.3744046979
 20
131.7581642433
 11
118.8119046979
 21
131.7581642433
  0
LINE
  5
3E8
100
AcDbEntity
  8
0
100
AcDbLine
 62
7
  6
CONTINUOUS
 10
118.0619046085
 20
132.3326325282
 11
117.2181547426
 21
132.3326325282
  0
LINE
  5
3E9
100
AcDbEntity
  8
0
100
AcDbLine
 62
7
  6
CONTINUOUS
 10
121.7619046085
 20
132.4283771976
 11
119.9806546979
 21
132.4283771976
  0
LINE
  5
3EA
100
AcDbEntity
  8
0
100
AcDbLine
 62
7
  6
CONTINUOUS
 10
113.4181546979
 20
153.5727859698
 11
113.7611182622
 21
153.3727859698
  0
LINE
  5
3EB
100
AcDbEntity
  8
0
100
AcDbLine
 62
7
  6
CONTINUOUS
 10
170.4398938529
 20
172.4727859698
 11
170.4398938529
 21
172.5727859698
  0
LINE
  5
3EC
100
AcDbEntity
  8
0
100
AcDbLine
 62
7
  6
CONTINUOUS
 10
170.450763505
 20
172.4727859698
 11
170.450763505
 21
172.5727859698
  0
LINE
  5
3ED
100
AcDbEntity
  8
0
100
AcDbLine
 62
7
  6
CONTINUOUS
 10
171.0156184674
 20
172.4727859698
 11
171.0156184674
 21
172.5727859698
  0
LINE
  5
3EE
100
AcDbEntity
  8
0
100
AcDbLine
 62
7
  6
CONTINUOUS
 10
171.3746763282
 20
172.4727859698
 11
171.3746763282
 21
172.5727859698
  0
LINE
  5
3EF
100
AcDbEntity
  8
0
100
AcDbLine
 62
7
  6
CONTINUOUS
 10
173.809458714
 20
172.4727859698
 11
173.809458714
 21
172.5727859698
  0
LINE
  5
3F0
100
AcDbEntity
  8
0
100
AcDbLine
 62
7
  6
CONTINUOUS
 10
142.6451622602
 20
62.0527642997
 11
142.7722658061
 21
62.2727859993
  0
LINE
  5
3F1
100
AcDbEntity
  8
0
100
AcDbLine
 62
7
  6
CONTINUOUS
 10
143.6983956344
 20
61.2793571122
 11
144.2722661066
 21
62.272785973
  0
LINE
  5
3F2
100
AcDbEntity
  8
0
100
AcDbLine
 62
7
  6
CONTINUOUS
 10
145.1983949643
 20
61.2793571179
 11
145.7722654522
 21
62.272786003
  0
LINE
  5
3F3
100
AcDbEntity
  8
0
100
AcDbLine
 62
7
  6
CONTINUOUS
 10
146.6983955465
 20
61.2793571215
 11
147.2722660247
 21
62.2727859905
  0
LINE
  5
3F4
100
AcDbEntity
  8
0
100
AcDbLine
 62
7
  6
CONTINUOUS
 10
145.7379138867
 20
87.2662148309
 11
145.7455047833
 21
87.2727859698
  0
LINE
  5
3F5
100
AcDbEntity
  8
0
100
AcDbLine
 62
7
  6
CONTINUOUS
 10
118.4369047873
 20
129.0773132979
 11
118.0619046085
 21
128.9815686285
  0
LINE
  5
3F6
100
AcDbEntity
  8
0
100
AcDbLine
 62
7
  6
CONTINUOUS
 10
118.5306546979
 20
128.5028452226
 11
118.0619046085
 21
128.4071005448
  0
LINE
  5
3F7
100
AcDbEntity
  8
0
100
AcDbLine
 62
7
  6
CONTINUOUS
 10
121.6681546979
 20
132.9071005448
 11
119.4181546979
 21
132.9071005448
  0
LINE
  5
3F8
100
AcDbEntity
  8
0
100
AcDbLine
 62
7
  6
CONTINUOUS
 10
118.0619046085
 20
132.9071005448
 11
117.2181547426
 21
132.9071005448
  0
LINE
  5
3F9
100
AcDbEntity
  8
0
100
AcDbLine
 62
7
  6
CONTINUOUS
 10
110.8851306149
 20
134.2937762216
 11
111.0758127174
 21
134.2937762216
  0
LINE
  5
3FA
100
AcDbEntity
  8
0
100
AcDbLine
 62
7
  6
CONTINUOUS
 10
105.9181546979
 20
135.9727859698
 11
106.9770004247
 21
135.9727859698
  0
LINE
  5
3FB
100
AcDbEntity
  8
0
100
AcDbLine
 62
7
  6
CONTINUOUS
 10
121.9181546979
 20
135.9727859698
 11
126.9181546979
 21
135.9727859698
  0
LINE
  5
3FC
100
AcDbEntity
  8
0
100
AcDbLine
 62
7
  6
CONTINUOUS
 10
128.1681546979
 20
136.4071005448
 11
127.1032508806
 21
136.4071005448
  0
LINE
  5
3FD
100
AcDbEntity
  8
0
100
AcDbLine
 62
7
  6
CONTINUOUS
 10
110.8851306149
 20
136.4071005448
 11
121.9181546979
 21
136.4071005448
  0
LINE
  5
3FE
100
AcDbEntity
  8
0
100
AcDbLine
 62
7
  6
CONTINUOUS
 10
110.9586295211
 20
136.6899432573
 11
121.9181546979
 21
136.6899432573
  0
LINE
  5
3FF
100
AcDbEntity
  8
0
100
AcDbLine
 62
7
  6
CONTINUOUS
 10
127.2237927859
 20
136.6899432573
 11
128.2853119854
 21
136.6899432573
  0
LINE
  5
400
100
AcDbEntity
  8
0
100
AcDbLine
 62
7
  6
CONTINUOUS
 10
105.9181546979
 20
137.1614611044
 11
105.4181546979
 21
137.1614611044
  0
LINE
  5
401
100
AcDbEntity
  8
0
100
AcDbLine
 62
7
  6
CONTINUOUS
 10
128.8009974104
 20
137.2056286822
 11
127.4435675968
 21
137.2056286822
  0
LINE
  5
402
100
AcDbEntity
  8
0
100
AcDbLine
 62
7
  6
CONTINUOUS
 10
121.9181546979
 20
137.2056286822
 11
110.4202315099
 21
137.2056286822
  0
LINE
  5
403
100
AcDbEntity
  8
0
100
AcDbLine
 62
7
  6
CONTINUOUS
 10
128.9181546979
 20
137.4884713947
 11
127.5641095021
 21
137.4884713947
  0
LINE
  5
404
100
AcDbEntity
  8
0
100
AcDbLine
 62
7
  6
CONTINUOUS
 10
110.1015029388
 20
137.4884713947
 11
121.9181546979
 21
137.4884713947
  0
LINE
  5
405
100
AcDbEntity
  8
0
100
AcDbLine
 62
7
  6
CONTINUOUS
 10
124.0369568514
 20
155.3702209182
 11
125.1181546979
 21
154.7459910505
  0
LINE
  5
406
100
AcDbEntity
  8
0
100
AcDbLine
 62
7
  6
CONTINUOUS
 10
175.6898937635
 20
172.4727859698
 11
175.6898937635
 21
172.5727859698
  0
LINE
  5
407
100
AcDbEntity
  8
0
100
AcDbLine
 62
7
  6
CONTINUOUS
 10
175.8094594889
 20
172.4727859698
 11
175.8094594889
 21
172.5727859698
  0
LINE
  5
408
100
AcDbEntity
  8
0
100
AcDbLine
 62
7
  6
CONTINUOUS
 10
176.8156184674
 20
172.4727859698
 11
176.8156184674
 21
172.5727859698
  0
LINE
  5
409
100
AcDbEntity
  8
0
100
AcDbLine
 62
7
  6
CONTINUOUS
 10
177.0051113777
 20
172.4727859698
 11
177.0051113777
 21
172.5727859698
  0
LINE
  5
40A
100
AcDbEntity
  8
0
100
AcDbLine
 62
7
  6
CONTINUOUS
 10
177.5264745095
 20
172.4727859698
 11
177.5264745095
 21
172.5727859698
  0
LINE
  5
40B
100
AcDbEntity
  8
0
100
AcDbLine
 62
7
  6
CONTINUOUS
 10
179.2768503241
 20
172.4727859698
 11
179.2768503241
 21
172.5727859698
  0
LINE
  5
40C
100
AcDbEntity
  8
0
100
AcDbLine
 62
7
  6
CONTINUOUS
 10
148.7681546979
 20
62.2727859698
 11
148.5632508873
 21
61.9178821592
  0
LINE
  5
40D
100
AcDbEntity
  8
0
100
AcDbLine
 62
7
  6
CONTINUOUS
 10
148.4426739792
 20
86.7482666884
 11
148.4376613607
 21
86.7464350713
  0
LINE
  5
40E
100
AcDbEntity
  8
0
100
AcDbLine
 62
7
  6
CONTINUOUS
 10
117.2181547426
 20
132.3326325282
 11
116.8431546979
 21
132.2368878588
  0
LINE
  5
40F
100
AcDbEntity
  8
0
100
AcDbLine
 62
7
  6
CONTINUOUS
 10
117.2181547426
 20
132.9071005448
 11
116.7494047202
 21
132.8113558754
  0
LINE
  5
410
100
AcDbEntity
  8
0
100
AcDbLine
 62
7
  6
CONTINUOUS
 10
105.4181546979
 20
140.3727859698
 11
110.2935988514
 21
140.3727859698
  0
LINE
  5
411
100
AcDbEntity
  8
0
100
AcDbLine
 62
7
  6
CONTINUOUS
 10
109.8419335467
 20
140.8727859698
 11
105.9181546979
 21
140.8727859698
  0
LINE
  5
412
100
AcDbEntity
  8
0
100
AcDbLine
 62
7
  6
CONTINUOUS
 10
121.9181546979
 20
140.9071005448
 11
110.226745168
 21
140.9071005448
  0
LINE
  5
413
100
AcDbEntity
  8
0
100
AcDbLine
 62
7
  6
CONTINUOUS
 10
121.9181546979
 20
141.1899432573
 11
110.0446494746
 21
141.1899432573
  0
LINE
  5
414
100
AcDbEntity
  8
0
100
AcDbLine
 62
7
  6
CONTINUOUS
 10
109.7767333416
 20
141.214207326
 11
109.9803679693
 21
141.214207326
  0
LINE
  5
415
100
AcDbEntity
  8
0
100
AcDbLine
 62
7
  6
CONTINUOUS
 10
109.6681546979
 20
141.3227859698
 11
121.9181546979
 21
141.3227859698
  0
LINE
  5
416
100
AcDbEntity
  8
0
100
AcDbLine
 62
7
  6
CONTINUOUS
 10
105.9181546979
 20
142.9727859698
 11
108.9181546979
 21
142.9727859698
  0
LINE
  5
417
100
AcDbEntity
  8
0
100
AcDbLine
 62
7
  6
CONTINUOUS
 10
124.0369568514
 20
158.2155203799
 11
123.4181546979
 21
158.5727859698
  0
LINE
  5
418
100
AcDbEntity
  8
0
100
AcDbLine
 62
7
  6
CONTINUOUS
 10
180.9507633262
 20
172.4727859698
 11
180.9507633262
 21
172.5727859698
  0
LINE
  5
419
100
AcDbEntity
  8
0
100
AcDbLine
 62
7
  6
CONTINUOUS
 10
181.1156184674
 20
172.4727859698
 11
181.1156184674
 21
172.5727859698
  0
LINE
  5
41A
100
AcDbEntity
  8
0
100
AcDbLine
 62
7
  6
CONTINUOUS
 10
182.2442425303
 20
172.4727859698
 11
182.2442425303
 21
172.5727859698
  0
LINE
  5
41B
100
AcDbEntity
  8
0
100
AcDbLine
 62
7
  6
CONTINUOUS
 10
182.3638064675
 20
172.4727859698
 11
182.3638064675
 21
172.5727859698
  0
LINE
  5
41C
100
AcDbEntity
  8
0
100
AcDbLine
 62
7
  6
CONTINUOUS
 10
183.3746756129
 20
172.4727859698
 11
183.3746756129
 21
172.5727859698
  0
LINE
  5
41D
100
AcDbEntity
  8
0
100
AcDbLine
 62
7
  6
CONTINUOUS
 10
184.8203290515
 20
172.4727859698
 11
184.8203290515
 21
172.5727859698
  0
LINE
  5
41E
100
AcDbEntity
  8
0
100
AcDbLine
 62
7
  6
CONTINUOUS
 10
185.4184385443
 20
172.4727859698
 11
185.4184385443
 21
172.5727859698
  0
LINE
  5
41F
100
AcDbEntity
  8
0
100
AcDbLine
 62
7
  6
CONTINUOUS
 10
185.6029368453
 20
172.4727859698
 11
185.6029368453
 21
172.5727859698
  0
LINE
  5
420
100
AcDbEntity
  8
0
100
AcDbLine
 62
7
  6
CONTINUOUS
 10
94.869118078
 20
61.3218225905
 11
94.8739452682
 21
61.3235889373
  0
LINE
  5
421
100
AcDbEntity
  8
0
100
AcDbLine
 62
7
  6
CONTINUOUS
 10
120.5193820687
 20
144.4727859698
 11
109.6681546979
 21
144.4727859698
  0
LINE
  5
422
100
AcDbEntity
  8
0
100
AcDbLine
 62
7
  6
CONTINUOUS
 10
120.2396275428
 20
144.7727859698
 11
109.9681546979
 21
144.7727859698
  0
LINE
  5
423
100
AcDbEntity
  8
0
100
AcDbLine
 62
7
  6
CONTINUOUS
 10
111.5258010484
 20
145.8727859698
 11
111.4181546979
 21
145.8727859698
  0
LINE
  5
424
100
AcDbEntity
  8
0
100
AcDbLine
 62
7
  6
CONTINUOUS
 10
112.1181546979
 20
146.5727859698
 11
118.5611003878
 21
146.5727859698
  0
LINE
  5
425
100
AcDbEntity
  8
0
100
AcDbLine
 62
7
  6
CONTINUOUS
 10
115.8914431841
 20
153.5727859698
 11
117.4486942284
 21
153.3727859698
  0
LINE
  5
426
100
AcDbEntity
  8
0
100
AcDbLine
 62
7
  6
CONTINUOUS
 10
114.5640527316
 20
153.5727859698
 11
115.8264622667
 21
153.3727859698
  0
LINE
  5
427
100
AcDbEntity
  8
0
100
AcDbLine
 62
7
  6
CONTINUOUS
 10
122.9448662116
 20
153.5727859698
 11
124.0989394056
 21
153.3727859698
  0
LINE
  5
428
100
AcDbEntity
  8
0
100
AcDbLine
 62
7
  6
CONTINUOUS
 10
113.7118156001
 20
153.5727859698
 11
114.555810185
 21
153.3727859698
  0
LINE
  5
429
100
AcDbEntity
  8
0
100
AcDbLine
 62
7
  6
CONTINUOUS
 10
124.2722566641
 20
153.5727859698
 11
124.9797394953
 21
153.3727859698
  0
LINE
  5
42A
100
AcDbEntity
  8
0
100
AcDbLine
 62
7
  6
CONTINUOUS
 10
186.5811974816
 20
172.4727859698
 11
186.5811974816
 21
172.5727859698
  0
LINE
  5
42B
100
AcDbEntity
  8
0
100
AcDbLine
 62
7
  6
CONTINUOUS
 10
147.9671929508
 20
61.3218242227
 11
148.9181546979
 21
62.2727859698
  0
LINE
  5
42C
100
AcDbEntity
  8
0
100
AcDbLine
 62
7
  6
CONTINUOUS
 10
143.6983956344
 20
61.2793571122
 11
143.6908047337
 21
61.2727859698
  0
LINE
  5
42D
100
AcDbEntity
  8
0
100
AcDbLine
 62
7
  6
CONTINUOUS
 10
145.1983949643
 20
61.2793571179
 11
145.190804057
 21
61.2727859698
  0
LINE
  5
42E
100
AcDbEntity
  8
0
100
AcDbLine
 62
7
  6
CONTINUOUS
 10
146.690804635
 20
61.2727859698
 11
146.6983955465
 21
61.2793571215
  0
LINE
  5
42F
100
AcDbEntity
  8
0
100
AcDbLine
 62
7
  6
CONTINUOUS
 10
112.9181546979
 20
149.1397732679
 11
113.3870802652
 21
149.1397732679
  0
LINE
  5
430
100
AcDbEntity
  8
0
100
AcDbLine
 62
7
  6
CONTINUOUS
 10
115.7635551294
 20
149.5727859698
 11
112.9181546979
 21
149.5727859698
  0
LINE
  5
431
100
AcDbEntity
  8
0
100
AcDbLine
 62
7
  6
CONTINUOUS
 10
107.1350367061
 20
149.9727859698
 11
116.0507697748
 21
149.9727859698
  0
LINE
  5
432
100
AcDbEntity
  8
0
100
AcDbLine
 62
7
  6
CONTINUOUS
 10
116.9375414431
 20
149.9727859698
 11
131.3069025052
 21
149.9727859698
  0
LINE
  5
433
100
AcDbEntity
  8
0
100
AcDbLine
 62
7
  6
CONTINUOUS
 10
132.8423586453
 20
149.9727859698
 11
137.9181546979
 21
149.9727859698
  0
LINE
  5
434
100
AcDbEntity
  8
0
100
AcDbLine
 62
7
  6
CONTINUOUS
 10
108.9181546979
 20
152.9727859698
 11
137.9181546979
 21
152.9727859698
  0
LINE
  5
435
100
AcDbEntity
  8
0
100
AcDbLine
 62
7
  6
CONTINUOUS
 10
115.984655702
 20
153.0727859698
 11
122.8516536938
 21
153.0727859698
  0
LINE
  5
436
100
AcDbEntity
  8
0
100
AcDbLine
 62
7
  6
CONTINUOUS
 10
125.3161329152
 20
153.3727859698
 11
120.1281930596
 21
153.3727859698
  0
LINE
  5
437
100
AcDbEntity
  8
0
100
AcDbLine
 62
7
  6
CONTINUOUS
 10
119.3963383591
 20
153.3727859698
 11
119.2637107029
 21
153.3727859698
  0
LINE
  5
438
100
AcDbEntity
  8
0
100
AcDbLine
 62
7
  6
CONTINUOUS
 10
118.6248930569
 20
153.3727859698
 11
113.5183793518
 21
153.3727859698
  0
LINE
  5
439
100
AcDbEntity
  8
0
100
AcDbLine
 62
7
  6
CONTINUOUS
 10
125.4181546979
 20
153.5727859698
 11
113.418154707
 21
153.5727859698
  0
LINE
  5
43A
100
AcDbEntity
  8
0
100
AcDbLine
 62
7
  6
CONTINUOUS
 10
113.4181546979
 20
154.2263758082
 11
125.4181546979
 21
154.2263758082
  0
LINE
  5
43B
100
AcDbEntity
  8
0
100
AcDbLine
 62
7
  6
CONTINUOUS
 10
117.5640527316
 20
153.5727859698
 11
119.2637107029
 21
153.3727859698
  0
LINE
  5
43C
100
AcDbEntity
  8
0
100
AcDbLine
 62
7
  6
CONTINUOUS
 10
119.4181546979
 20
153.5727859698
 11
121.0938452316
 21
153.3727859698
  0
LINE
  5
43D
100
AcDbEntity
  8
0
100
AcDbLine
 62
7
  6
CONTINUOUS
 10
121.2722566641
 20
153.5727859698
 11
122.7599514957
 21
153.3727859698
  0
LINE
  5
43E
100
AcDbEntity
  8
0
100
AcDbLine
 62
7
  6
CONTINUOUS
 10
193.0036944123
 20
172.4727859698
 11
193.0036944123
 21
172.5727859698
  0
LINE
  5
43F
100
AcDbEntity
  8
0
100
AcDbLine
 62
7
  6
CONTINUOUS
 10
193.1677174336
 20
172.4727859698
 11
193.1677174336
 21
172.5727859698
  0
LINE
  5
440
100
AcDbEntity
  8
0
100
AcDbLine
 62
7
  6
CONTINUOUS
 10
193.601617003
 20
172.4727859698
 11
193.601617003
 21
172.5727859698
  0
LINE
  5
441
100
AcDbEntity
  8
0
100
AcDbLine
 62
7
  6
CONTINUOUS
 10
194.0327371814
 20
172.4727859698
 11
194.0327371814
 21
172.5727859698
  0
LINE
  5
442
100
AcDbEntity
  8
0
100
AcDbLine
 62
7
  6
CONTINUOUS
 10
194.1935517793
 20
172.4727859698
 11
194.1935517793
 21
172.5727859698
  0
LINE
  5
443
100
AcDbEntity
  8
0
100
AcDbLine
 62
7
  6
CONTINUOUS
 10
194.3979917889
 20
172.4727859698
 11
194.3979917889
 21
172.5727859698
  0
LINE
  5
444
100
AcDbEntity
  8
0
100
AcDbLine
 62
7
  6
CONTINUOUS
 10
194.4082565598
 20
172.4727859698
 11
194.4082565598
 21
172.5727859698
  0
LINE
  5
445
100
AcDbEntity
  8
0
100
AcDbLine
 62
7
  6
CONTINUOUS
 10
194.6648756843
 20
172.4727859698
 11
194.6648756843
 21
172.5727859698
  0
LINE
  5
446
100
AcDbEntity
  8
0
100
AcDbLine
 62
7
  6
CONTINUOUS
 10
195.2148961167
 20
172.4727859698
 11
195.2148961167
 21
172.5727859698
  0
LINE
  5
447
100
AcDbEntity
  8
0
100
AcDbLine
 62
7
  6
CONTINUOUS
 10
195.2935926442
 20
172.4727859698
 11
195.2935926442
 21
172.5727859698
  0
LINE
  5
448
100
AcDbEntity
  8
0
100
AcDbLine
 62
7
  6
CONTINUOUS
 10
195.4124928455
 20
172.4727859698
 11
195.4124928455
 21
172.5727859698
  0
LINE
  5
449
100
AcDbEntity
  8
0
100
AcDbLine
 62
7
  6
CONTINUOUS
 10
195.4740813212
 20
172.4727859698
 11
195.4740813212
 21
172.5727859698
  0
LINE
  5
44A
100
AcDbEntity
  8
0
100
AcDbLine
 62
7
  6
CONTINUOUS
 10
195.7307004456
 20
172.4727859698
 11
195.7307004456
 21
172.5727859698
  0
LINE
  5
44B
100
AcDbEntity
  8
0
100
AcDbLine
 62
7
  6
CONTINUOUS
 10
196.2807208781
 20
172.4727859698
 11
196.2807208781
 21
172.5727859698
  0
LINE
  5
44C
100
AcDbEntity
  8
0
100
AcDbLine
 62
7
  6
CONTINUOUS
 10
196.3594174056
 20
172.4727859698
 11
196.3594174056
 21
172.5727859698
  0
LINE
  5
44D
100
AcDbEntity
  8
0
100
AcDbLine
 62
7
  6
CONTINUOUS
 10
113.7181546979
 20
154.7459910505
 11
125.1181546979
 21
154.7459910505
  0
LINE
  5
44E
100
AcDbEntity
  8
0
100
AcDbLine
 62
7
  6
CONTINUOUS
 10
115.4182017737
 20
158.5727859698
 11
123.4181076221
 21
158.5727859698
  0
LINE
  5
44F
100
AcDbEntity
  8
0
100
AcDbLine
 62
7
  6
CONTINUOUS
 10
197.5019214083
 20
172.4727859698
 11
197.5019214083
 21
172.5727859698
  0
LINE
  5
450
100
AcDbEntity
  8
0
100
AcDbLine
 62
7
  6
CONTINUOUS
 10
198.9119214083
 20
172.4727859698
 11
198.9119214083
 21
172.5727859698
  0
LINE
  5
451
100
AcDbEntity
  8
0
100
AcDbLine
 62
7
  6
CONTINUOUS
 10
200.8181546979
 20
172.4727859698
 11
200.8181546979
 21
172.5727859698
  0
LINE
  5
452
100
AcDbEntity
  8
0
100
AcDbLine
 62
7
  6
CONTINUOUS
 10
201.4181546979
 20
166.4727859698
 11
201.4181546979
 21
172.4727859698
  0
LINE
  5
453
100
AcDbEntity
  8
0
100
AcDbLine
 62
7
  6
CONTINUOUS
 10
142.6451622602
 20
62.0527642997
 11
142.6400457955
 21
62.0508948721
  0
LINE
  5
454
100
AcDbEntity
  8
0
100
AcDbLine
 62
7
  6
CONTINUOUS
 10
155.2181546979
 20
166.4727859698
 11
208.4181546979
 21
166.4727859698
  0
LINE
  5
455
100
AcDbEntity
  8
0
100
AcDbLine
 62
7
  6
CONTINUOUS
 10
153.9181546979
 20
168.9727859698
 11
210.9181546979
 21
168.9727859698
  0
LINE
  5
456
100
AcDbEntity
  8
0
100
AcDbLine
 62
7
  6
CONTINUOUS
 10
153.9181546979
 20
169.9727859698
 11
210.9181546979
 21
169.9727859698
  0
LINE
  5
457
100
AcDbEntity
  8
0
100
AcDbLine
 62
7
  6
CONTINUOUS
 10
210.9181546979
 20
168.9727859698
 11
210.9181546979
 21
169.9727859698
  0
LINE
  5
458
100
AcDbEntity
  8
0
100
AcDbLine
 62
7
  6
CONTINUOUS
 10
153.9181546979
 20
170.9727859698
 11
153.9359251749
 21
170.9727859698
  0
LINE
  5
459
100
AcDbEntity
  8
0
100
AcDbLine
 62
7
  6
CONTINUOUS
 10
155.2181546979
 20
172.4727859698
 11
208.4181546979
 21
172.4727859698
  0
LINE
  5
45A
100
AcDbEntity
  8
0
100
AcDbLine
 62
7
  6
CONTINUOUS
 10
156.1156184674
 20
172.5727859698
 11
170.4398938529
 21
172.5727859698
  0
LINE
  5
45B
100
AcDbEntity
  8
0
100
AcDbLine
 62
7
  6
CONTINUOUS
 10
170.5230615005
 20
172.5727859698
 11
171.0156184674
 21
172.5727859698
  0
LINE
  5
45C
100
AcDbEntity
  8
0
100
AcDbLine
 62
7
  6
CONTINUOUS
 10
171.3746763282
 20
172.5727859698
 11
176.8156184674
 21
172.5727859698
  0
LINE
  5
45D
100
AcDbEntity
  8
0
100
AcDbLine
 62
7
  6
CONTINUOUS
 10
177.0051113777
 20
172.5727859698
 11
180.9507633262
 21
172.5727859698
  0
LINE
  5
45E
100
AcDbEntity
  8
0
100
AcDbLine
 62
7
  6
CONTINUOUS
 10
181.1156184674
 20
172.5727859698
 11
182.2406184674
 21
172.5727859698
  0
LINE
  5
45F
100
AcDbEntity
  8
0
100
AcDbLine
 62
7
  6
CONTINUOUS
 10
182.2442425303
 20
172.5727859698
 11
182.3625471124
 21
172.5727859698
  0
LINE
  5
460
100
AcDbEntity
  8
0
100
AcDbLine
 62
7
  6
CONTINUOUS
 10
185.6029368453
 20
172.5727859698
 11
186.5811974816
 21
172.5727859698
  0
LINE
  5
461
100
AcDbEntity
  8
0
100
AcDbLine
 62
7
  6
CONTINUOUS
 10
182.3638064675
 20
172.5727859698
 11
185.5979090557
 21
172.5727859698
  0
LINE
  5
462
100
AcDbEntity
  8
0
100
AcDbLine
 62
7
  6
CONTINUOUS
 10
193.0036944123
 20
172.5727859698
 11
194.1935517793
 21
172.5727859698
  0
LINE
  5
463
100
AcDbEntity
  8
0
100
AcDbLine
 62
7
  6
CONTINUOUS
 10
194.4082565598
 20
172.5727859698
 11
195.4124928455
 21
172.5727859698
  0
LINE
  5
464
100
AcDbEntity
  8
0
100
AcDbLine
 62
7
  6
CONTINUOUS
 10
195.4740813212
 20
172.5727859698
 11
196.3594174056
 21
172.5727859698
  0
LINE
  5
465
100
AcDbEntity
  8
0
100
AcDbLine
 62
7
  6
CONTINUOUS
 10
197.5019214083
 20
172.5727859698
 11
200.8181546979
 21
172.5727859698
  0
ARC
  5
466
100
AcDbEntity
  8
GEOM
100
AcDbCircle
 62
7
  6
CONTINUOUS
 10
-32.4299817036
 20
74.2727859698
 40
165.2542687019
100
AcDbArc
 50
358.9564224816
 51
1.0435775184
  0
ARC
  5
467
100
AcDbEntity
  8
GEOM
100
AcDbCircle
 62
7
  6
CONTINUOUS
 10
-32.1380607198
 20
74.2727859698
 40
164.6634893083
100
AcDbArc
 50
358.9545520396
 51
1.0454479604
  0
ARC
  5
468
100
AcDbEntity
  8
GEOM
100
AcDbCircle
 62
7
  6
CONTINUOUS
 10
50.1884813574
 20
64.3732910332
 40
82.6358050377
100
AcDbArc
 50
358.5242317944
 51
1.4757682056
  0
ARC
  5
469
100
AcDbEntity
  8
GEOM
100
AcDbCircle
 62
7
  6
CONTINUOUS
 10
50.1901665729
 20
84.1722809064
 40
82.6341203811
100
AcDbArc
 50
358.5242017013
 51
1.4757982987
  0
ARC
  5
46A
100
AcDbEntity
  8
GEOM
100
AcDbCircle
 62
7
  6
CONTINUOUS
 10
50.1850136886
 20
64.1792511384
 40
82.3404142948
100
AcDbArc
 50
358.5215869658
 51
1.4784130342
  0
ARC
  5
46B
100
AcDbEntity
  8
GEOM
100
AcDbCircle
 62
7
  6
CONTINUOUS
 10
50.1867002924
 20
84.3663208012
 40
82.3387282525
100
AcDbArc
 50
358.5215566858
 51
1.4784433142
  0
ARC
  5
46C
100
AcDbEntity
  8
0
100
AcDbCircle
 62
7
  6
CONTINUOUS
 10
114.1465818226
 20
61.5727859698
 40
2.0
100
AcDbArc
 50
225.0
 51
270.0
  0
ARC
  5
46D
100
AcDbEntity
  8
0
100
AcDbCircle
 62
7
  6
CONTINUOUS
 10
109.7897275731
 20
60.2727859698
 40
2.0
100
AcDbArc
 50
45.0
 51
90.0
  0
ARC
  5
46E
100
AcDbEntity
  8
GEOM
100
AcDbCircle
 62
7
  6
CONTINUOUS
 10
101.1252614791
 20
61.7727859698
 40
0.5
100
AcDbArc
 50
90.0
 51
135.0000000007
  0
ARC
  5
46F
100
AcDbEntity
  8
0
100
AcDbCircle
 62
7
  6
CONTINUOUS
 10
96.3408074287
 20
61.2772157046
 40
0.0044297357
100
AcDbArc
 50
259.4302644077
 51
269.9657041927
  0
ARC
  5
470
100
AcDbEntity
  8
0
100
AcDbCircle
 62
7
  6
CONTINUOUS
 10
109.7897275731
 20
88.2727859698
 40
2.0
100
AcDbArc
 50
270.0
 51
284.6127531981
  0
ARC
  5
471
100
AcDbEntity
  8
GEOM
100
AcDbCircle
 62
7
  6
CONTINUOUS
 10
101.1252614791
 20
86.7727859698
 40
0.5
100
AcDbArc
 50
238.1705741597
 51
270.0
  0
ARC
  5
472
100
AcDbEntity
  8
0
100
AcDbCircle
 62
7
  6
CONTINUOUS
 10
122.1182483118
 20
72.7127859698
 40
1.45
100
AcDbArc
 50
79.6704080716
 51
180.0
  0
ARC
  5
473
100
AcDbEntity
  8
0
100
AcDbCircle
 62
7
  6
CONTINUOUS
 10
121.6582483118
 20
72.8327859698
 40
1.44
100
AcDbArc
 50
90.0
 51
180.0
  0
ARC
  5
474
100
AcDbEntity
  8
GEOM
100
AcDbCircle
 62
7
  6
CONTINUOUS
 10
138.9181546979
 20
61.7727859698
 40
1.0
100
AcDbArc
 50
90.0
 51
180.0
  0
ARC
  5
475
100
AcDbEntity
  8
GEOM
100
AcDbCircle
 62
7
  6
CONTINUOUS
 10
141.5039411355
 20
61.7727859698
 40
1.0
100
AcDbArc
 50
45.0
 51
90.0
  0
ARC
  5
476
100
AcDbEntity
  8
0
100
AcDbCircle
 62
7
  6
CONTINUOUS
 10
131.5018235239
 20
59.7727859698
 40
1.0
100
AcDbArc
 50
270.0
 51
355.0
  0
ARC
  5
477
100
AcDbEntity
  8
0
100
AcDbCircle
 62
7
  6
CONTINUOUS
 10
121.0346648656
 20
73.6762935801
 40
0.95
100
AcDbArc
 50
112.6873055681
 51
149.2476955167
  0
ARC
  5
478
100
AcDbEntity
  8
0
100
AcDbCircle
 62
7
  6
CONTINUOUS
 10
125.5081041915
 20
59.4727859698
 40
0.7
100
AcDbArc
 50
225.0
 51
270.0
  0
ARC
  5
479
100
AcDbEntity
  8
0
100
AcDbCircle
 62
7
  6
CONTINUOUS
 10
124.1282052042
 20
58.8727859698
 40
0.7
100
AcDbArc
 50
45.0
 51
90.0
  0
ARC
  5
47A
100
AcDbEntity
  8
GEOM
100
AcDbCircle
 62
7
  6
CONTINUOUS
 10
132.7969573657
 20
59.9727750868
 40
0.3000330311
100
AcDbArc
 50
111.2873546496
 51
175.1059159647
  0
ARC
  5
47B
100
AcDbEntity
  8
GEOM
100
AcDbCircle
 62
7
  6
CONTINUOUS
 10
132.8242863766
 20
59.9727859698
 40
0.2999999963
100
AcDbArc
 50
90.0000001677
 51
175.0000000002
  0
ARC
  5
47C
100
AcDbEntity
  8
GEOM
100
AcDbCircle
 62
7
  6
CONTINUOUS
 10
137.8026839657
 20
60.4727859698
 40
0.2
100
AcDbArc
 50
270.0
 51
305.2646291606
  0
ARC
  5
47D
100
AcDbEntity
  8
GEOM
100
AcDbCircle
 62
7
  6
CONTINUOUS
 10
138.9181546979
 20
86.7727859698
 40
1.0
100
AcDbArc
 50
180.0
 51
270.0
  0
ARC
  5
47E
100
AcDbEntity
  8
GEOM
100
AcDbCircle
 62
7
  6
CONTINUOUS
 10
141.5039411355
 20
86.7727859698
 40
1.0
100
AcDbArc
 50
270.0
 51
315.0
  0
ARC
  5
47F
100
AcDbEntity
  8
0
100
AcDbCircle
 62
7
  6
CONTINUOUS
 10
131.5018235239
 20
88.7727859698
 40
1.0
100
AcDbArc
 50
5.0
 51
90.0
  0
ARC
  5
480
100
AcDbEntity
  8
0
100
AcDbCircle
 62
7
  6
CONTINUOUS
 10
128.668153694
 20
90.2727852828
 40
0.4999999464
100
AcDbArc
 50
179.9999132779
 51
270.0001049544
  0
ARC
  5
481
100
AcDbEntity
  8
GEOM
100
AcDbCircle
 62
7
  6
CONTINUOUS
 10
132.7969573695
 20
88.5727968567
 40
0.3000330351
100
AcDbArc
 50
184.8940847248
 51
248.7131002786
  0
ARC
  5
482
100
AcDbEntity
  8
GEOM
100
AcDbCircle
 62
7
  6
CONTINUOUS
 10
132.824286968
 20
88.5727859698
 40
0.2999999996
100
AcDbArc
 50
185.0
 51
269.9999999809
  0
ARC
  5
483
100
AcDbEntity
  8
GEOM
100
AcDbCircle
 62
7
  6
CONTINUOUS
 10
137.8022777702
 20
88.0727910558
 40
0.1999949141
100
AcDbArc
 50
54.59169123
 51
89.9428304748
  0
ARC
  5
484
100
AcDbEntity
  8
0
100
AcDbCircle
 62
7
  6
CONTINUOUS
 10
117.9741063003
 20
142.7101762906
 40
10.8916089025
100
AcDbArc
 50
70.4340904744
 51
72.0694843406
  0
ARC
  5
485
100
AcDbEntity
  8
0
100
AcDbCircle
 62
7
  6
CONTINUOUS
 10
120.862201346
 20
142.7101816411
 40
10.8916032733
100
AcDbArc
 50
107.9305155689
 51
109.5659224691
  0
ARC
  5
486
100
AcDbEntity
  8
0
100
AcDbCircle
 62
7
  6
CONTINUOUS
 10
108.9181546979
 20
149.9727859698
 40
3.0
100
AcDbArc
 50
90.0
 51
180.0
  0
ARC
  5
487
100
AcDbEntity
  8
0
100
AcDbCircle
 62
7
  6
CONTINUOUS
 10
105.9181546979
 20
140.3727859698
 40
0.5
100
AcDbArc
 50
90.0
 51
180.0
  0
ARC
  5
488
100
AcDbEntity
  8
0
100
AcDbCircle
 62
7
  6
CONTINUOUS
 10
105.9181546979
 20
137.1614611044
 40
0.5
100
AcDbArc
 50
180.0
 51
240.0
  0
ARC
  5
489
100
AcDbEntity
  8
0
100
AcDbCircle
 62
7
  6
CONTINUOUS
 10
109.4181546979
 20
149.4727859698
 40
0.5
100
AcDbArc
 50
90.0
 51
180.0
  0
ARC
  5
48A
100
AcDbEntity
  8
0
100
AcDbCircle
 62
7
  6
CONTINUOUS
 10
128.5181546979
 20
137.4884713947
 40
0.4
100
AcDbArc
 50
315.0
 51
360.0
  0
ARC
  5
48B
100
AcDbEntity
  8
0
100
AcDbCircle
 62
7
  6
CONTINUOUS
 10
128.5681546979
 20
136.4071005448
 40
0.4
100
AcDbArc
 50
135.0
 51
180.0
  0
ARC
  5
48C
100
AcDbEntity
  8
0
100
AcDbCircle
 62
7
  6
CONTINUOUS
 10
110.6758951036
 20
136.4071087703
 40
0.3999176138
100
AcDbArc
 50
359.9988215406
 51
45.0101376856
  0
ARC
  5
48D
100
AcDbEntity
  8
0
100
AcDbCircle
 62
7
  6
CONTINUOUS
 10
109.7827724244
 20
140.529191895
 40
0.3490456455
100
AcDbArc
 50
63.8717656698
 51
69.1841806933
  0
ARC
  5
48E
100
AcDbEntity
  8
0
100
AcDbCircle
 62
7
  6
CONTINUOUS
 10
109.6353119854
 20
141.0727859698
 40
0.2
100
AcDbArc
 50
270.0
 51
45.0
  0
ARC
  5
48F
100
AcDbEntity
  8
0
100
AcDbCircle
 62
7
  6
CONTINUOUS
 10
110.4681547903
 20
133.7262269493
 40
0.1999999979
100
AcDbArc
 50
0.0000152993
 51
60.0000293412
  0
ARC
  5
490
100
AcDbEntity
  8
0
100
AcDbCircle
 62
7
  6
CONTINUOUS
 10
64.1519835278
 20
159.5001236454
 40
55.5831180101
100
AcDbArc
 50
353.6709999501
 51
353.8783855052
  0
ARC
  5
491
100
AcDbEntity
  8
0
100
AcDbCircle
 62
7
  6
CONTINUOUS
 10
137.9181546979
 20
153.9727859698
 40
4.0
100
AcDbArc
 50
270.0
 51
320.0
  0
ARC
  5
492
100
AcDbEntity
  8
0
100
AcDbCircle
 62
7
  6
CONTINUOUS
 10
137.9181546979
 20
153.9727859698
 40
1.0
100
AcDbArc
 50
270.0
 51
320.0
  0
ARC
  5
493
100
AcDbEntity
  8
0
100
AcDbCircle
 62
7
  6
CONTINUOUS
 10
114.0181546979
 20
154.2263758082
 40
0.6
100
AcDbArc
 50
120.0
 51
180.0
  0
ARC
  5
494
100
AcDbEntity
  8
0
100
AcDbCircle
 62
7
  6
CONTINUOUS
 10
124.8181546979
 20
154.2263758082
 40
0.6
100
AcDbArc
 50
0.0
 51
60.0
  0
ARC
  5
495
100
AcDbEntity
  8
0
100
AcDbCircle
 62
7
  6
CONTINUOUS
 10
334.1270963781
 20
-50.529874598
 40
250.6333466811
100
AcDbArc
 50
146.5474010348
 51
146.7094615307
  0
ARC
  5
496
100
AcDbEntity
  8
0
100
AcDbCircle
 62
7
  6
CONTINUOUS
 10
322.2671942706
 20
-34.5417104167
 40
232.7284604578
100
AcDbArc
 50
148.2452160987
 51
148.4181929697
  0
ARC
  5
497
100
AcDbEntity
  8
0
100
AcDbCircle
 62
7
  6
CONTINUOUS
 10
319.0283466795
 20
354.4626752692
 40
301.1942396632
100
AcDbArc
 50
226.1634648661
 51
226.3052846656
  0
ARC
  5
498
100
AcDbEntity
  8
0
100
AcDbCircle
 62
7
  6
CONTINUOUS
 10
310.1570330033
 20
345.4712512105
 40
288.7602477876
100
AcDbArc
 50
226.1975293718
 51
226.3455562093
  0
ARC
  5
499
100
AcDbEntity
  8
0
100
AcDbCircle
 62
7
  6
CONTINUOUS
 10
155.3534863499
 20
166.9727859698
 40
4.0
100
AcDbArc
 50
111.0331393818
 51
140.0
  0
ARC
  5
49A
100
AcDbEntity
  8
0
100
AcDbCircle
 62
7
  6
CONTINUOUS
 10
157.7735061426
 20
170.6370995463
 40
3.8553515715
100
AcDbArc
 50
179.0238597861
 51
180.0146922186
  0
ARC
  5
49B
100
AcDbEntity
  8
0
100
AcDbCircle
 62
7
  6
CONTINUOUS
 10
208.4181546979
 20
169.9727859698
 40
2.5
100
AcDbArc
 50
0.0
 51
90.0
  0
ARC
  5
49C
100
AcDbEntity
  8
0
100
AcDbCircle
 62
7
  6
CONTINUOUS
 10
208.4181546979
 20
168.9727859698
 40
2.5
100
AcDbArc
 50
270.0
 51
360.0
  0
ARC
  5
49D
100
AcDbEntity
  8
0
100
AcDbCircle
 62
7
  6
CONTINUOUS
 10
155.2181546979
 20
167.7727859698
 40
1.3
100
AcDbArc
 50
212.8904173777
 51
270.0
  0
ARC
  5
49E
100
AcDbEntity
  8
0
100
AcDbCircle
 62
7
  6
CONTINUOUS
 10
155.2181546979
 20
171.1727859698
 40
1.3
100
AcDbArc
 50
90.0
 51
180.0
  0
SPLINE
  5
49F
100
AcDbEntity
  8
0
100
AcDbSpline
 62
7
  6
CONTINUOUS
 70
0
 71
3
 72
9
 73
5
 74
0
 42
0.0000001
 43
0.0000001
 44
0.0000000001
 40
0.0
 40
0.0
 40
0.0
 40
0.0
 40
0.6125601337
 40
1.0
 40
1.0
 40
1.0
 40
1.0
 10
111.4285753392
 20
144.9985551843
 30
0.0
 10
111.4257632588
 20
144.9970902723
 30
0.0
 10
111.4212401497
 20
144.9945796333
 30
0.0
 10
111.4181546979
 20
144.9897136716
 30
0.0
 10
111.4181546979
 20
144.9877081843
 30
0.0
  0
SPLINE
  5
4A0
100
AcDbEntity
  8
0
100
AcDbSpline
 62
7
  6
CONTINUOUS
 70
0
 71
3
 72
9
 73
5
 74
0
 42
0.0000001
 43
0.0000001
 44
0.0000000001
 40
0.0
 40
0.0
 40
0.0
 40
0.0
 40
0.3876155666
 40
1.0
 40
1.0
 40
1.0
 40
1.0
 10
111.4181525445
 20
145.8378659451
 30
0.0
 10
111.4181524615
 20
145.8358604388
 30
0.0
 10
111.4212312003
 20
145.8309943595
 30
0.0
 10
111.425752307
 20
145.8284826118
 30
0.0
 10
111.428561984
 20
145.8270180996
 30
0.0
  0
SPLINE
  5
4A1
100
AcDbEntity
  8
0
100
AcDbSpline
 62
7
  6
CONTINUOUS
 70
0
 71
3
 72
9
 73
5
 74
0
 42
0.0000001
 43
0.0000001
 44
0.0000000001
 40
0.0
 40
0.0
 40
0.0
 40
0.0
 40
0.27918513
 40
1.0
 40
1.0
 40
1.0
 40
1.0
 10
111.5258010484
 20
145.8727859698
 30
0.0
 10
111.5209700372
 20
145.8720006055
 30
0.0
 10
111.5036824272
 20
145.86909298
 30
0.0
 10
111.4864526448
 20
145.8658051628
 30
0.0
 10
111.4741246381
 20
145.8630291034
 30
0.0
  0
SPLINE
  5
4A2
100
AcDbEntity
  8
0
100
AcDbSpline
 62
7
  6
CONTINUOUS
 70
0
 71
3
 72
12
 73
8
 74
0
 42
0.0000001
 43
0.0000001
 44
0.0000000001
 40
0.0
 40
0.0
 40
0.0
 40
0.0
 40
0.3987430043
 40
0.6923398698
 40
0.8011414878
 40
0.8863010623
 40
1.0
 40
1.0
 40
1.0
 40
1.0
 10
111.4741246381
 20
145.8630291034
 30
0.0
 10
111.4659123831
 20
145.861179842
 30
0.0
 10
111.4517206248
 20
145.857630225
 30
0.0
 10
111.4356528572
 20
145.8522944526
 30
0.0
 10
111.4263806432
 20
145.8476455498
 30
0.0
 10
111.4210699459
 20
145.8441172365
 30
0.0
 10
111.4181526439
 20
145.8402662514
 30
0.0
 10
111.4181525445
 20
145.8378659451
 30
0.0
  0
SPLINE
  5
4A3
100
AcDbEntity
  8
0
100
AcDbSpline
 62
7
  6
CONTINUOUS
 70
0
 71
3
 72
25
 73
21
 74
0
 42
0.0000001
 43
0.0000001
 44
0.0000000001
 40
0.0
 40
0.0
 40
0.0
 40
0.0
 40
0.0017355147
 40
0.0039954273
 40
0.0101298215
 40
0.0184381889
 40
0.0289199617
 40
0.0415623734
 40
0.0563393698
 40
0.0921739054
 40
0.1361170882
 40
0.1877850469
 40
0.2467176286
 40
0.312389894
 40
0.3842177326
 40
0.4615579858
 40
0.5437193397
 40
0.6299683644
 40
0.8116107164
 40
1.0
 40
1.0
 40
1.0
 40
1.0
 10
112.0756919549
 20
145.3359042115
 30
0.0
 10
112.0794630718
 20
145.3378676563
 30
0.0
 10
112.0885556593
 20
145.3415799507
 30
0.0
 10
112.1122795301
 20
145.3488928811
 30
0.0
 10
112.1523531089
 20
145.357463855
 30
0.0
 10
112.2126237755
 20
145.3672414446
 30
0.0
 10
112.2890103265
 20
145.3770831545
 30
0.0
 10
112.381331043
 20
145.3870029113
 30
0.0
 10
112.5356431062
 20
145.4012021436
 30
0.0
 10
112.7666556708
 20
145.4184071836
 30
0.0
 10
113.0880677167
 20
145.4381527968
 30
0.0
 10
113.4661510941
 20
145.4579831312
 30
0.0
 10
113.8975246337
 20
145.4778864736
 30
0.0
 10
114.3783305109
 20
145.4978310405
 30
0.0
 10
114.9042650089
 20
145.5178052465
 30
0.0
 10
115.4706202824
 20
145.5378003323
 30
0.0
 10
116.0723243659
 20
145.5578112438
 30
0.0
 10
116.9294485259
 20
145.5849754291
 30
0.0
 10
118.0467382789
 20
145.6184317206
 30
0.0
 10
118.9528578098
 20
145.6446319851
 30
0.0
 10
119.414178417
 20
145.657970764
 30
0.0
  0
SPLINE
  5
4A4
100
AcDbEntity
  8
0
100
AcDbSpline
 62
7
  6
CONTINUOUS
 70
0
 71
3
 72
9
 73
5
 74
0
 42
0.0000001
 43
0.0000001
 44
0.0000000001
 40
0.0
 40
0.0
 40
0.0
 40
0.0
 40
0.2450742424
 40
1.0
 40
1.0
 40
1.0
 40
1.0
 10
117.0795716299
 20
144.7727861538
 30
0.0
 10
117.3314158123
 20
144.7797855967
 30
0.0
 10
118.3590517955
 20
144.8079168967
 30
0.0
 10
119.3867168375
 20
144.8349674696
 30
0.0
 10
120.1625198813
 20
144.8556773621
 30
0.0
  0
SPLINE
  5
4A5
100
AcDbEntity
  8
0
100
AcDbSpline
 62
7
  6
CONTINUOUS
 70
0
 71
3
 72
36
 73
32
 74
0
 42
0.0000001
 43
0.0000001
 44
0.0000000001
 40
0.0
 40
0.0
 40
0.0
 40
0.0
 40
0.0013190121
 40
0.0021850813
 40
0.0025541874
 40
0.0029615564
 40
0.0034582231
 40
0.0040733175
 40
0.0057117824
 40
0.00793804
 40
0.0107729728
 40
0.0142253727
 40
0.0182980202
 40
0.0229913069
 40
0.0342356425
 40
0.0479442419
 40
0.0640865471
 40
0.0826247607
 40
0.1035173243
 40
0.1267108789
 40
0.1521485998
 40
0.1797695052
 40
0.2095023666
 40
0.2750064736
 40
0.3480060886
 40
0.4277721385
 40
0.5135057005
 40
0.604346521
 40
0.699384557
 40
0.7976673603
 40
1.0
 40
1.0
 40
1.0
 40
1.0
 10
112.0756067295
 20
145.4897122151
 30
0.0
 10
112.0727919813
 20
145.4911819675
 30
0.0
 10
112.06826453
 20
145.4938112964
 30
0.0
 10
112.0642041453
 20
145.4990791018
 30
0.0
 10
112.0643507623
 20
145.5031820417
 30
0.0
 10
112.0657750841
 20
145.505971286
 30
0.0
 10
112.0683122788
 20
145.5086457348
 30
0.0
 10
112.0736971355
 20
145.5125391919
 30
0.0
 10
112.0835295604
 20
145.5171303414
 30
0.0
 10
112.0988084174
 20
145.5223087525
 30
0.0
 10
112.1186462877
 20
145.527522666
 30
0.0
 10
112.143031787
 20
145.5327710324
 30
0.0
 10
112.1719747823
 20
145.5380396297
 30
0.0
 10
112.2195623878
 20
145.5455422193
 30
0.0
 10
112.2903572832
 20
145.5546777884
 30
0.0
 10
112.388735998
 20
145.5651642716
 30
0.0
 10
112.5047546516
 20
145.5756905181
 30
0.0
 10
112.6381251019
 20
145.5862502678
 30
0.0
 10
112.7885160721
 20
145.5968274965
 30
0.0
 10
112.9555522251
 20
145.6074205712
 30
0.0
 10
113.1388148799
 20
145.6180242297
 30
0.0
 10
113.3378438267
 20
145.6286351169
 30
0.0
 10
113.6332484081
 20
145.6432690567
 30
0.0
 10
114.0378570856
 20
145.6613524284
 30
0.0
 10
114.5628935249
 20
145.6824617171
 30
0.0
 10
115.1366647067
 20
145.7036006522
 30
0.0
 10
115.753412474
 20
145.7247630779
 30
0.0
 10
116.4069455233
 20
145.745941588
 30
0.0
 10
117.090704097
 20
145.7671317604
 30
0.0
 10
118.0427670352
 20
145.795671056
 30
0.0
 10
118.7661608109
 20
145.8166319572
 30
0.0
 10
119.2530499014
 20
145.830713604
 30
0.0
  0
SPLINE
  5
4A6
100
AcDbEntity
  8
0
100
AcDbSpline
 62
7
  6
CONTINUOUS
 70
0
 71
3
 72
17
 73
13
 74
0
 42
0.0000001
 43
0.0000001
 44
0.0000000001
 40
0.0
 40
0.0
 40
0.0
 40
0.0
 40
0.177173119
 40
0.3482131054
 40
0.5081559881
 40
0.6524037093
 40
0.776852701
 40
0.8780055629
 40
0.9189410942
 40
0.9530608967
 40
0.98014124
 40
1.0
 40
1.0
 40
1.0
 40
1.0
 10
119.0367598863
 20
146.0626438862
 30
0.0
 10
118.5930797224
 20
146.0546974623
 30
0.0
 10
117.7210783889
 20
146.0390637288
 30
0.0
 10
116.4485582628
 20
146.015525849
 30
0.0
 10
115.2585165016
 20
145.9921023516
 30
0.0
 10
114.1851874668
 20
145.9688477291
 30
0.0
 10
113.2591413084
 20
145.9457807849
 30
0.0
 10
112.5918587027
 20
145.9257493963
 30
0.0
 10
112.1508375884
 20
145.9090848294
 30
0.0
 10
111.8952789976
 20
145.8975941697
 30
0.0
 10
111.6925768301
 20
145.8862141524
 30
0.0
 10
111.5753087062
 20
145.8775739404
 30
0.0
 10
111.5258010484
 20
145.8727859698
 30
0.0
  0
SPLINE
  5
4A7
100
AcDbEntity
  8
0
100
AcDbSpline
 62
7
  6
CONTINUOUS
 70
0
 71
3
 72
9
 73
5
 74
0
 42
0.0000001
 43
0.0000001
 44
0.0000000001
 40
0.0
 40
0.0
 40
0.0
 40
0.0
 40
0.2537156503
 40
1.0
 40
1.0
 40
1.0
 40
1.0
 10
119.7203236826
 20
145.3297415635
 30
0.0
 10
119.4832068782
 20
145.3234347645
 30
0.0
 10
118.5486289587
 20
145.2986150622
 30
0.0
 10
117.6140556739
 20
145.2736017628
 30
0.0
 10
116.9166218286
 20
145.2540862405
 30
0.0
  0
SPLINE
  5
4A8
100
AcDbEntity
  8
0
100
AcDbSpline
 62
7
  6
CONTINUOUS
 70
0
 71
3
 72
23
 73
19
 74
0
 42
0.0000001
 43
0.0000001
 44
0.0000000001
 40
0.0
 40
0.0
 40
0.0
 40
0.0
 40
0.2018217975
 40
0.3888552411
 40
0.5568982634
 40
0.6325975968
 40
0.702171269
 40
0.7652273814
 40
0.8214128502
 40
0.87041558
 40
0.9119621818
 40
0.9458303169
 40
0.9598261149
 40
0.9718407652
 40
0.9818637312
 40
0.9898884485
 40
0.9959208781
 40
1.0
 40
1.0
 40
1.0
 40
1.0
 10
116.9166218286
 20
145.2540862405
 30
0.0
 10
116.5469380027
 20
145.2437417856
 30
0.0
 10
115.8346714231
 20
145.2233443445
 30
0.0
 10
114.8146669418
 20
145.1918808018
 30
0.0
 10
114.0257496993
 20
145.1649043212
 30
0.0
 10
113.4520320803
 20
145.1429624844
 30
0.0
 10
113.0706080257
 20
145.1271005843
 30
0.0
 10
112.724974597
 20
145.111263536
 30
0.0
 10
112.4170788447
 20
145.0954576853
 30
0.0
 10
112.1486521721
 20
145.0797085431
 30
0.0
 10
111.9212002248
 20
145.0640215035
 30
0.0
 10
111.7579174116
 20
145.0503538233
 30
0.0
 10
111.6487705667
 20
145.0390871561
 30
0.0
 10
111.5832050387
 20
145.0312122617
 30
0.0
 10
111.5286799556
 20
145.0233746784
 30
0.0
 10
111.4852021071
 20
145.0156331759
 30
0.0
 10
111.452893842
 20
145.0079663252
 30
0.0
 10
111.435204559
 20
145.0020085792
 30
0.0
 10
111.4285753392
 20
144.9985551843
 30
0.0
  0
SPLINE
  5
4A9
100
AcDbEntity
  8
0
100
AcDbSpline
 62
7
  6
CONTINUOUS
 70
0
 71
3
 72
10
 73
6
 74
0
 42
0.0000001
 43
0.0000001
 44
0.0000000001
 40
0.0
 40
0.0
 40
0.0
 40
0.0
 40
0.2491583149
 40
0.4987914835
 40
1.0
 40
1.0
 40
1.0
 40
1.0
 10
115.7724588775
 20
149.563522709
 30
0.0
 10
115.5710392211
 20
149.5541111634
 30
0.0
 10
115.1683422077
 20
149.5208894629
 30
0.0
 10
114.3676640005
 20
149.400222867
 30
0.0
 10
113.776093355
 20
149.2546459946
 30
0.0
 10
113.3870802652
 20
149.1397732679
 30
0.0
  0
SPLINE
  5
4AA
100
AcDbEntity
  8
0
100
AcDbSpline
 62
7
  6
CONTINUOUS
 70
0
 71
3
 72
11
 73
7
 74
0
 42
0.0000001
 43
0.0000001
 44
0.0000000001
 40
0.0
 40
0.0
 40
0.0
 40
0.0
 40
0.2404053342
 40
0.4855030662
 40
0.7383571529
 40
1.0
 40
1.0
 40
1.0
 40
1.0
 10
115.9540530823
 20
158.5727859698
 30
0.0
 10
116.0519863431
 20
158.5727859698
 30
0.0
 10
116.2501312815
 20
158.5557117744
 30
0.0
 10
116.5428118328
 20
158.4819574187
 30
0.0
 10
116.8307493333
 20
158.3666819197
 30
0.0
 10
117.0164485389
 20
158.2688127439
 30
0.0
 10
117.1087536211
 20
158.2155203799
 30
0.0
  0
SPLINE
  5
4AB
100
AcDbEntity
  8
0
100
AcDbSpline
 62
7
  6
CONTINUOUS
 70
0
 71
3
 72
15
 73
11
 74
0
 42
0.0000001
 43
0.0000001
 44
0.0000000001
 40
0.0
 40
0.0
 40
0.0
 40
0.0
 40
0.1308200724
 40
0.2572467341
 40
0.3797970183
 40
0.5000000228
 40
0.620203024
 40
0.7427533002
 40
0.8691799394
 40
1.0
 40
1.0
 40
1.0
 40
1.0
 10
117.1087536211
 20
155.3702209182
 30
0.0
 10
117.0164495741
 20
155.4235126846
 30
0.0
 10
116.8307475679
 20
155.5213809577
 30
0.0
 10
116.5428293559
 20
155.6366579613
 30
0.0
 10
116.2500831174
 20
155.7104094252
 30
0.0
 10
115.9540530305
 20
155.7359317548
 30
0.0
 10
115.658022954
 20
155.7104093924
 30
0.0
 10
115.3652767454
 20
155.6366579277
 30
0.0
 10
115.0773585635
 20
155.5213809418
 30
0.0
 10
114.891656583
 20
155.4235126798
 30
0.0
 10
114.7993525444
 20
155.3702209182
 30
0.0
  0
SPLINE
  5
4AC
100
AcDbEntity
  8
0
100
AcDbSpline
 62
7
  6
CONTINUOUS
 70
0
 71
3
 72
9
 73
5
 74
0
 42
0.0000001
 43
0.0000001
 44
0.0000000001
 40
0.0
 40
0.0
 40
0.0
 40
0.0
 40
0.253023962
 40
1.0
 40
1.0
 40
1.0
 40
1.0
 10
119.4181546979
 20
153.5727859698
 30
0.0
 10
119.4779651841
 20
153.5556533114
 30
0.0
 10
119.7146066996
 20
153.4888500097
 30
0.0
 10
119.9517346798
 20
153.4237606214
 30
0.0
 10
120.1281930596
 20
153.3727859698
 30
0.0
  0
SPLINE
  5
4AD
100
AcDbEntity
  8
0
100
AcDbSpline
 62
7
  6
CONTINUOUS
 70
0
 71
3
 72
10
 73
6
 74
0
 42
0.0000001
 43
0.0000001
 44
0.0000000001
 40
0.0
 40
0.0
 40
0.0
 40
0.0
 40
0.4999011814
 40
0.7499517172
 40
1.0
 40
1.0
 40
1.0
 40
1.0
 10
117.1087536211
 20
158.2155203799
 30
0.0
 10
117.4839798997
 20
158.3238388763
 30
0.0
 10
118.0560228548
 20
158.4592516636
 30
0.0
 10
118.8318951173
 20
158.5561144866
 30
0.0
 10
119.2228044292
 20
158.5727859698
 30
0.0
 10
119.4181546977
 20
158.5727859698
 30
0.0
  0
SPLINE
  5
4AE
100
AcDbEntity
  8
0
100
AcDbSpline
 62
7
  6
CONTINUOUS
 70
0
 71
3
 72
10
 73
6
 74
0
 42
0.0000001
 43
0.0000001
 44
0.0000000001
 40
0.0
 40
0.0
 40
0.0
 40
0.0
 40
0.2500483041
 40
0.5000988454
 40
1.0
 40
1.0
 40
1.0
 40
1.0
 10
119.4181546977
 20
158.5727859698
 30
0.0
 10
119.6135049829
 20
158.5727859698
 30
0.0
 10
120.0044143163
 20
158.5561144897
 30
0.0
 10
120.7802865775
 20
158.4592516524
 30
0.0
 10
121.3523295161
 20
158.3238388705
 30
0.0
 10
121.7275557746
 20
158.2155203799
 30
0.0
  0
SPLINE
  5
4AF
100
AcDbEntity
  8
0
100
AcDbSpline
 62
7
  6
CONTINUOUS
 70
0
 71
3
 72
10
 73
6
 74
0
 42
0.0000001
 43
0.0000001
 44
0.0000000001
 40
0.0
 40
0.0
 40
0.0
 40
0.0
 40
0.4999007856
 40
0.7499513904
 40
1.0
 40
1.0
 40
1.0
 40
1.0
 10
121.7275557746
 20
155.3702209182
 30
0.0
 10
121.3523297923
 20
155.4785393292
 30
0.0
 10
120.7802870882
 20
155.6139520226
 30
0.0
 10
120.0044148499
 20
155.7108150768
 30
0.0
 10
119.6135052221
 20
155.7274865081
 30
0.0
 10
119.4181546979
 20
155.7274865081
 30
0.0
  0
SPLINE
  5
4B0
100
AcDbEntity
  8
0
100
AcDbSpline
 62
7
  6
CONTINUOUS
 70
0
 71
3
 72
10
 73
6
 74
0
 42
0.0000001
 43
0.0000001
 44
0.0000000001
 40
0.0
 40
0.0
 40
0.0
 40
0.0
 40
0.2500490219
 40
0.5000997455
 40
1.0
 40
1.0
 40
1.0
 40
1.0
 10
119.4181546979
 20
155.7274865081
 30
0.0
 10
119.2228038509
 20
155.7274865081
 30
0.0
 10
118.8318938013
 20
155.7108151202
 30
0.0
 10
118.0560215873
 20
155.6139518244
 30
0.0
 10
117.4839792059
 20
155.4785392144
 30
0.0
 10
117.1087536211
 20
155.3702209182
 30
0.0
  0
SPLINE
  5
4B1
100
AcDbEntity
  8
0
100
AcDbSpline
 62
7
  6
CONTINUOUS
 70
0
 71
3
 72
11
 73
7
 74
0
 42
0.0000001
 43
0.0000001
 44
0.0000000001
 40
0.0
 40
0.0
 40
0.0
 40
0.0
 40
0.2616429466
 40
0.5144970929
 40
0.7595947853
 40
1.0
 40
1.0
 40
1.0
 40
1.0
 10
121.7275557746
 20
158.2155203799
 30
0.0
 10
121.8198608917
 20
158.2688127641
 30
0.0
 10
122.0055601595
 20
158.3666819588
 30
0.0
 10
122.2934977061
 20
158.4819574788
 30
0.0
 10
122.5861782326
 20
158.5557117582
 30
0.0
 10
122.7843231015
 20
158.5727859698
 30
0.0
 10
122.8822563134
 20
158.5727859698
 30
0.0
  0
SPLINE
  5
4B2
100
AcDbEntity
  8
0
100
AcDbSpline
 62
7
  6
CONTINUOUS
 70
0
 71
3
 72
11
 73
7
 74
0
 42
0.0000001
 43
0.0000001
 44
0.0000000001
 40
0.0
 40
0.0
 40
0.0
 40
0.0
 40
0.2404052601
 40
0.485503008
 40
0.7383572234
 40
1.0
 40
1.0
 40
1.0
 40
1.0
 10
122.8822563134
 20
158.5727859698
 30
0.0
 10
122.9801895437
 20
158.5727859697
 30
0.0
 10
123.1783344568
 20
158.5557117686
 30
0.0
 10
123.471015035
 20
158.4819574121
 30
0.0
 10
123.7589525706
 20
158.3666819202
 30
0.0
 10
123.9446517944
 20
158.2688127293
 30
0.0
 10
124.0369568514
 20
158.2155203799
 30
0.0
  0
SPLINE
  5
4B3
100
AcDbEntity
  8
0
100
AcDbSpline
 62
7
  6
CONTINUOUS
 70
0
 71
3
 72
15
 73
11
 74
0
 42
0.0000001
 43
0.0000001
 44
0.0000000001
 40
0.0
 40
0.0
 40
0.0
 40
0.0
 40
0.1308200724
 40
0.2572467341
 40
0.3797970183
 40
0.5000000228
 40
0.620203024
 40
0.7427533002
 40
0.8691799394
 40
1.0
 40
1.0
 40
1.0
 40
1.0
 10
124.0369568514
 20
155.3702209182
 30
0.0
 10
123.9446528044
 20
155.4235126846
 30
0.0
 10
123.7589507982
 20
155.5213809577
 30
0.0
 10
123.4710325862
 20
155.6366579613
 30
0.0
 10
123.1782863477
 20
155.7104094252
 30
0.0
 10
122.8822562608
 20
155.7359317548
 30
0.0
 10
122.5862261843
 20
155.7104093924
 30
0.0
 10
122.2934799757
 20
155.6366579277
 30
0.0
 10
122.0055617938
 20
155.5213809418
 30
0.0
 10
121.8198598133
 20
155.4235126798
 30
0.0
 10
121.7275557746
 20
155.3702209182
 30
0.0
  0
LINE
  5
4B4
100
AcDbEntity
  8
0
100
AcDbLine
 62
7
  6
CONTINUOUS
 10
118.6248930569
 20
153.3727859698
 11
118.6326601333
 21
153.4470421453
  0
SPLINE
  5
4B5
100
AcDbEntity
  8
0
100
AcDbSpline
 62
7
  6
CONTINUOUS
 70
0
 71
3
 72
11
 73
7
 74
0
 42
0.0000001
 43
0.0000001
 44
0.0000000001
 40
0.0
 40
0.0
 40
0.0
 40
0.0
 40
0.2616427032
 40
0.5144968934
 40
0.7595946658
 40
1.0
 40
1.0
 40
1.0
 40
1.0
 10
114.7993525444
 20
158.2155203799
 30
0.0
 10
114.8916575756
 20
158.2688127145
 30
0.0
 10
115.0773567612
 20
158.3666818925
 30
0.0
 10
115.3652942667
 20
158.4819573757
 30
0.0
 10
115.657974866
 20
158.5557117765
 30
0.0
 10
115.8561198217
 20
158.5727859697
 30
0.0
 10
115.9540530823
 20
158.5727859698
 30
0.0
  0
SPLINE
  5
4B6
100
AcDbEntity
  8
0
100
AcDbSpline
 62
7
  6
CONTINUOUS
 70
0
 71
3
 72
8
 73
4
 74
0
 42
0.0000001
 43
0.0000001
 44
0.0000000001
 40
0.0
 40
0.0
 40
0.0
 40
0.0
 40
1.0
 40
1.0
 40
1.0
 40
1.0
 10
153.9181546979
 20
168.3094610117
 30
0.0
 10
153.9181546979
 20
168.1970797787
 30
0.0
 10
153.9227410706
 20
168.0843911709
 30
0.0
 10
153.9359251749
 20
167.9727859698
 30
0.0
  0
SPLINE
  5
4B7
100
AcDbEntity
  8
0
100
AcDbSpline
 62
7
  6
CONTINUOUS
 70
0
 71
3
 72
8
 73
4
 74
0
 42
0.0000001
 43
0.0000001
 44
0.0000000001
 40
0.0
 40
0.0
 40
0.0
 40
0.0
 40
1.0
 40
1.0
 40
1.0
 40
1.0
 10
153.9359251749
 20
170.9727859698
 30
0.0
 10
153.9253450609
 20
170.8832238933
 30
0.0
 10
153.9202736182
 20
170.7929508055
 30
0.0
 10
153.9187140744
 20
170.7027794566
 30
0.0
  0
SPLINE
  5
4B8
100
AcDbEntity
  8
0
100
AcDbSpline
 62
7
  6
CONTINUOUS
 70
0
 71
3
 72
9
 73
5
 74
0
 42
0.0000001
 43
0.0000001
 44
0.0000000001
 40
0.0
 40
0.0
 40
0.0
 40
0.0
 40
0.187901948
 40
1.0
 40
1.0
 40
1.0
 40
1.0
 10
147.2455049264
 20
87.272784275
 30
0.0
 10
147.2448577995
 20
87.2727849224
 30
0.0
 10
147.2414015347
 20
87.2719218907
 30
0.0
 10
147.2393121469
 20
87.2686338122
 30
0.0
 10
147.2379139496
 20
87.2662115546
 30
0.0
  0
SPLINE
  5
4B9
100
AcDbEntity
  8
0
100
AcDbSpline
 62
7
  6
CONTINUOUS
 70
0
 71
3
 72
9
 73
5
 74
0
 42
0.0000001
 43
0.0000001
 44
0.0000000001
 40
0.0
 40
0.0
 40
0.0
 40
0.0
 40
0.192199889
 40
1.0
 40
1.0
 40
1.0
 40
1.0
 10
148.9061426978
 20
62.2880002122
 30
0.0
 10
148.9050332195
 20
62.2908078298
 30
0.0
 10
148.8999405811
 20
62.3056814439
 30
0.0
 10
148.8965963387
 20
62.3210811864
 30
0.0
 10
148.8941307182
 20
62.3335274312
 30
0.0
  0
SPLINE
  5
4BA
100
AcDbEntity
  8
0
100
AcDbSpline
 62
7
  6
CONTINUOUS
 70
0
 71
3
 72
41
 73
37
 74
0
 42
0.0000001
 43
0.0000001
 44
0.0000000001
 40
0.0
 40
0.0
 40
0.0
 40
0.0
 40
0.0029898112
 40
0.0070884315
 40
0.0185836459
 40
0.0343989992
 40
0.0543948403
 40
0.0783945324
 40
0.106182709
 40
0.1375084428
 40
0.1720912258
 40
0.2497514594
 40
0.3363696986
 40
0.4288278943
 40
0.5237977145
 40
0.6178604679
 40
0.6634886872
 40
0.7076297627
 40
0.7498856138
 40
0.7898744794
 40
0.8272369266
 40
0.8616351972
 40
0.892759479
 40
0.9203305201
 40
0.9440986871
 40
0.9544897535
 40
0.9638523868
 40
0.9721670323
 40
0.9794157723
 40
0.9855815194
 40
0.9906524707
 40
0.994620275
 40
0.9974795353
 40
0.9992385016
 40
0.9997241458
 40
1.0
 40
1.0
 40
1.0
 40
1.0
 10
148.8941307182
 20
62.3335274312
 30
0.0
 10
148.8894905493
 20
62.356950613
 30
0.0
 10
148.8811033541
 20
62.4129824803
 30
0.0
 10
148.864543343
 20
62.5604767856
 30
0.0
 10
148.8454246217
 20
62.8106647712
 30
0.0
 10
148.8234648308
 20
63.1878343201
 30
0.0
 10
148.8013687832
 20
63.665022373
 30
0.0
 10
148.7790546577
 20
64.2378948263
 30
0.0
 10
148.756666803
 20
64.9013138686
 30
0.0
 10
148.7342077754
 20
65.6492939769
 30
0.0
 10
148.7029965003
 20
66.7954938837
 30
0.0
 10
148.6648520366
 20
68.3832606733
 30
0.0
 10
148.6204343455
 20
70.4332285701
 30
0.0
 10
148.5759181748
 20
72.6214689704
 30
0.0
 10
148.531353584
 20
74.8691761703
 30
0.0
 10
148.4938638013
 20
76.7429388816
 30
0.0
 10
148.4634553436
 20
78.2108136921
 30
0.0
 10
148.4408867953
 20
79.2650018616
 30
0.0
 10
148.4183296218
 20
80.2741404318
 30
0.0
 10
148.3957863112
 20
81.2291270907
 30
0.0
 10
148.3732645896
 20
82.1213405791
 30
0.0
 10
148.3507707775
 20
82.9427328641
 30
0.0
 10
148.3283199493
 20
83.685894818
 30
0.0
 10
148.3059264961
 20
84.3441171773
 30
0.0
 10
148.2865826656
 20
84.8367553956
 30
0.0
 10
148.2708324434
 20
85.1839906144
 30
0.0
 10
148.2595687424
 20
85.4078781795
 30
0.0
 10
148.2483263891
 20
85.6066375082
 30
0.0
 10
148.2371201617
 20
85.7798141087
 30
0.0
 10
148.2259506386
 20
85.9270458829
 30
0.0
 10
148.2148873234
 20
86.0479369194
 30
0.0
 10
148.2039032997
 20
86.1424508454
 30
0.0
 10
148.1933895094
 20
86.2099809898
 30
0.0
 10
148.1836785388
 20
86.2501298537
 30
0.0
 10
148.1756693518
 20
86.2682744704
 30
0.0
 10
148.1703581991
 20
86.2727768692
 30
0.0
 10
148.1681550688
 20
86.2727799081
 30
0.0
  0
SPLINE
  5
4BB
100
AcDbEntity
  8
GEOM
100
AcDbSpline
 62
7
  6
CONTINUOUS
 70
0
 71
3
 72
10
 73
6
 74
0
 42
0.0000001
 43
0.0000001
 44
0.0000000001
 40
0.0
 40
0.0
 40
0.0
 40
0.0
 40
0.2523304506
 40
0.50236634
 40
1.0
 40
1.0
 40
1.0
 40
1.0
 10
132.5917948794
 20
68.0344562683
 30
0.0
 10
132.6307533825
 20
67.9099609951
 30
0.0
 10
132.6925561502
 20
67.6570598927
 30
0.0
 10
132.7694368387
 20
67.1454379169
 30
0.0
 10
132.7903229309
 20
66.7586881053
 30
0.0
 10
132.7968766314
 20
66.5015072992
 30
0.0
  0
SPLINE
  5
4BC
100
AcDbEntity
  8
GEOM
100
AcDbSpline
 62
7
  6
CONTINUOUS
 70
0
 71
3
 72
15
 73
11
 74
0
 42
0.0000001
 43
0.0000001
 44
0.0000000001
 40
0.0
 40
0.0
 40
0.0
 40
0.0
 40
0.0506823907
 40
0.1084354735
 40
0.1878106413
 40
0.2944944549
 40
0.4299358098
 40
0.5937131778
 40
0.7844956504
 40
1.0
 40
1.0
 40
1.0
 40
1.0
 10
137.2603541287
 20
60.2727859698
 30
0.0
 10
137.2524517079
 20
60.2727862519
 30
0.0
 10
137.2348717724
 20
60.2781924386
 30
0.0
 10
137.2180961458
 20
60.3039706828
 30
0.0
 10
137.2095120769
 20
60.341196468
 30
0.0
 10
137.2070268818
 20
60.3914670309
 30
0.0
 10
137.2109817698
 20
60.4546949241
 30
0.0
 10
137.2212836223
 20
60.5304512724
 30
0.0
 10
137.2379118998
 20
60.6177953027
 30
0.0
 10
137.2522493085
 20
60.6795163675
 30
0.0
 10
137.2603541287
 20
60.712125798
 30
0.0
  0
SPLINE
  5
4BD
100
AcDbEntity
  8
GEOM
100
AcDbSpline
 62
7
  6
CONTINUOUS
 70
0
 71
3
 72
14
 73
10
 74
0
 42
0.0000001
 43
0.0000001
 44
0.0000000001
 40
0.0
 40
0.0
 40
0.0
 40
0.0
 40
0.3904505601
 40
0.5471690201
 40
0.6751602459
 40
0.7760058209
 40
0.8563723186
 40
0.9273710908
 40
1.0
 40
1.0
 40
1.0
 40
1.0
 10
132.5917956424
 20
60.7121279572
 30
0.0
 10
132.5688501214
 20
60.6510286893
 30
0.0
 10
132.5364838611
 20
60.5653239458
 30
0.0
 10
132.5082738076
 20
60.4558773366
 30
0.0
 10
132.5004119959
 20
60.391623097
 30
0.0
 10
132.5053199891
 20
60.339541114
 30
0.0
 10
132.5240304827
 20
60.3003122144
 30
0.0
 10
132.5551821078
 20
60.2770007475
 30
0.0
 10
132.5796545975
 20
60.2727860918
 30
0.0
 10
132.5917948794
 20
60.2727859698
 30
0.0
  0
SPLINE
  5
4BE
100
AcDbEntity
  8
GEOM
100
AcDbSpline
 62
7
  6
CONTINUOUS
 70
0
 71
3
 72
10
 73
6
 74
0
 42
0.0000001
 43
0.0000001
 44
0.0000000001
 40
0.0
 40
0.0
 40
0.0
 40
0.0
 40
0.330990826
 40
0.6031950756
 40
1.0
 40
1.0
 40
1.0
 40
1.0
 10
132.498018222
 20
88.5471998206
 30
0.0
 10
132.4914072654
 20
88.5251873052
 30
0.0
 10
132.4644240655
 20
88.4900461695
 30
0.0
 10
132.407900998
 20
88.4498805259
 30
0.0
 10
132.365723059
 20
88.4295901573
 30
0.0
 10
132.3402630281
 20
88.4190542916
 30
0.0
  0
SPLINE
  5
4BF
100
AcDbEntity
  8
GEOM
100
AcDbSpline
 62
7
  6
CONTINUOUS
 70
0
 71
3
 72
14
 73
10
 74
0
 42
0.0000001
 43
0.0000001
 44
0.0000000001
 40
0.0
 40
0.0
 40
0.0
 40
0.0
 40
0.0617367161
 40
0.1340935869
 40
0.2229478192
 40
0.332418368
 40
0.4648309549
 40
0.6208227463
 40
1.0
 40
1.0
 40
1.0
 40
1.0
 10
132.3402630281
 20
88.4190542916
 30
0.0
 10
132.3297621634
 20
88.4147097291
 30
0.0
 10
132.3090984323
 20
88.3996756346
 30
0.0
 10
132.2871880296
 20
88.3641225198
 30
0.0
 10
132.2738685545
 20
88.3156107153
 30
0.0
 10
132.2699801144
 20
88.2545683004
 30
0.0
 10
132.2756602261
 20
88.1813901851
 30
0.0
 10
132.2967200002
 20
88.0602131823
 30
0.0
 10
132.3221018118
 20
87.9649067222
 30
0.0
 10
132.3402630281
 20
87.8975142277
 30
0.0
  0
SPLINE
  5
4C0
100
AcDbEntity
  8
0
100
AcDbSpline
 62
7
  6
CONTINUOUS
 70
0
 71
3
 72
9
 73
5
 74
0
 42
0.0000001
 43
0.0000001
 44
0.0000000001
 40
0.0
 40
0.0
 40
0.0
 40
0.0
 40
0.3530684676
 40
1.0
 40
1.0
 40
1.0
 40
1.0
 10
145.7455047833
 20
87.2727859698
 30
0.0
 10
145.7477517267
 20
87.2727859698
 30
0.0
 10
145.753151257
 20
87.2677170985
 30
0.0
 10
145.7553400033
 20
87.2619865132
 30
0.0
 10
145.7568260655
 20
87.2581469638
 30
0.0
  0
SPLINE
  5
4C1
100
AcDbEntity
  8
0
100
AcDbSpline
 62
7
  6
CONTINUOUS
 70
0
 71
3
 72
45
 73
41
 74
0
 42
0.0000001
 43
0.0000001
 44
0.0000000001
 40
0.0
 40
0.0
 40
0.0
 40
0.0
 40
0.0007436143
 40
0.0017632543
 40
0.0046422062
 40
0.0086454639
 40
0.0137668638
 40
0.0199967098
 40
0.0273230174
 40
0.0357284396
 40
0.0451943077
 40
0.0672214959
 40
0.0932033008
 40
0.1229029712
 40
0.1560507012
 40
0.1923429581
 40
0.2314477948
 40
0.3166424733
 40
0.4085232442
 40
0.5037374442
 40
0.5988086366
 40
0.690266682
 40
0.7335891496
 40
0.7747741999
 40
0.8134438326
 40
0.8492445498
 40
0.881849458
 40
0.9109596726
 40
0.9363105572
 40
0.9576718309
 40
0.9667933741
 40
0.9748483538
 40
0.981818192
 40
0.9876871054
 40
0.9924442695
 40
0.9960805407
 40
0.9974770223
 40
0.9985933389
 40
0.9994320101
 40
1.0
 40
1.0
 40
1.0
 40
1.0
 10
145.7568260655
 20
87.2581469638
 30
0.0
 10
145.7591518841
 20
87.2521377302
 30
0.0
 10
145.7633898062
 20
87.2374136647
 30
0.0
 10
145.7717566095
 20
87.1980654317
 30
0.0
 10
145.7814126209
 20
87.130212232
 30
0.0
 10
145.7924776995
 20
87.026795967
 30
0.0
 10
145.8036120454
 20
86.8941963353
 30
0.0
 10
145.8148597079
 20
86.7327408395
 30
0.0
 10
145.8261432469
 20
86.542768976
 30
0.0
 10
145.8374656722
 20
86.3247173358
 30
0.0
 10
145.8534048608
 20
85.979351844
 30
0.0
 10
145.8729044671
 20
85.4816927804
 30
0.0
 10
145.8954147932
 20
84.8086997604
 30
0.0
 10
145.9179933224
 20
84.039299287
 30
0.0
 10
145.9406252304
 20
83.1805236294
 30
0.0
 10
145.963292953
 20
82.2402248523
 30
0.0
 10
145.9944440416
 20
80.8490003004
 30
0.0
 10
146.0326708422
 20
78.9761260518
 30
0.0
 10
146.0774783107
 20
76.6170851437
 30
0.0
 10
146.1223353634
 20
74.1724476159
 30
0.0
 10
146.1671957913
 20
71.7314739176
 30
0.0
 10
146.2051742311
 20
69.7401060175
 30
0.0
 10
146.2360257515
 20
68.2156269831
 30
0.0
 10
146.2587324989
 20
67.1485037164
 30
0.0
 10
146.2814206298
 20
66.1465736789
 30
0.0
 10
146.304082732
 20
65.2190126622
 30
0.0
 10
146.3267080915
 20
64.3743125724
 30
0.0
 10
146.3492753778
 20
63.6201968877
 30
0.0
 10
146.3717708826
 20
62.9635579014
 30
0.0
 10
146.3912762082
 20
62.4801306036
 30
0.0
 10
146.4072448347
 20
62.1465703234
 30
0.0
 10
146.4185557074
 20
61.9376391711
 30
0.0
 10
146.4298316419
 20
61.7569389634
 30
0.0
 10
146.4410403313
 20
61.6048704873
 30
0.0
 10
146.4521822929
 20
61.4817861197
 30
0.0
 10
146.4619400668
 20
61.3974861372
 30
0.0
 10
146.4701570506
 20
61.3448412437
 30
0.0
 10
146.4757021558
 20
61.3163058889
 30
0.0
 10
146.4811839989
 20
61.2951637471
 30
0.0
 10
146.4854560662
 20
61.2836345756
 30
0.0
 10
146.4879148878
 20
61.2793709818
 30
0.0
  0
SPLINE
  5
4C2
100
AcDbEntity
  8
GEOM
100
AcDbSpline
 62
7
  6
CONTINUOUS
 70
0
 71
3
 72
10
 73
6
 74
0
 42
0.0000001
 43
0.0000001
 44
0.0000000001
 40
0.0
 40
0.0
 40
0.0
 40
0.0
 40
0.2492385233
 40
0.4982450979
 40
1.0
 40
1.0
 40
1.0
 40
1.0
 10
132.3402630281
 20
87.8975142277
 30
0.0
 10
132.3709277092
 20
87.7837189091
 30
0.0
 10
132.4188638579
 20
87.5525686288
 30
0.0
 10
132.4776818367
 20
87.083121153
 30
0.0
 10
132.4930839887
 20
86.7279369423
 30
0.0
 10
132.498018222
 20
86.490729175
 30
0.0
  0
SPLINE
  5
4C3
100
AcDbEntity
  8
0
100
AcDbSpline
 62
7
  6
CONTINUOUS
 70
0
 71
3
 72
9
 73
5
 74
0
 42
0.0000001
 43
0.0000001
 44
0.0000000001
 40
0.0
 40
0.0
 40
0.0
 40
0.0
 40
0.3528540965
 40
1.0
 40
1.0
 40
1.0
 40
1.0
 10
144.2455052786
 20
87.2727859698
 30
0.0
 10
144.2477539654
 20
87.2727859698
 30
0.0
 10
144.2531562986
 20
87.2677021896
 30
0.0
 10
144.2553449401
 20
87.2619646361
 30
0.0
 10
144.2568321594
 20
87.2581179602
 30
0.0
  0
SPLINE
  5
4C4
100
AcDbEntity
  8
0
100
AcDbSpline
 62
7
  6
CONTINUOUS
 70
0
 71
3
 72
45
 73
41
 74
0
 42
0.0000001
 43
0.0000001
 44
0.0000000001
 40
0.0
 40
0.0
 40
0.0
 40
0.0
 40
0.000744143
 40
0.0017643238
 40
0.0046443391
 40
0.0086486155
 40
0.0137709926
 40
0.0200017705
 40
0.0273289747
 40
0.0357352545
 40
0.0452019185
 40
0.0672305675
 40
0.0932137033
 40
0.1229144409
 40
0.1560627115
 40
0.192354987
 40
0.2314595697
 40
0.3166537312
 40
0.4085341587
 40
0.503748468
 40
0.5988185198
 40
0.6902744304
 40
0.7335954741
 40
0.7747785924
 40
0.8134462673
 40
0.8492455187
 40
0.8818496569
 40
0.910959568
 40
0.9363101041
 40
0.9576712361
 40
0.9667928912
 40
0.9748481036
 40
0.981818038
 40
0.9876870241
 40
0.9924442607
 40
0.996080545
 40
0.9974770273
 40
0.9985933474
 40
0.9994320206
 40
1.0
 40
1.0
 40
1.0
 40
1.0
 10
144.2568321594
 20
87.2581179602
 30
0.0
 10
144.2591574517
 20
87.2521036183
 30
0.0
 10
144.2633957015
 20
87.2373701859
 30
0.0
 10
144.2717646191
 20
87.1980035055
 30
0.0
 10
144.2814246391
 20
87.130128086
 30
0.0
 10
144.2924903554
 20
87.0266852612
 30
0.0
 10
144.3036239169
 20
86.894060288
 30
0.0
 10
144.31487027
 20
86.7325805073
 30
0.0
 10
144.326153479
 20
86.5425855331
 30
0.0
 10
144.3374759858
 20
86.3245120181
 30
0.0
 10
144.3534153643
 20
85.9791199149
 30
0.0
 10
144.3729145496
 20
85.4814302903
 30
0.0
 10
144.395424524
 20
84.8084045695
 30
0.0
 10
144.4180028154
 20
84.03897949
 30
0.0
 10
144.4406342135
 20
83.1801906987
 30
0.0
 10
144.4633013355
 20
82.2398903326
 30
0.0
 10
144.4944515698
 20
80.8486738673
 30
0.0
 10
144.532677645
 20
78.9758113954
 30
0.0
 10
144.5774846564
 20
76.616779675
 30
0.0
 10
144.6223413626
 20
74.1721568385
 30
0.0
 10
144.6672013353
 20
71.7312133502
 30
0.0
 10
144.7051792018
 20
69.7398884346
 30
0.0
 10
144.7360299338
 20
68.2154587088
 30
0.0
 10
144.758735889
 20
67.1483826959
 30
0.0
 10
144.7814230289
 20
66.1465001962
 30
0.0
 10
144.8040843641
 20
65.2189765659
 30
0.0
 10
144.8267092159
 20
64.3742994364
 30
0.0
 10
144.8492760891
 20
63.6201969267
 30
0.0
 10
144.8717711661
 20
62.9635655564
 30
0.0
 10
144.8912763846
 20
62.4801420845
 30
0.0
 10
144.90724544
 20
62.1465804451
 30
0.0
 10
144.9185562753
 20
61.937645705
 30
0.0
 10
144.9298319511
 20
61.7569422024
 30
0.0
 10
144.9410399349
 20
61.6048717519
 30
0.0
 10
144.9521815918
 20
61.4817861163
 30
0.0
 10
144.9619407858
 20
61.3974856109
 30
0.0
 10
144.9701600079
 20
61.3448409611
 30
0.0
 10
144.9757064046
 20
61.3163058548
 30
0.0
 10
144.9811889169
 20
61.2951639268
 30
0.0
 10
144.9854606929
 20
61.2836348635
 30
0.0
 10
144.9879189985
 20
61.2793710836
 30
0.0
  0
SPLINE
  5
4C5
100
AcDbEntity
  8
GEOM
100
AcDbSpline
 62
7
  6
CONTINUOUS
 70
0
 71
3
 72
8
 73
4
 74
0
 42
0.0000001
 43
0.0000001
 44
0.0000000001
 40
0.0
 40
0.0
 40
0.0
 40
0.0
 40
1.0
 40
1.0
 40
1.0
 40
1.0
 10
132.6880339176
 20
88.293233798
 30
0.0
 10
132.7224387401
 20
88.2798521203
 30
0.0
 10
132.7599610369
 20
88.2727859698
 30
0.0
 10
132.7968766314
 20
88.2727859698
 30
0.0
  0
SPLINE
  5
4C6
100
AcDbEntity
  8
GEOM
100
AcDbSpline
 62
7
  6
CONTINUOUS
 70
0
 71
3
 72
9
 73
5
 74
0
 42
0.0000001
 43
0.0000001
 44
0.0000000001
 40
0.0
 40
0.0
 40
0.0
 40
0.0
 40
0.5025611897
 40
1.0
 40
1.0
 40
1.0
 40
1.0
 10
132.3402630281
 20
88.4190542916
 30
0.0
 10
132.3656636398
 20
88.3754592303
 30
0.0
 10
132.4396719189
 20
88.3001931634
 30
0.0
 10
132.5418540128
 20
88.2727859698
 30
0.0
 10
132.5917948794
 20
88.2727859698
 30
0.0
  0
SPLINE
  5
4C7
100
AcDbEntity
  8
GEOM
100
AcDbSpline
 62
7
  6
CONTINUOUS
 70
0
 71
3
 72
10
 73
6
 74
0
 42
0.0000001
 43
0.0000001
 44
0.0000000001
 40
0.0
 40
0.0
 40
0.0
 40
0.0
 40
0.456431914
 40
0.7200825063
 40
1.0
 40
1.0
 40
1.0
 40
1.0
 10
132.3402630281
 20
87.8975142277
 30
0.0
 10
132.3682381666
 20
87.8679408963
 30
0.0
 10
132.4298185568
 20
87.8376610466
 30
0.0
 10
132.5183161925
 20
87.8264245134
 30
0.0
 10
132.567129527
 20
87.8295865468
 30
0.0
 10
132.5917948794
 20
87.8334461415
 30
0.0
  0
SPLINE
  5
4C8
100
AcDbEntity
  8
GEOM
100
AcDbSpline
 62
7
  6
CONTINUOUS
 70
0
 71
3
 72
11
 73
7
 74
0
 42
0.0000001
 43
0.0000001
 44
0.0000000001
 40
0.0
 40
0.0
 40
0.0
 40
0.0
 40
0.2106057325
 40
0.4472718118
 40
0.714006738
 40
1.0
 40
1.0
 40
1.0
 40
1.0
 10
132.498018222
 20
86.490729175
 30
0.0
 10
132.5012565947
 20
86.4640149181
 30
0.0
 10
132.5244088185
 20
86.4087329453
 30
0.0
 10
132.5945765688
 20
86.3470461489
 30
0.0
 10
132.6892055059
 20
86.3081826309
 30
0.0
 10
132.7603372486
 20
86.300031608
 30
0.0
 10
132.7968766314
 20
86.3004971724
 30
0.0
  0
SPLINE
  5
4C9
100
AcDbEntity
  8
GEOM
100
AcDbSpline
 62
7
  6
CONTINUOUS
 70
0
 71
3
 72
11
 73
7
 74
0
 42
0.0000001
 43
0.0000001
 44
0.0000000001
 40
0.0
 40
0.0
 40
0.0
 40
0.0
 40
0.2106840932
 40
0.4483983239
 40
0.7154262548
 40
1.0
 40
1.0
 40
1.0
 40
1.0
 10
132.498018222
 20
82.2419124271
 30
0.0
 10
132.501274895
 20
82.2149642507
 30
0.0
 10
132.5245410681
 20
82.1591295365
 30
0.0
 10
132.5944274146
 20
82.09588547
 30
0.0
 10
132.6888845513
 20
82.0545849737
 30
0.0
 10
132.7602155203
 20
82.0445317843
 30
0.0
 10
132.7968766314
 20
82.0440646403
 30
0.0
  0
SPLINE
  5
4CA
100
AcDbEntity
  8
GEOM
100
AcDbSpline
 62
7
  6
CONTINUOUS
 70
0
 71
3
 72
9
 73
5
 74
0
 42
0.0000001
 43
0.0000001
 44
0.0000000001
 40
0.0
 40
0.0
 40
0.0
 40
0.0
 40
0.2335633549
 40
1.0
 40
1.0
 40
1.0
 40
1.0
 10
132.3402630281
 20
80.6539022295
 30
0.0
 10
132.3537276548
 20
80.6354545253
 30
0.0
 10
132.4214315642
 20
80.5640000481
 30
0.0
 10
132.5177502934
 20
80.5227019889
 30
0.0
 10
132.5917948794
 20
80.5111156712
 30
0.0
  0
SPLINE
  5
4CB
100
AcDbEntity
  8
GEOM
100
AcDbSpline
 62
7
  6
CONTINUOUS
 70
0
 71
3
 72
9
 73
5
 74
0
 42
0.0000001
 43
0.0000001
 44
0.0000000001
 40
0.0
 40
0.0
 40
0.0
 40
0.0
 40
0.2335631926
 40
1.0
 40
1.0
 40
1.0
 40
1.0
 10
132.3402630278
 20
67.8916697114
 30
0.0
 10
132.3537276839
 20
67.9101173695
 30
0.0
 10
132.4214317128
 20
67.9815717019
 30
0.0
 10
132.5177503179
 20
68.022869776
 30
0.0
 10
132.5917948793
 20
68.0344562688
 30
0.0
  0
SPLINE
  5
4CC
100
AcDbEntity
  8
GEOM
100
AcDbSpline
 62
7
  6
CONTINUOUS
 70
0
 71
3
 72
11
 73
7
 74
0
 42
0.0000001
 43
0.0000001
 44
0.0000000001
 40
0.0
 40
0.0
 40
0.0
 40
0.0
 40
0.2106841847
 40
0.44839838
 40
0.7154262635
 40
1.0
 40
1.0
 40
1.0
 40
1.0
 10
132.498018222
 20
66.3036595122
 30
0.0
 10
132.5012748925
 20
66.3306077052
 30
0.0
 10
132.5245410403
 20
66.3864424461
 30
0.0
 10
132.5944273812
 20
66.4496865514
 30
0.0
 10
132.6888845331
 20
66.4909870354
 30
0.0
 10
132.7602155152
 20
66.5010401848
 30
0.0
 10
132.7968766314
 20
66.5015072992
 30
0.0
  0
SPLINE
  5
4CD
100
AcDbEntity
  8
GEOM
100
AcDbSpline
 62
7
  6
CONTINUOUS
 70
0
 71
3
 72
11
 73
7
 74
0
 42
0.0000001
 43
0.0000001
 44
0.0000000001
 40
0.0
 40
0.0
 40
0.0
 40
0.0
 40
0.2106057424
 40
0.4472718242
 40
0.7140067453
 40
1.0
 40
1.0
 40
1.0
 40
1.0
 10
132.498018222
 20
62.0548427645
 30
0.0
 10
132.5012565947
 20
62.081557023
 30
0.0
 10
132.5244088181
 20
62.1368389983
 30
0.0
 10
132.5945765693
 20
62.1985257969
 30
0.0
 10
132.6892055069
 20
62.2373893132
 30
0.0
 10
132.7603372492
 20
62.2455403333
 30
0.0
 10
132.7968766314
 20
62.2450747671
 30
0.0
  0
SPLINE
  5
4CE
100
AcDbEntity
  8
GEOM
100
AcDbSpline
 62
7
  6
CONTINUOUS
 70
0
 71
3
 72
10
 73
6
 74
0
 42
0.0000001
 43
0.0000001
 44
0.0000000001
 40
0.0
 40
0.0
 40
0.0
 40
0.0
 40
0.456431816
 40
0.7200824507
 40
1.0
 40
1.0
 40
1.0
 40
1.0
 10
132.3402630281
 20
60.6480577118
 30
0.0
 10
132.3682381691
 20
60.6776310246
 30
0.0
 10
132.4298185564
 20
60.7079108444
 30
0.0
 10
132.5183161814
 20
60.7191473905
 30
0.0
 10
132.5671295217
 20
60.7159853788
 30
0.0
 10
132.5917948794
 20
60.712125798
 30
0.0
  0
SPLINE
  5
4CF
100
AcDbEntity
  8
GEOM
100
AcDbSpline
 62
7
  6
CONTINUOUS
 70
0
 71
3
 72
9
 73
5
 74
0
 42
0.0000001
 43
0.0000001
 44
0.0000000001
 40
0.0
 40
0.0
 40
0.0
 40
0.0
 40
0.5025614346
 40
1.0
 40
1.0
 40
1.0
 40
1.0
 10
132.3402630275
 20
60.1265176482
 30
0.0
 10
132.3656636748
 20
60.1701127148
 30
0.0
 10
132.4396719583
 20
60.2453787571
 30
0.0
 10
132.5418540394
 20
60.2727859698
 30
0.0
 10
132.5917948794
 20
60.2727859698
 30
0.0
  0
SPLINE
  5
4D0
100
AcDbEntity
  8
GEOM
100
AcDbSpline
 62
7
  6
CONTINUOUS
 70
0
 71
3
 72
8
 73
4
 74
0
 42
0.0000001
 43
0.0000001
 44
0.0000000001
 40
0.0
 40
0.0
 40
0.0
 40
0.0
 40
1.0
 40
1.0
 40
1.0
 40
1.0
 10
132.6880316956
 20
60.2523372769
 30
0.0
 10
132.7224371407
 20
60.2657195089
 30
0.0
 10
132.7599602558
 20
60.2727859698
 30
0.0
 10
132.7968766314
 20
60.2727859698
 30
0.0
  0
SPLINE
  5
4D1
100
AcDbEntity
  8
GEOM
100
AcDbSpline
 62
7
  6
CONTINUOUS
 70
0
 71
3
 72
10
 73
6
 74
0
 42
0.0000001
 43
0.0000001
 44
0.0000000001
 40
0.0
 40
0.0
 40
0.0
 40
0.0
 40
0.4959535867
 40
0.746759825
 40
1.0
 40
1.0
 40
1.0
 40
1.0
 10
132.498018222
 20
82.2419124273
 30
0.0
 10
132.493013087
 20
81.9777263278
 30
0.0
 10
132.4771541276
 20
81.5797440587
 30
0.0
 10
132.4185902425
 20
81.0499771269
 30
0.0
 10
132.3708506048
 20
80.7853102532
 30
0.0
 10
132.3402630281
 20
80.6539022295
 30
0.0
  0
SPLINE
  5
4D2
100
AcDbEntity
  8
GEOM
100
AcDbSpline
 62
7
  6
CONTINUOUS
 70
0
 71
3
 72
9
 73
5
 74
0
 42
0.0000001
 43
0.0000001
 44
0.0000000001
 40
0.0
 40
0.0
 40
0.0
 40
0.0
 40
0.2577539975
 40
1.0
 40
1.0
 40
1.0
 40
1.0
 10
137.8028049505
 20
84.1723398963
 30
0.0
 10
137.8130130339
 20
84.1723317527
 30
0.0
 10
137.8525561897
 20
84.1701584056
 30
0.0
 10
137.8918670513
 20
84.1594985173
 30
0.0
 10
137.9181546979
 20
84.1463425779
 30
0.0
  0
SPLINE
  5
4D3
100
AcDbEntity
  8
GEOM
100
AcDbSpline
 62
7
  6
CONTINUOUS
 70
0
 71
3
 72
9
 73
5
 74
0
 42
0.0000001
 43
0.0000001
 44
0.0000000001
 40
0.0
 40
0.0
 40
0.0
 40
0.0
 40
0.5441692437
 40
1.0
 40
1.0
 40
1.0
 40
1.0
 10
137.2603541287
 20
87.8334461416
 30
0.0
 10
137.293761263
 20
87.8382370801
 30
0.0
 10
137.3574376771
 20
87.8368674799
 30
0.0
 10
137.4156247961
 20
87.8049216738
 30
0.0
 10
137.4335592095
 20
87.7830684492
 30
0.0
  0
SPLINE
  5
4D4
100
AcDbEntity
  8
GEOM
100
AcDbSpline
 62
7
  6
CONTINUOUS
 70
0
 71
3
 72
9
 73
5
 74
0
 42
0.0000001
 43
0.0000001
 44
0.0000000001
 40
0.0
 40
0.0
 40
0.0
 40
0.0
 40
0.497684966
 40
1.0
 40
1.0
 40
1.0
 40
1.0
 10
137.2603541287
 20
88.2727859698
 30
0.0
 10
137.2953746745
 20
88.2727859698
 30
0.0
 10
137.3671158982
 20
88.2526641212
 30
0.0
 10
137.4172718524
 20
88.1977830832
 30
0.0
 10
137.4335592095
 20
88.1664129317
 30
0.0
  0
SPLINE
  5
4D5
100
AcDbEntity
  8
GEOM
100
AcDbSpline
 62
7
  6
CONTINUOUS
 70
0
 71
3
 72
9
 73
5
 74
0
 42
0.0000001
 43
0.0000001
 44
0.0000000001
 40
0.0
 40
0.0
 40
0.0
 40
0.0
 40
0.2656757024
 40
1.0
 40
1.0
 40
1.0
 40
1.0
 10
137.2603541297
 20
80.5111156747
 30
0.0
 10
137.278150132
 20
80.5085635437
 30
0.0
 10
137.3437538769
 20
80.4927537874
 30
0.0
 10
137.4060631679
 20
80.4524497432
 30
0.0
 10
137.4335592095
 20
80.4110591704
 30
0.0
  0
SPLINE
  5
4D6
100
AcDbEntity
  8
GEOM
100
AcDbSpline
 62
7
  6
CONTINUOUS
 70
0
 71
3
 72
9
 73
5
 74
0
 42
0.0000001
 43
0.0000001
 44
0.0000000001
 40
0.0
 40
0.0
 40
0.0
 40
0.0
 40
0.2656757134
 40
1.0
 40
1.0
 40
1.0
 40
1.0
 10
137.2603541287
 20
68.0344562683
 30
0.0
 10
137.2781501305
 20
68.0370084044
 30
0.0
 10
137.3437538696
 20
68.0528181752
 30
0.0
 10
137.4060631578
 20
68.0931222055
 30
0.0
 10
137.4335592095
 20
68.1345127691
 30
0.0
  0
SPLINE
  5
4D7
100
AcDbEntity
  8
GEOM
100
AcDbSpline
 62
7
  6
CONTINUOUS
 70
0
 71
3
 72
9
 73
5
 74
0
 42
0.0000001
 43
0.0000001
 44
0.0000000001
 40
0.0
 40
0.0
 40
0.0
 40
0.0
 40
0.2577923391
 40
1.0
 40
1.0
 40
1.0
 40
1.0
 10
137.8024996896
 20
64.3733537661
 30
0.0
 10
137.8127331837
 20
64.3733419579
 30
0.0
 10
137.8523726976
 20
64.3754487054
 30
0.0
 10
137.8917955206
 20
64.3860797721
 30
0.0
 10
137.9181546979
 20
64.3992430887
 30
0.0
  0
SPLINE
  5
4D8
100
AcDbEntity
  8
GEOM
100
AcDbSpline
 62
7
  6
CONTINUOUS
 70
0
 71
3
 72
9
 73
5
 74
0
 42
0.0000001
 43
0.0000001
 44
0.0000000001
 40
0.0
 40
0.0
 40
0.0
 40
0.0
 40
0.5441692794
 40
1.0
 40
1.0
 40
1.0
 40
1.0
 10
137.2603541287
 20
60.712125798
 30
0.0
 10
137.2937612655
 20
60.7073348695
 30
0.0
 10
137.3574376724
 20
60.70870448
 30
0.0
 10
137.4156247946
 20
60.7406502711
 30
0.0
 10
137.4335592095
 20
60.7625034903
 30
0.0
  0
SPLINE
  5
4D9
100
AcDbEntity
  8
GEOM
100
AcDbSpline
 62
7
  6
CONTINUOUS
 70
0
 71
3
 72
9
 73
5
 74
0
 42
0.0000001
 43
0.0000001
 44
0.0000000001
 40
0.0
 40
0.0
 40
0.0
 40
0.0
 40
0.4976849513
 40
1.0
 40
1.0
 40
1.0
 40
1.0
 10
137.2603541287
 20
60.2727859698
 30
0.0
 10
137.2953746731
 20
60.2727859698
 30
0.0
 10
137.3671158949
 20
60.2929078232
 30
0.0
 10
137.4172718482
 20
60.3477888577
 30
0.0
 10
137.4335592095
 20
60.3791590078
 30
0.0
  0
SPLINE
  5
4DA
100
AcDbEntity
  8
GEOM
100
AcDbSpline
 62
7
  6
CONTINUOUS
 70
0
 71
3
 72
11
 73
7
 74
0
 42
0.0000001
 43
0.0000001
 44
0.0000000001
 40
0.0
 40
0.0
 40
0.0
 40
0.0
 40
0.2228692897
 40
0.4674855668
 40
0.7286251865
 40
1.0
 40
1.0
 40
1.0
 40
1.0
 10
132.3402630281
 20
80.6539022295
 30
0.0
 10
132.3189014547
 20
80.5621352096
 30
0.0
 10
132.2833511179
 20
80.3672809506
 30
0.0
 10
132.2649609309
 20
80.0589691404
 30
0.0
 10
132.2858195235
 20
79.7304168488
 30
0.0
 10
132.3203078547
 20
79.5077710956
 30
0.0
 10
132.3402630281
 20
79.394793134
 30
0.0
  0
SPLINE
  5
4DB
100
AcDbEntity
  8
GEOM
100
AcDbSpline
 62
7
  6
CONTINUOUS
 70
0
 71
3
 72
10
 73
6
 74
0
 42
0.0000001
 43
0.0000001
 44
0.0000000001
 40
0.0
 40
0.0
 40
0.0
 40
0.0
 40
0.249862344
 40
0.4998188892
 40
1.0
 40
1.0
 40
1.0
 40
1.0
 10
132.3402630281
 20
79.394793134
 30
0.0
 10
132.3710498727
 20
79.2204671825
 30
0.0
 10
132.4188606116
 20
78.869280242
 30
0.0
 10
132.4774742417
 20
78.1630596095
 30
0.0
 10
132.4930497428
 20
77.6314889094
 30
0.0
 10
132.498018222
 20
77.2771531041
 30
0.0
  0
SPLINE
  5
4DC
100
AcDbEntity
  8
GEOM
100
AcDbSpline
 62
7
  6
CONTINUOUS
 70
0
 71
3
 72
10
 73
6
 74
0
 42
0.0000001
 43
0.0000001
 44
0.0000000001
 40
0.0
 40
0.0
 40
0.0
 40
0.0
 40
0.5001916002
 40
0.7501524577
 40
1.0
 40
1.0
 40
1.0
 40
1.0
 10
132.498018222
 20
71.2684188355
 30
0.0
 10
132.4930496384
 20
70.9140756023
 30
0.0
 10
132.4774729407
 20
70.3824943654
 30
0.0
 10
132.4188579188
 20
69.6762740136
 30
0.0
 10
132.3710508738
 20
69.3250939296
 30
0.0
 10
132.3402630281
 20
69.1507788055
 30
0.0
  0
SPLINE
  5
4DD
100
AcDbEntity
  8
GEOM
100
AcDbSpline
 62
7
  6
CONTINUOUS
 70
0
 71
3
 72
11
 73
7
 74
0
 42
0.0000001
 43
0.0000001
 44
0.0000000001
 40
0.0
 40
0.0
 40
0.0
 40
0.0
 40
0.2713663917
 40
0.5325064623
 40
0.7771238504
 40
1.0
 40
1.0
 40
1.0
 40
1.0
 10
132.3402630281
 20
69.1507788055
 30
0.0
 10
132.3203084321
 20
69.0378043569
 30
0.0
 10
132.2858208709
 20
68.815161937
 30
0.0
 10
132.2649605078
 20
68.4866126677
 30
0.0
 10
132.2833503131
 20
68.1782972344
 30
0.0
 10
132.3189008199
 20
67.9834395603
 30
0.0
 10
132.3402630281
 20
67.89166971
 30
0.0
  0
SPLINE
  5
4DE
100
AcDbEntity
  8
GEOM
100
AcDbSpline
 62
7
  6
CONTINUOUS
 70
0
 71
3
 72
10
 73
6
 74
0
 42
0.0000001
 43
0.0000001
 44
0.0000000001
 40
0.0
 40
0.0
 40
0.0
 40
0.0
 40
0.253254748
 40
0.5040569581
 40
1.0
 40
1.0
 40
1.0
 40
1.0
 10
132.3402630281
 20
67.89166971
 30
0.0
 10
132.3708490934
 20
67.7602533602
 30
0.0
 10
132.4185932483
 20
67.495581808
 30
0.0
 10
132.4771552336
 20
66.9658144051
 30
0.0
 10
132.4930131932
 20
66.5678399996
 30
0.0
 10
132.498018222
 20
66.3036595122
 30
0.0
  0
SPLINE
  5
4DF
100
AcDbEntity
  8
0
100
AcDbSpline
 62
7
  6
CONTINUOUS
 70
0
 71
3
 72
28
 73
24
 74
0
 42
0.0000001
 43
0.0000001
 44
0.0000000001
 40
0.0
 40
0.0
 40
0.0
 40
0.0
 40
0.0005868411
 40
0.0016014228
 40
0.0052536359
 40
0.0111805249
 40
0.0194029803
 40
0.0299117115
 40
0.0426905764
 40
0.0577182176
 40
0.0749619697
 40
0.0943863363
 40
0.1159542936
 40
0.1653310409
 40
0.222682106
 40
0.2875253672
 40
0.3593216873
 40
0.4374665541
 40
0.5213066146
 40
0.6101418396
 40
0.7032174317
 40
0.799760598
 40
1.0
 40
1.0
 40
1.0
 40
1.0
 10
142.768154685
 20
62.2727909577
 30
0.0
 10
142.7660501063
 20
62.2727936965
 30
0.0
 10
142.7609627723
 20
62.2769034866
 30
0.0
 10
142.7531739415
 20
62.2938191464
 30
0.0
 10
142.7438460366
 20
62.3311372858
 30
0.0
 10
142.733678357
 20
62.393970333
 30
0.0
 10
142.7230972296
 20
62.4818759654
 30
0.0
 10
142.7124250918
 20
62.5943452636
 30
0.0
 10
142.7016556233
 20
62.7313492403
 30
0.0
 10
142.6908493757
 20
62.8925486392
 30
0.0
 10
142.6800094552
 20
63.0776303829
 30
0.0
 10
142.6691480853
 20
63.2861996982
 30
0.0
 10
142.6539559371
 20
63.6099340905
 30
0.0
 10
142.6352981869
 20
64.0696650697
 30
0.0
 10
142.6137027724
 20
64.6845908201
 30
0.0
 10
142.5920519971
 20
65.3799613387
 30
0.0
 10
142.5703605311
 20
66.1499352345
 30
0.0
 10
142.5486407564
 20
66.9880609425
 30
0.0
 10
142.5269005603
 20
67.8873114656
 30
0.0
 10
142.5051469858
 20
68.8401221852
 30
0.0
 10
142.4833817542
 20
69.8385008715
 30
0.0
 10
142.4539951114
 20
71.2363351823
 30
0.0
 10
142.432516953
 20
72.3004659255
 30
0.0
 10
142.4181546642
 20
73.0184381613
 30
0.0
  0
SPLINE
  5
4E0
100
AcDbEntity
  8
GEOM
100
AcDbSpline
 62
7
  6
CONTINUOUS
 70
0
 71
3
 72
10
 73
6
 74
0
 42
0.0000001
 43
0.0000001
 44
0.0000000001
 40
0.0
 40
0.0
 40
0.0
 40
0.0
 40
0.5017513951
 40
0.7507556059
 40
1.0
 40
1.0
 40
1.0
 40
1.0
 10
132.498018222
 20
62.0548427645
 30
0.0
 10
132.4930840416
 20
61.8176366638
 30
0.0
 10
132.4776824421
 20
61.4624552096
 30
0.0
 10
132.4188638709
 20
60.9930078096
 30
0.0
 10
132.3709276668
 20
60.7618559123
 30
0.0
 10
132.3402630281
 20
60.6480577118
 30
0.0
  0
SPLINE
  5
4E1
100
AcDbEntity
  8
0
100
AcDbSpline
 62
7
  6
CONTINUOUS
 70
0
 71
3
 72
47
 73
43
 74
0
 42
0.0000001
 43
0.0000001
 44
0.0000000001
 40
0.0
 40
0.0
 40
0.0
 40
0.0
 40
0.0002827981
 40
0.0007862255
 40
0.0026158054
 40
0.0055915656
 40
0.0097222341
 40
0.0150015626
 40
0.0214194591
 40
0.0289634891
 40
0.0376152961
 40
0.0473548458
 40
0.0581609695
 40
0.0828658231
 40
0.111499637
 40
0.14379207
 40
0.1794402706
 40
0.2181092771
 40
0.2594341337
 40
0.3030266209
 40
0.3484762103
 40
0.3953545284
 40
0.4916235787
 40
0.5882160361
 40
0.6815021409
 40
0.7258012038
 40
0.7679762108
 40
0.8076305829
 40
0.8443899841
 40
0.8779094493
 40
0.9078739153
 40
0.9340005803
 40
0.9560459552
 40
0.9654718677
 40
0.9738040992
 40
0.9810220936
 40
0.9871105978
 40
0.9920574481
 40
0.9958522975
 40
0.9984933871
 40
0.9993855393
 40
1.0
 40
1.0
 40
1.0
 40
1.0
 10
144.2681550009
 20
62.2727863852
 30
0.0
 10
144.2658911268
 20
62.2727875626
 30
0.0
 10
144.2604423257
 20
62.2775416027
 30
0.0
 10
144.2523048042
 20
62.2964548512
 30
0.0
 10
144.2423577951
 20
62.3383818508
 30
0.0
 10
144.2316320179
 20
62.4088492895
 30
0.0
 10
144.2204032817
 20
62.5075006683
 30
0.0
 10
144.2091031731
 20
62.6336619206
 30
0.0
 10
144.1976890254
 20
62.7872907903
 30
0.0
 10
144.1862394261
 20
62.9679540833
 30
0.0
 10
144.1747528619
 20
63.1752592832
 30
0.0
 10
144.1632440203
 20
63.408709911
 30
0.0
 10
144.1471540929
 20
63.7705962379
 30
0.0
 10
144.127393827
 20
64.2837159651
 30
0.0
 10
144.1045144657
 20
64.968835581
 30
0.0
 10
144.0815769683
 20
65.7416008034
 30
0.0
 10
144.0585953409
 20
66.5947306468
 30
0.0
 10
144.0355855021
 20
67.5201906778
 30
0.0
 10
144.0125538983
 20
68.5092645198
 30
0.0
 10
143.9895079519
 20
69.5526322476
 30
0.0
 10
143.9664511215
 20
70.6404670014
 30
0.0
 10
143.9354251389
 20
72.1499171367
 30
0.0
 10
143.8971919171
 20
74.0687175378
 30
0.0
 10
143.8516950444
 20
76.3589534675
 30
0.0
 10
143.8132038747
 20
78.2332130343
 30
0.0
 10
143.7819304259
 20
79.6719014684
 30
0.0
 10
143.7588925784
 20
80.6813306497
 30
0.0
 10
143.7358744885
 20
81.6303867461
 30
0.0
 10
143.712881751
 20
82.5101318884
 30
0.0
 10
143.6899250312
 20
83.3122790388
 30
0.0
 10
143.6670279647
 20
84.029272189
 30
0.0
 10
143.6442017558
 20
84.6543614435
 30
0.0
 10
143.6244132016
 20
85.1150295714
 30
0.0
 10
143.6082187613
 20
85.4332576411
 30
0.0
 10
143.5967396148
 20
85.6328694588
 30
0.0
 10
143.5853021443
 20
85.8057207636
 30
0.0
 10
143.5739021786
 20
85.9513955901
 30
0.0
 10
143.5626530853
 20
86.0696094617
 30
0.0
 10
143.5514554469
 20
86.1600112132
 30
0.0
 10
143.5417513092
 20
86.2179897374
 30
0.0
 10
143.5331766428
 20
86.2500488351
 30
0.0
 10
143.5288373566
 20
86.2614052108
 30
0.0
 10
143.5263780147
 20
86.2656651906
 30
0.0
  0
SPLINE
  5
4E2
100
AcDbEntity
  8
GEOM
100
AcDbSpline
 62
7
  6
CONTINUOUS
 70
0
 71
3
 72
14
 73
10
 74
0
 42
0.0000001
 43
0.0000001
 44
0.0000000001
 40
0.0
 40
0.0
 40
0.0
 40
0.0
 40
0.3791645735
 40
0.5351568933
 40
0.6675710424
 40
0.7770437651
 40
0.8659002577
 40
0.9382598261
 40
1.0
 40
1.0
 40
1.0
 40
1.0
 10
132.3402630281
 20
60.6480577118
 30
0.0
 10
132.3221023813
 20
60.5806674901
 30
0.0
 10
132.2967219602
 20
60.4853630646
 30
0.0
 10
132.2756603838
 20
60.3641883933
 30
0.0
 10
132.2699800554
 20
60.2910094289
 30
0.0
 10
132.2738686292
 20
60.2299660601
 30
0.0
 10
132.2871864089
 20
60.1814524378
 30
0.0
 10
132.3090970681
 20
60.1458975568
 30
0.0
 10
132.3297615828
 20
60.1308624684
 30
0.0
 10
132.3402630281
 20
60.1265176479
 30
0.0
  0
SPLINE
  5
4E3
100
AcDbEntity
  8
0
100
AcDbSpline
 62
7
  6
CONTINUOUS
 70
0
 71
3
 72
29
 73
25
 74
0
 42
0.0000001
 43
0.0000001
 44
0.0000000001
 40
0.0
 40
0.0
 40
0.0
 40
0.0
 40
0.0034157434
 40
0.0048797007
 40
0.006457874
 40
0.0083356872
 40
0.0106264811
 40
0.0166632683
 40
0.0248170782
 40
0.0351647163
 40
0.0477337112
 40
0.062529981
 40
0.0795433582
 40
0.0987568525
 40
0.1436965252
 40
0.1971207499
 40
0.2587502925
 40
0.3282522595
 40
0.4052604994
 40
0.4893678875
 40
0.5801339935
 40
0.6770830199
 40
0.7797306482
 40
1.0
 40
1.0
 40
1.0
 40
1.0
 10
148.5632508873
 20
61.9178821592
 30
0.0
 10
148.5575754287
 20
61.9122067006
 30
0.0
 10
148.5474691838
 20
61.9048324868
 30
0.0
 10
148.5318407917
 20
61.9048746215
 30
0.0
 10
148.5210190084
 20
61.9095916018
 30
0.0
 10
148.5106228094
 20
61.9183954813
 30
0.0
 10
148.4955895622
 20
61.9372022848
 30
0.0
 10
148.4778292946
 20
61.9719289209
 30
0.0
 10
148.457871904
 20
62.0260450536
 30
0.0
 10
148.4378085677
 20
62.0963117956
 30
0.0
 10
148.4176520853
 20
62.1826220205
 30
0.0
 10
148.3974589478
 20
62.2849473039
 30
0.0
 10
148.3772404169
 20
62.4031331437
 30
0.0
 10
148.3487694428
 20
62.5917309718
 30
0.0
 10
148.3140339764
 20
62.8658559855
 30
0.0
 10
148.2741121949
 20
63.2396961239
 30
0.0
 10
148.2341997253
 20
63.6715362324
 30
0.0
 10
148.1943094482
 20
64.1589997236
 30
0.0
 10
148.1544843278
 20
64.6994440593
 30
0.0
 10
148.1147346602
 20
65.2899823234
 30
0.0
 10
148.0750758307
 20
65.9274804234
 30
0.0
 10
148.035510999
 20
66.6086280408
 30
0.0
 10
147.981619049
 20
67.5937571365
 30
0.0
 10
147.9433527569
 20
68.3515853296
 30
0.0
 10
147.9181546979
 20
68.8685603128
 30
0.0
  0
SPLINE
  5
4E4
100
AcDbEntity
  8
GEOM
100
AcDbSpline
 62
7
  6
CONTINUOUS
 70
0
 71
3
 72
10
 73
6
 74
0
 42
0.0000001
 43
0.0000001
 44
0.0000000001
 40
0.0
 40
0.0
 40
0.0
 40
0.0
 40
0.3968168445
 40
0.6690100249
 40
1.0
 40
1.0
 40
1.0
 40
1.0
 10
132.3402630281
 20
60.1265176479
 30
0.0
 10
132.3657233341
 20
60.1159803374
 30
0.0
 10
132.4079028647
 20
60.0956929008
 30
0.0
 10
132.4644233724
 20
60.055523698
 30
0.0
 10
132.4914069352
 20
60.0203844552
 30
0.0
 10
132.498018222
 20
59.9983721189
 30
0.0
  0
SPLINE
  5
4E5
100
AcDbEntity
  8
0
100
AcDbSpline
 62
7
  6
CONTINUOUS
 70
0
 71
3
 72
29
 73
25
 74
0
 42
0.0000001
 43
0.0000001
 44
0.0000000001
 40
0.0
 40
0.0
 40
0.0
 40
0.0
 40
0.0011651052
 40
0.0029882475
 40
0.0054841912
 40
0.0086572059
 40
0.0125069987
 40
0.0170302785
 40
0.028080806
 40
0.041770743
 40
0.0580430352
 40
0.0768331837
 40
0.0980638247
 40
0.1216467744
 40
0.1474865893
 40
0.2054962824
 40
0.2711347039
 40
0.3433167943
 40
0.4208488152
 40
0.5024480868
 40
0.5867644701
 40
0.6724023401
 40
0.8419766048
 40
1.0
 40
1.0
 40
1.0
 40
1.0
 10
142.9099316755
 20
62.2799117132
 30
0.0
 10
142.9064361331
 20
62.2859672846
 30
0.0
 10
142.9007325727
 20
62.3031885721
 30
0.0
 10
142.893393274
 20
62.3351981184
 30
0.0
 10
142.8859952584
 20
62.3796059098
 30
0.0
 10
142.8784652876
 20
62.4362204855
 30
0.0
 10
142.8709016229
 20
62.5051075048
 30
0.0
 10
142.8600296211
 20
62.6211652716
 30
0.0
 10
142.8468674407
 20
62.7963033083
 30
0.0
 10
142.8317857127
 20
63.041969883
 30
0.0
 10
142.8166340314
 20
63.3341548104
 30
0.0
 10
142.8014267017
 20
63.6716409655
 30
0.0
 10
142.786187121
 20
64.053037828
 30
0.0
 10
142.7709209916
 20
64.476770185
 30
0.0
 10
142.7497200445
 20
65.1211478616
 30
0.0
 10
142.7236521772
 20
66.0178815504
 30
0.0
 10
142.6933369583
 20
67.192711279
 30
0.0
 10
142.6629569064
 20
68.484732375
 30
0.0
 10
142.6325288486
 20
69.8725611101
 30
0.0
 10
142.6020720959
 20
71.3332262253
 30
0.0
 10
142.5715980294
 20
72.842546047
 30
0.0
 10
142.5310899587
 20
74.8797278479
 30
0.0
 10
142.4817144347
 20
77.359152206
 30
0.0
 10
142.4399340513
 20
79.3246952871
 30
0.0
 10
142.4181546633
 20
80.2727779129
 30
0.0
  0
SPLINE
  5
4E6
100
AcDbEntity
  8
0
100
AcDbSpline
 62
7
  6
CONTINUOUS
 70
0
 71
3
 72
17
 73
13
 74
0
 42
0.0000001
 43
0.0000001
 44
0.0000000001
 40
0.0
 40
0.0
 40
0.0
 40
0.0
 40
0.1353745575
 40
0.2822287347
 40
0.4329500827
 40
0.5799510812
 40
0.7160631392
 40
0.8348505065
 40
0.8860075752
 40
0.9308906768
 40
0.9690223068
 40
1.0
 40
1.0
 40
1.0
 40
1.0
 10
142.4181546633
 20
80.2727779129
 30
0.0
 10
142.4643521273
 20
79.4459151283
 30
0.0
 10
142.5529341879
 20
77.7216428698
 30
0.0
 10
142.677602436
 20
75.0760107441
 30
0.0
 10
142.8012549607
 20
72.3591313199
 30
0.0
 10
142.9236183378
 20
69.7079743265
 30
0.0
 10
143.044487147
 20
67.2523231421
 30
0.0
 10
143.1479195225
 20
65.3828534904
 30
0.0
 10
143.232695203
 20
64.0713762022
 30
0.0
 10
143.2925764593
 20
63.2527520231
 30
0.0
 10
143.3518871648
 20
62.5579171639
 30
0.0
 10
143.395419542
 20
62.137335107
 30
0.0
 10
143.4181546979
 20
61.94919814
 30
0.0
  0
SPLINE
  5
4E7
100
AcDbEntity
  8
0
100
AcDbSpline
 62
7
  6
CONTINUOUS
 70
0
 71
3
 72
9
 73
5
 74
0
 42
0.0000001
 43
0.0000001
 44
0.0000000001
 40
0.0
 40
0.0
 40
0.0
 40
0.0
 40
0.2222667226
 40
1.0
 40
1.0
 40
1.0
 40
1.0
 10
144.4099319954
 20
62.2799116754
 30
0.0
 10
144.409612205
 20
62.2804656705
 30
0.0
 10
144.4082365678
 20
62.2829946298
 30
0.0
 10
144.4070792882
 20
62.2856371975
 30
0.0
 10
144.4062499166
 20
62.2877161334
 30
0.0
  0
SPLINE
  5
4E8
100
AcDbEntity
  8
0
100
AcDbSpline
 62
7
  6
CONTINUOUS
 70
0
 71
3
 72
44
 73
40
 74
0
 42
0.0000001
 43
0.0000001
 44
0.0000000001
 40
0.0
 40
0.0
 40
0.0
 40
0.0
 40
0.0018491065
 40
0.0048337403
 40
0.0089622564
 40
0.0142285605
 40
0.020622306
 40
0.0281313432
 40
0.0464216873
 40
0.0689336136
 40
0.0954573398
 40
0.1257476609
 40
0.1595228953
 40
0.1964674792
 40
0.2362383507
 40
0.3227516752
 40
0.4158447712
 40
0.5120536814
 40
0.6077988688
 40
0.6543797835
 40
0.6995176715
 40
0.7427917175
 40
0.7837978974
 40
0.8221550156
 40
0.8575050123
 40
0.8895183107
 40
0.9178981445
 40
0.9423793689
 40
0.9530860824
 40
0.9627355124
 40
0.9713069242
 40
0.9787801973
 40
0.9851377148
 40
0.9903674367
 40
0.9944590666
 40
0.9974068035
 40
0.999219698
 40
0.9997189165
 40
1.0
 40
1.0
 40
1.0
 40
1.0
 10
144.4062499166
 20
62.2877161334
 30
0.0
 10
144.40076691
 20
62.3014600566
 30
0.0
 10
144.3923999209
 20
62.3395048405
 30
0.0
 10
144.3813429367
 20
62.410248911
 30
0.0
 10
144.3703234413
 20
62.5087811845
 30
0.0
 10
144.3590149054
 20
62.6345999025
 30
0.0
 10
144.347675138
 20
62.7875924978
 30
0.0
 10
144.3313828349
 20
63.0446975677
 30
0.0
 10
144.3116748936
 20
63.4308149496
 30
0.0
 10
144.2890635576
 20
63.9691105076
 30
0.0
 10
144.2663495702
 20
64.6035044617
 30
0.0
 10
144.2435494614
 20
65.3280771188
 30
0.0
 10
144.2207018353
 20
66.1360769585
 30
0.0
 10
144.1978161665
 20
67.0199700041
 30
0.0
 10
144.1663849718
 20
68.3258113468
 30
0.0
 10
144.1278137867
 20
70.0809299495
 30
0.0
 10
144.0825874192
 20
72.2876463069
 30
0.0
 10
144.0373111861
 20
74.5682534015
 30
0.0
 10
143.9992496153
 20
76.4767222087
 30
0.0
 10
143.9683673664
 20
77.9765627936
 30
0.0
 10
143.9454241208
 20
79.0565835383
 30
0.0
 10
143.9224921611
 20
80.0919829623
 30
0.0
 10
143.8995742703
 20
81.0731064823
 30
0.0
 10
143.8766779468
 20
81.9908009841
 30
0.0
 10
143.8538102304
 20
82.8365077369
 30
0.0
 10
143.8309859653
 20
83.602342155
 30
0.0
 10
143.8082195146
 20
84.2811592527
 30
0.0
 10
143.7885568219
 20
84.7894766149
 30
0.0
 10
143.7725455889
 20
85.1479262456
 30
0.0
 10
143.7610937153
 20
85.379132693
 30
0.0
 10
143.7496645752
 20
85.5844323873
 30
0.0
 10
143.7382713789
 20
85.7633378616
 30
0.0
 10
143.7269137231
 20
85.9154645343
 30
0.0
 10
143.7156696662
 20
86.0403886638
 30
0.0
 10
143.7044977302
 20
86.1380681807
 30
0.0
 10
143.6938206881
 20
86.2078453776
 30
0.0
 10
143.6839278484
 20
86.2493555424
 30
0.0
 10
143.6758227096
 20
86.2680907024
 30
0.0
 10
143.6704043369
 20
86.2727859536
 30
0.0
 10
143.6681549996
 20
86.2727859539
 30
0.0
  0
SPLINE
  5
4E9
100
AcDbEntity
  8
0
100
AcDbSpline
 62
7
  6
CONTINUOUS
 70
0
 71
3
 72
29
 73
25
 74
0
 42
0.0000001
 43
0.0000001
 44
0.0000000001
 40
0.0
 40
0.0
 40
0.0
 40
0.0
 40
0.000676832
 40
0.0018922204
 40
0.0036677266
 40
0.0060088238
 40
0.0089172581
 40
0.0123934721
 40
0.0210456069
 40
0.0319499283
 40
0.0450873039
 40
0.0604346189
 40
0.0779594215
 40
0.097627512
 40
0.1194009401
 40
0.1690777322
 40
0.226587531
 40
0.2914581026
 40
0.363153366
 40
0.4410798727
 40
0.5245878136
 40
0.6129796957
 40
0.8013983287
 40
1.0
 40
1.0
 40
1.0
 40
1.0
 10
142.6400457955
 20
62.0508948721
 30
0.0
 10
142.6382954116
 20
62.052645256
 30
0.0
 10
142.6357963709
 20
62.0594341003
 30
0.0
 10
142.632542407
 20
62.0722596042
 30
0.0
 10
142.6292937714
 20
62.0915956435
 30
0.0
 10
142.6259304992
 20
62.1170304423
 30
0.0
 10
142.6225564957
 20
62.1487821006
 30
0.0
 10
142.6176598942
 20
62.2035533825
 30
0.0
 10
142.6117630668
 20
62.2875959822
 30
0.0
 10
142.6050104332
 20
62.4069777137
 30
0.0
 10
142.598222224
 20
62.5508798631
 30
0.0
 10
142.5914006509
 20
62.7190152374
 30
0.0
 10
142.5845582543
 20
62.911052418
 30
0.0
 10
142.577699242
 20
63.12660462
 30
0.0
 10
142.568112583
 20
63.4597193721
 30
0.0
 10
142.5563197968
 20
63.9312263484
 30
0.0
 10
142.5426459595
 20
64.5603530246
 30
0.0
 10
142.5289243349
 20
65.2700249437
 30
0.0
 10
142.5151613855
 20
66.0543797294
 30
0.0
 10
142.5013665377
 20
66.9069070872
 30
0.0
 10
142.4875431253
 20
67.8205069024
 30
0.0
 10
142.4686763304
 20
69.1381854442
 30
0.0
 10
142.4454060168
 20
70.8767824606
 30
0.0
 10
142.4273533978
 20
72.2921390506
 30
0.0
 10
142.4181546642
 20
73.0184381613
 30
0.0
  0
SPLINE
  5
4EA
100
AcDbEntity
  8
0
100
AcDbSpline
 62
7
  6
CONTINUOUS
 70
0
 71
3
 72
29
 73
25
 74
0
 42
0.0000001
 43
0.0000001
 44
0.0000000001
 40
0.0
 40
0.0
 40
0.0
 40
0.0
 40
0.1665819948
 40
0.3404682682
 40
0.4269367298
 40
0.5113602809
 40
0.592469658
 40
0.6690414646
 40
0.7399134113
 40
0.804005031
 40
0.8603351539
 40
0.8853143067
 40
0.9080366784
 40
0.9284152459
 40
0.9463700979
 40
0.9618303149
 40
0.9747369988
 40
0.985037264
 40
0.9891982302
 40
0.9926942689
 40
0.9955217212
 40
0.9976791796
 40
0.9991685371
 40
1.0
 40
1.0
 40
1.0
 40
1.0
 10
143.4181546979
 20
68.868567685
 30
0.0
 10
143.4053554784
 20
69.8737622325
 30
0.0
 10
143.3805653581
 20
71.9282443691
 30
0.0
 10
143.3506243698
 20
74.5045148003
 30
0.0
 10
143.3260854302
 20
76.5850112264
 30
0.0
 10
143.3076956066
 20
78.1056584025
 30
0.0
 10
143.2892924955
 20
79.5665773632
 30
0.0
 10
143.2708824204
 20
80.9457092673
 30
0.0
 10
143.252477509
 20
82.2221341262
 30
0.0
 10
143.2340881013
 20
83.3763923762
 30
0.0
 10
143.2182371468
 20
84.2537044011
 30
0.0
 10
143.2053246456
 20
84.8813740175
 30
0.0
 10
143.1960357905
 20
85.2921137474
 30
0.0
 10
143.1867574598
 20
85.660452258
 30
0.0
 10
143.1774934597
 20
85.9849501521
 30
0.0
 10
143.1682614702
 20
86.2643388051
 30
0.0
 10
143.1590674207
 20
86.4975027002
 30
0.0
 10
143.1510352953
 20
86.6624747923
 30
0.0
 10
143.1443629606
 20
86.7706312153
 30
0.0
 10
143.1397639252
 20
86.8337511881
 30
0.0
 10
143.1351437504
 20
86.8846864452
 30
0.0
 10
143.13075164
 20
86.9236114883
 30
0.0
 10
143.1261800041
 20
86.9500699223
 30
0.0
 10
143.1229573412
 20
86.9639967628
 30
0.0
 10
143.1204520939
 20
86.9683442357
 30
0.0
  0
LINE
  5
4EB
100
AcDbEntity
  8
GEOM
100
AcDbLine
 62
7
  6
CONTINUOUS
 10
132.498018222
 20
59.9983721189
 11
132.5254279654
 21
59.99893265
  0
SPLINE
  5
4EC
100
AcDbEntity
  8
0
100
AcDbSpline
 62
7
  6
CONTINUOUS
 70
0
 71
3
 72
29
 73
25
 74
0
 42
0.0000001
 43
0.0000001
 44
0.0000000001
 40
0.0
 40
0.0
 40
0.0
 40
0.0
 40
0.0010982738
 40
0.002834413
 40
0.0052230375
 40
0.0082667684
 40
0.011964877
 40
0.0163154446
 40
0.0269624683
 40
0.0401706597
 40
0.0558918551
 40
0.0740694738
 40
0.0946330824
 40
0.1175081737
 40
0.1426064833
 40
0.1990896848
 40
0.2632309701
 40
0.3340626249
 40
0.4105156963
 40
0.4914361725
 40
0.5756022316
 40
0.661742293
 40
0.8347309382
 40
1.0
 40
1.0
 40
1.0
 40
1.0
 10
147.4483956775
 20
87.2662003273
 30
0.0
 10
147.4517674232
 20
87.2603656667
 30
0.0
 10
147.4572046316
 20
87.2436234463
 30
0.0
 10
147.46421249
 20
87.2124306442
 30
0.0
 10
147.4712664757
 20
87.1689545397
 30
0.0
 10
147.4784585584
 20
87.1134075204
 30
0.0
 10
147.4856826908
 20
87.0457200466
 30
0.0
 10
147.4960744356
 20
86.9314775265
 30
0.0
 10
147.5086447226
 20
86.7588550346
 30
0.0
 10
147.5230532647
 20
86.5164458524
 30
0.0
 10
147.5375255337
 20
86.2277633795
 30
0.0
 10
147.5520512979
 20
85.8939047804
 30
0.0
 10
147.5666108157
 20
85.5161157805
 30
0.0
 10
147.5811921695
 20
85.0958354072
 30
0.0
 10
147.6014642615
 20
84.4552257888
 30
0.0
 10
147.6263868516
 20
83.5614378795
 30
0.0
 10
147.6553541218
 20
82.3870487389
 30
0.0
 10
147.68438386
 20
81.0900954976
 30
0.0
 10
147.7134611847
 20
79.6901653095
 30
0.0
 10
147.7425674942
 20
78.2084013565
 30
0.0
 10
147.7716928342
 20
76.6671890101
 30
0.0
 10
147.8105928453
 20
74.5611447248
 30
0.0
 10
147.8581368764
 20
71.9575400758
 30
0.0
 10
147.8976834759
 20
69.8824190032
 30
0.0
 10
147.9181546979
 20
68.8685603128
 30
0.0
  0
SPLINE
  5
4ED
100
AcDbEntity
  8
0
100
AcDbSpline
 62
7
  6
CONTINUOUS
 70
0
 71
3
 72
37
 73
33
 74
0
 42
0.0000001
 43
0.0000001
 44
0.0000000001
 40
0.0
 40
0.0
 40
0.0
 40
0.0
 40
0.0162650165
 40
0.0361741984
 40
0.0862604821
 40
0.1487189287
 40
0.2216188561
 40
0.3027079263
 40
0.389479354
 40
0.479250179
 40
0.5692445819
 40
0.656680016
 40
0.698587908
 40
0.7388531742
 40
0.7771635894
 40
0.8132235205
 40
0.8467523969
 40
0.877492158
 40
0.9052041181
 40
0.9296741364
 40
0.9507143507
 40
0.9598957619
 40
0.9681611723
 40
0.9754954505
 40
0.9818837119
 40
0.9873141876
 40
0.9917786326
 40
0.9952698642
 40
0.9977844176
 40
0.9993312684
 40
0.9997580848
 40
1.0
 40
1.0
 40
1.0
 40
1.0
 10
147.9181546979
 20
61.9492019509
 30
0.0
 10
147.9102431272
 20
62.0863598008
 30
0.0
 10
147.8950735302
 20
62.3915444666
 30
0.0
 10
147.865236609
 20
63.1195543716
 30
0.0
 10
147.8296732206
 20
64.2378069824
 30
0.0
 10
147.7888570499
 20
65.8036732199
 30
0.0
 10
147.7478079974
 20
67.6314842188
 30
0.0
 10
147.7065515337
 20
69.6646990857
 30
0.0
 10
147.6652084417
 20
71.840443207
 30
0.0
 10
147.6238191357
 20
74.0914199145
 30
0.0
 10
147.5824254902
 20
76.3480061508
 30
0.0
 10
147.547489132
 20
78.2003586638
 30
0.0
 10
147.5191873869
 20
79.6327133942
 30
0.0
 10
147.498268889
 20
80.6501880415
 30
0.0
 10
147.4773606819
 20
81.6182560073
 30
0.0
 10
147.4564676722
 20
82.5294100245
 30
0.0
 10
147.435593058
 20
83.3765995115
 30
0.0
 10
147.414745931
 20
84.1532537521
 30
0.0
 10
147.393939576
 20
84.8533617117
 30
0.0
 10
147.3731834431
 20
85.4715014817
 30
0.0
 10
147.3552506601
 20
85.9331213718
 30
0.0
 10
147.3406452595
 20
86.2578830804
 30
0.0
 10
147.3302084057
 20
86.4669419707
 30
0.0
 10
147.3197926078
 20
86.6523785989
 30
0.0
 10
147.3094079062
 20
86.8138223072
 30
0.0
 10
147.2990571861
 20
86.9509897994
 30
0.0
 10
147.2888079029
 20
87.0635592668
 30
0.0
 10
147.2786296645
 20
87.1515293462
 30
0.0
 10
147.2688879181
 20
87.2143573586
 30
0.0
 10
147.2598858175
 20
87.2517088402
 30
0.0
 10
147.2524735865
 20
87.2685843711
 30
0.0
 10
147.2475483126
 20
87.2727822311
 30
0.0
 10
147.2455049264
 20
87.272784275
 30
0.0
  0
SPLINE
  5
4EE
100
AcDbEntity
  8
0
100
AcDbSpline
 62
7
  6
CONTINUOUS
 70
0
 71
3
 72
47
 73
43
 74
0
 42
0.0000001
 43
0.0000001
 44
0.0000000001
 40
0.0
 40
0.0
 40
0.0
 40
0.0
 40
0.0002827969
 40
0.0007859893
 40
0.0026151264
 40
0.0055915465
 40
0.0097220675
 40
0.0150009189
 40
0.0214193698
 40
0.0289633719
 40
0.0376147138
 40
0.0473546829
 40
0.0581608868
 40
0.0828655949
 40
0.1114992113
 40
0.1437920113
 40
0.1794399736
 40
0.2181090056
 40
0.2594340557
 40
0.3030263624
 40
0.3484760533
 40
0.3953544217
 40
0.4916234872
 40
0.5882159872
 40
0.6815020704
 40
0.72580122
 40
0.7679761753
 40
0.8076305813
 40
0.8443900215
 40
0.8779094543
 40
0.907873968
 40
0.9340006141
 40
0.9560460223
 40
0.9654718989
 40
0.9738041482
 40
0.9810221953
 40
0.9871106292
 40
0.9920574752
 40
0.9958524316
 40
0.998493426
 40
0.9993855332
 40
1.0
 40
1.0
 40
1.0
 40
1.0
 10
145.7681543317
 20
62.2727951771
 30
0.0
 10
145.7658904704
 20
62.2727982529
 30
0.0
 10
145.7604435411
 20
62.2775475233
 30
0.0
 10
145.7523008095
 20
62.2964555137
 30
0.0
 10
145.7423556585
 20
62.3383813501
 30
0.0
 10
145.731633311
 20
62.4088505547
 30
0.0
 10
145.7204025629
 20
62.5075015501
 30
0.0
 10
145.7091012704
 20
62.6336622564
 30
0.0
 10
145.6976891488
 20
62.7872915598
 30
0.0
 10
145.6862389661
 20
62.9679552424
 30
0.0
 10
145.6747514389
 20
63.1752597143
 30
0.0
 10
145.6632436783
 20
63.4087105793
 30
0.0
 10
145.6471533639
 20
63.7705995775
 30
0.0
 10
145.6273931837
 20
64.2837169968
 30
0.0
 10
145.6045134492
 20
64.9688365157
 30
0.0
 10
145.5815765645
 20
65.741600893
 30
0.0
 10
145.5585944687
 20
66.5947316135
 30
0.0
 10
145.5355847387
 20
67.5201911193
 30
0.0
 10
145.5125533129
 20
68.5092648739
 30
0.0
 10
145.48950712
 20
69.552633092
 30
0.0
 10
145.4664504348
 20
70.64046718
 30
0.0
 10
145.4354244299
 20
72.1499180426
 30
0.0
 10
145.3971911936
 20
74.068718534
 30
0.0
 10
145.3516943856
 20
76.358953829
 30
0.0
 10
145.3132031257
 20
78.2332134994
 30
0.0
 10
145.2819298063
 20
79.6719014623
 30
0.0
 10
145.2588918849
 20
80.6813307866
 30
0.0
 10
145.2358738331
 20
81.6303866703
 30
0.0
 10
145.2128811511
 20
82.5101317828
 30
0.0
 10
145.1899243572
 20
83.3122790411
 30
0.0
 10
145.1670274045
 20
84.0292718758
 30
0.0
 10
145.1442011021
 20
84.6543613722
 30
0.0
 10
145.1244126891
 20
85.1150291476
 30
0.0
 10
145.1082181587
 20
85.433257206
 30
0.0
 10
145.0967389989
 20
85.6328692194
 30
0.0
 10
145.085301715
 20
85.8057204666
 30
0.0
 10
145.0739016299
 20
85.9513950569
 30
0.0
 10
145.0626522466
 20
86.0696090958
 30
0.0
 10
145.0514553404
 20
86.1600109797
 30
0.0
 10
145.0417508946
 20
86.2179891395
 30
0.0
 10
145.033176033
 20
86.2500471188
 30
0.0
 10
145.0288366691
 20
86.261403057
 30
0.0
 10
145.0263775099
 20
86.2656631966
 30
0.0
  0
SPLINE
  5
4EF
100
AcDbEntity
  8
GEOM
100
AcDbSpline
 62
7
  6
CONTINUOUS
 70
0
 71
3
 72
15
 73
11
 74
0
 42
0.0000001
 43
0.0000001
 44
0.0000000001
 40
0.0
 40
0.0
 40
0.0
 40
0.0
 40
0.2154496747
 40
0.4061411652
 40
0.5699311879
 40
0.7054050759
 40
0.8121170733
 40
0.8915179474
 40
0.9493031645
 40
1.0
 40
1.0
 40
1.0
 40
1.0
 10
137.2603541287
 20
87.8334461415
 30
0.0
 10
137.2522509188
 20
87.8660469152
 30
0.0
 10
137.2379156742
 20
87.9277446847
 30
0.0
 10
137.2212941714
 20
88.0150682232
 30
0.0
 10
137.210988823
 20
88.090815946
 30
0.0
 10
137.2070273266
 20
88.1540549593
 30
0.0
 10
137.2095072858
 20
88.2043373084
 30
0.0
 10
137.2180824756
 20
88.2415813447
 30
0.0
 10
137.2348665559
 20
88.2673643718
 30
0.0
 10
137.252449518
 20
88.2727855425
 30
0.0
 10
137.2603541287
 20
88.2727859698
 30
0.0
  0
SPLINE
  5
4F0
100
AcDbEntity
  8
GEOM
100
AcDbSpline
 62
7
  6
CONTINUOUS
 70
0
 71
3
 72
14
 73
10
 74
0
 42
0.0000001
 43
0.0000001
 44
0.0000000001
 40
0.0
 40
0.0
 40
0.0
 40
0.0
 40
0.0726238141
 40
0.1436193432
 40
0.2239826968
 40
0.3248246011
 40
0.4528129807
 40
0.6095299601
 40
1.0
 40
1.0
 40
1.0
 40
1.0
 10
132.5917948794
 20
88.2727859698
 30
0.0
 10
132.5796554992
 20
88.272785877
 30
0.0
 10
132.5551845508
 20
88.2685718347
 30
0.0
 10
132.5240339674
 20
88.2452631166
 30
0.0
 10
132.5053204107
 20
88.2060377528
 30
0.0
 10
132.5004120289
 20
88.1539572408
 30
0.0
 10
132.5082728331
 20
88.0897047069
 30
0.0
 10
132.5364799988
 20
87.9802551277
 30
0.0
 10
132.5688483926
 20
87.8945482375
 30
0.0
 10
132.5917948794
 20
87.8334461415
 30
0.0
  0
SPLINE
  5
4F1
100
AcDbEntity
  8
GEOM
100
AcDbSpline
 62
7
  6
CONTINUOUS
 70
0
 71
3
 72
9
 73
5
 74
0
 42
0.0000001
 43
0.0000001
 44
0.0000000001
 40
0.0
 40
0.0
 40
0.0
 40
0.0
 40
0.4974009897
 40
1.0
 40
1.0
 40
1.0
 40
1.0
 10
137.802821435
 20
84.1715708929
 30
0.0
 10
137.8028203092
 20
84.7868653473
 30
0.0
 10
137.7053874928
 20
86.0255844694
 30
0.0
 10
137.4317656109
 20
87.2358179434
 30
0.0
 10
137.2603541287
 20
87.8334461415
 30
0.0
  0
SPLINE
  5
4F2
100
AcDbEntity
  8
0
100
AcDbSpline
 62
7
  6
CONTINUOUS
 70
0
 71
3
 72
41
 73
37
 74
0
 42
0.0000001
 43
0.0000001
 44
0.0000000001
 40
0.0
 40
0.0
 40
0.0
 40
0.0
 40
0.0003117734
 40
0.0008771121
 40
0.0017058047
 40
0.0028002462
 40
0.0041611464
 40
0.0057886306
 40
0.0098421463
 40
0.0149536542
 40
0.0211128551
 40
0.0283089683
 40
0.0365276288
 40
0.0457508144
 40
0.0559602707
 40
0.0792524928
 40
0.1062092825
 40
0.1366048543
 40
0.1701839555
 40
0.2066601798
 40
0.2457239897
 40
0.2870414488
 40
0.3302571904
 40
0.3749993959
 40
0.4675037307
 40
0.5613467623
 40
0.6532469043
 40
0.7399709345
 40
0.8184471795
 40
0.8858726434
 40
0.9146662641
 40
0.9398214842
 40
0.9611099196
 40
0.9783344345
 40
0.9913372801
 40
1.0
 40
1.0
 40
1.0
 40
1.0
 10
148.4426739792
 20
86.7482666884
 30
0.0
 10
148.4444648431
 20
86.7464758245
 30
0.0
 10
148.446971459
 20
86.7394495348
 30
0.0
 10
148.4502674928
 20
86.7261961317
 30
0.0
 10
148.4535429072
 20
86.7061315819
 30
0.0
 10
148.4569443876
 20
86.6797129464
 30
0.0
 10
148.4603538387
 20
86.6467033606
 30
0.0
 10
148.4653060379
 20
86.5897197803
 30
0.0
 10
148.4712675101
 20
86.5022397923
 30
0.0
 10
148.4780929732
 20
86.3779427777
 30
0.0
 10
148.4849550916
 20
86.2280837038
 30
0.0
 10
148.4918509087
 20
86.0529646557
 30
0.0
 10
148.4987665659
 20
85.8529391799
 30
0.0
 10
148.5057003264
 20
85.6284229464
 30
0.0
 10
148.5153918311
 20
85.2814862133
 30
0.0
 10
148.5273105227
 20
84.7905003488
 30
0.0
 10
148.5411324285
 20
84.1355363702
 30
0.0
 10
148.5550026224
 20
83.3969923586
 30
0.0
 10
148.5689134041
 20
82.5811066445
 30
0.0
 10
148.5828574071
 20
81.6947964549
 30
0.0
 10
148.5968291029
 20
80.745617617
 30
0.0
 10
148.6108254362
 20
79.7416856862
 30
0.0
 10
148.6248446488
 20
78.6916218603
 30
0.0
 10
148.6437733737
 20
77.2257746035
 30
0.0
 10
148.6671594648
 20
75.3486844685
 30
0.0
 10
148.6949956932
 20
73.0885367878
 30
0.0
 10
148.7228728715
 20
70.8753490204
 30
0.0
 10
148.7507435906
 20
68.7870019059
 30
0.0
 10
148.778573862
 20
66.8974917601
 30
0.0
 10
148.8026956219
 20
65.4785714175
 30
0.0
 10
148.8226324298
 20
64.4927991694
 30
0.0
 10
148.8367449698
 20
63.8817762367
 30
0.0
 10
148.8508210914
 20
63.3647669177
 30
0.0
 10
148.8646754203
 20
62.9464982895
 30
0.0
 10
148.8784813364
 20
62.6308948324
 30
0.0
 10
148.889010897
 20
62.4551600281
 30
0.0
 10
148.8954522516
 20
62.3850846102
 30
0.0
  0
SPLINE
  5
4F3
100
AcDbEntity
  8
0
100
AcDbSpline
 62
7
  6
CONTINUOUS
 70
0
 71
3
 72
11
 73
7
 74
0
 42
0.0000001
 43
0.0000001
 44
0.0000000001
 40
0.0
 40
0.0
 40
0.0
 40
0.0
 40
0.3818726682
 40
0.6754077112
 40
0.8809440344
 40
1.0
 40
1.0
 40
1.0
 40
1.0
 10
148.8954522516
 20
62.3850846102
 30
0.0
 10
148.8967578108
 20
62.370881448
 30
0.0
 10
148.8992898177
 20
62.3458004817
 30
0.0
 10
148.9034179427
 20
62.3130838915
 30
0.0
 10
148.9076239832
 20
62.2905026563
 30
0.0
 10
148.9107238441
 20
62.2785592508
 30
0.0
 10
148.9129437949
 20
62.2747062541
 30
0.0
  0
SPLINE
  5
4F4
100
AcDbEntity
  8
GEOM
100
AcDbSpline
 62
7
  6
CONTINUOUS
 70
0
 71
3
 72
9
 73
5
 74
0
 42
0.0000001
 43
0.0000001
 44
0.0000000001
 40
0.0
 40
0.0
 40
0.0
 40
0.0
 40
0.5025986453
 40
1.0
 40
1.0
 40
1.0
 40
1.0
 10
137.2603562599
 20
80.5111236936
 30
0.0
 10
137.4317020929
 20
81.1085219692
 30
0.0
 10
137.705202824
 20
82.3182819921
 30
0.0
 10
137.8028273096
 20
83.5565121786
 30
0.0
 10
137.802821435
 20
84.1715708929
 30
0.0
  0
SPLINE
  5
4F5
100
AcDbEntity
  8
GEOM
100
AcDbSpline
 62
7
  6
CONTINUOUS
 70
0
 71
3
 72
10
 73
6
 74
0
 42
0.0000001
 43
0.0000001
 44
0.0000000001
 40
0.0
 40
0.0
 40
0.0
 40
0.0
 40
0.4976495462
 40
0.7476915895
 40
1.0
 40
1.0
 40
1.0
 40
1.0
 10
132.7968766314
 20
82.0440646403
 30
0.0
 10
132.7903227284
 20
81.7868756271
 30
0.0
 10
132.7694346739
 20
81.4001143742
 30
0.0
 10
132.692551978
 20
80.8884928884
 30
0.0
 10
132.6307524392
 20
80.6355992989
 30
0.0
 10
132.5917948794
 20
80.5111156712
 30
0.0
  0
SPLINE
  5
4F6
100
AcDbEntity
  8
GEOM
100
AcDbSpline
 62
7
  6
CONTINUOUS
 70
0
 71
3
 72
10
 73
6
 74
0
 42
0.0000001
 43
0.0000001
 44
0.0000000001
 40
0.0
 40
0.0
 40
0.0
 40
0.0
 40
0.252314829
 40
0.5023561935
 40
1.0
 40
1.0
 40
1.0
 40
1.0
 10
132.5917948794
 20
87.8334461415
 30
0.0
 10
132.6307530234
 20
87.7089592158
 30
0.0
 10
132.6925573142
 20
87.4560636276
 30
0.0
 10
132.7694300914
 20
86.9444404793
 30
0.0
 10
132.790322778
 20
86.5576832263
 30
0.0
 10
132.7968766314
 20
86.3004971724
 30
0.0
  0
SPLINE
  5
4F7
100
AcDbEntity
  8
0
100
AcDbSpline
 62
7
  6
CONTINUOUS
 70
0
 71
3
 72
9
 73
5
 74
0
 42
0.0000001
 43
0.0000001
 44
0.0000000001
 40
0.0
 40
0.0
 40
0.0
 40
0.0
 40
0.3529317837
 40
1.0
 40
1.0
 40
1.0
 40
1.0
 10
146.690804635
 20
61.2727859698
 30
0.0
 10
146.68854912
 20
61.2727859698
 30
0.0
 10
146.6831301257
 20
61.2778824981
 30
0.0
 10
146.6809381062
 20
61.2836383237
 30
0.0
 10
146.6794484663
 20
61.2874959812
 30
0.0
  0
SPLINE
  5
4F8
100
AcDbEntity
  8
0
100
AcDbSpline
 62
7
  6
CONTINUOUS
 70
0
 71
3
 72
45
 73
41
 74
0
 42
0.0000001
 43
0.0000001
 44
0.0000000001
 40
0.0
 40
0.0
 40
0.0
 40
0.0
 40
0.0007448939
 40
0.0017658096
 40
0.0046472793
 40
0.0086530077
 40
0.0137768063
 40
0.0200089416
 40
0.0273374424
 40
0.0357449609
 40
0.0452127838
 40
0.0672435727
 40
0.0932285337
 40
0.1229308113
 40
0.1560803821
 40
0.1923738474
 40
0.2314794579
 40
0.3166745423
 40
0.4085544638
 40
0.5037669058
 40
0.59883453
 40
0.6902880628
 40
0.7336077228
 40
0.7747894514
 40
0.8134556697
 40
0.8492535432
 40
0.8818563471
 40
0.9109649138
 40
0.9363143099
 40
0.9576742821
 40
0.9667952816
 40
0.9748498026
 40
0.9818192244
 40
0.9876877916
 40
0.9924446822
 40
0.9960807355
 40
0.9974771356
 40
0.9985933918
 40
0.9994320243
 40
1.0
 40
1.0
 40
1.0
 40
1.0
 10
146.6794484663
 20
61.2874959812
 30
0.0
 10
146.6771233105
 20
61.2935173387
 30
0.0
 10
146.6728864854
 20
61.3082645228
 30
0.0
 10
146.6645240127
 20
61.3476585415
 30
0.0
 10
146.65487272
 20
61.4155667173
 30
0.0
 10
146.6438086154
 20
61.5190471932
 30
0.0
 10
146.6326732611
 20
61.6517085366
 30
0.0
 10
146.6214241907
 20
61.8132232338
 30
0.0
 10
146.6101406156
 20
62.003251629
 30
0.0
 10
146.5988188255
 20
62.22135683
 30
0.0
 10
146.5828809024
 20
62.5667877189
 30
0.0
 10
146.5633818159
 20
63.0645208524
 30
0.0
 10
146.5408719363
 20
63.7375930605
 30
0.0
 10
146.5182942388
 20
64.5070571749
 30
0.0
 10
146.4956631563
 20
65.3658793168
 30
0.0
 10
146.4729963159
 20
66.3062084393
 30
0.0
 10
146.4418466263
 20
67.6974495597
 30
0.0
 10
146.4036212371
 20
69.5703210973
 30
0.0
 10
146.3588150962
 20
71.9293358958
 30
0.0
 10
146.3139593564
 20
74.373912615
 30
0.0
 10
146.2691003351
 20
76.8147937711
 30
0.0
 10
146.2311231635
 20
78.8060613726
 30
0.0
 10
146.2002729563
 20
80.3304436408
 30
0.0
 10
146.1775674598
 20
81.3974810244
 30
0.0
 10
146.1548807103
 20
82.3993250639
 30
0.0
 10
146.1322198185
 20
83.3268108528
 30
0.0
 10
146.1095954379
 20
84.1714512657
 30
0.0
 10
146.0870290081
 20
84.9255192872
 30
0.0
 10
146.0645341769
 20
85.5821178535
 30
0.0
 10
146.0450294922
 20
86.065514819
 30
0.0
 10
146.0290615232
 20
86.3990541445
 30
0.0
 10
146.0177511037
 20
86.6079723822
 30
0.0
 10
146.0064753475
 20
86.7886614564
 30
0.0
 10
145.9952666314
 20
86.9407204708
 30
0.0
 10
145.9841249113
 20
87.0637972022
 30
0.0
 10
145.9743679455
 20
87.148092011
 30
0.0
 10
145.9661521977
 20
87.2007337751
 30
0.0
 10
145.9606078622
 20
87.2292676005
 30
0.0
 10
145.9551265272
 20
87.2504087845
 30
0.0
 10
145.9508545125
 20
87.2619374862
 30
0.0
 10
145.9483955884
 20
87.2662008616
 30
0.0
  0
LINE
  5
4F9
100
AcDbEntity
  8
GEOM
100
AcDbLine
 62
7
  6
CONTINUOUS
 10
132.5254285583
 20
88.5466392518
 11
132.498018222
 21
88.5471998206
  0
SPLINE
  5
4FA
100
AcDbEntity
  8
GEOM
100
AcDbSpline
 62
7
  6
CONTINUOUS
 70
0
 71
3
 72
10
 73
6
 74
0
 42
0.0000001
 43
0.0000001
 44
0.0000000001
 40
0.0
 40
0.0
 40
0.0
 40
0.0
 40
0.5403911791
 40
0.7846618004
 40
1.0
 40
1.0
 40
1.0
 40
1.0
 10
137.2603541287
 20
79.4504554994
 30
0.0
 10
137.2270948339
 20
79.6397038638
 30
0.0
 10
137.1993753225
 20
79.9192620106
 30
0.0
 10
137.2155205282
 20
80.2749016496
 30
0.0
 10
137.2418868524
 20
80.4368159712
 30
0.0
 10
137.2603557859
 20
80.5111236936
 30
0.0
  0
SPLINE
  5
4FB
100
AcDbEntity
  8
0
100
AcDbSpline
 62
7
  6
CONTINUOUS
 70
0
 71
3
 72
9
 73
5
 74
0
 42
0.0000001
 43
0.0000001
 44
0.0000000001
 40
0.0
 40
0.0
 40
0.0
 40
0.0
 40
0.3530554698
 40
1.0
 40
1.0
 40
1.0
 40
1.0
 10
145.190804057
 20
61.2727859698
 30
0.0
 10
145.1885572859
 20
61.2727859698
 30
0.0
 10
145.1831582438
 20
61.2778550673
 30
0.0
 10
145.1809696271
 20
61.2835852997
 30
0.0
 10
145.1794835998
 20
61.2874247753
 30
0.0
  0
SPLINE
  5
4FC
100
AcDbEntity
  8
0
100
AcDbSpline
 62
7
  6
CONTINUOUS
 70
0
 71
3
 72
45
 73
41
 74
0
 42
0.0000001
 43
0.0000001
 44
0.0000000001
 40
0.0
 40
0.0
 40
0.0
 40
0.0
 40
0.0007436112
 40
0.0017632493
 40
0.0046421973
 40
0.0086454493
 40
0.0137668426
 40
0.0199966817
 40
0.0273229823
 40
0.0357283985
 40
0.0451942631
 40
0.0672214472
 40
0.0932032295
 40
0.1229029731
 40
0.1560510135
 40
0.1923435804
 40
0.2314486718
 40
0.3166437018
 40
0.408524515
 40
0.5037384012
 40
0.598809938
 40
0.6902679311
 40
0.7335902611
 40
0.7747750985
 40
0.8134444606
 40
0.8492448631
 40
0.8818494902
 40
0.9109596619
 40
0.9363105634
 40
0.9576718344
 40
0.9667933781
 40
0.9748483597
 40
0.9818182001
 40
0.9876871152
 40
0.9924442794
 40
0.9960805473
 40
0.9974770254
 40
0.998593338
 40
0.9994320068
 40
1.0
 40
1.0
 40
1.0
 40
1.0
 10
145.1794835998
 20
61.2874247753
 30
0.0
 10
145.1771577996
 20
61.2934339873
 30
0.0
 10
145.1729198056
 20
61.3081579805
 30
0.0
 10
145.1645526543
 20
61.3475060632
 30
0.0
 10
145.15489612
 20
61.4153590928
 30
0.0
 10
145.1438309461
 20
61.5187752129
 30
0.0
 10
145.1326966992
 20
61.6513746858
 30
0.0
 10
145.121449194
 20
61.8128300151
 30
0.0
 10
145.1101656771
 20
62.0028017079
 30
0.0
 10
145.0988432145
 20
62.2208532043
 30
0.0
 10
145.0829039537
 20
62.566218577
 30
0.0
 10
145.063404364
 20
63.0638773817
 30
0.0
 10
145.0408940078
 20
63.7368708083
 30
0.0
 10
145.0183153702
 20
64.5062744122
 30
0.0
 10
144.9956833295
 20
65.3650560842
 30
0.0
 10
144.9730154131
 20
66.305362447
 30
0.0
 10
144.9418641946
 20
67.6965949459
 30
0.0
 10
144.9036373038
 20
69.5694748236
 30
0.0
 10
144.8588298616
 20
71.9285164386
 30
0.0
 10
144.8139727986
 20
74.3731546115
 30
0.0
 10
144.7691123735
 20
76.8141281366
 30
0.0
 10
144.7311338725
 20
78.8054973863
 30
0.0
 10
144.700282405
 20
80.3299729398
 30
0.0
 10
144.6775757525
 20
81.3970908304
 30
0.0
 10
144.6548877309
 20
82.3990139578
 30
0.0
 10
144.6322258297
 20
83.3265674753
 30
0.0
 10
144.609600584
 20
84.1712620366
 30
0.0
 10
144.5870334135
 20
84.9253750667
 30
0.0
 10
144.5645378864
 20
85.5820138071
 30
0.0
 10
144.5450325569
 20
86.0654412348
 30
0.0
 10
144.5290640771
 20
86.3990015211
 30
0.0
 10
144.517753249
 20
86.6079327169
 30
0.0
 10
144.5064771598
 20
86.7886329672
 30
0.0
 10
144.4952681204
 20
86.9407014536
 30
0.0
 10
144.4841260184
 20
87.0637857956
 30
0.0
 10
144.4743687284
 20
87.1480857641
 30
0.0
 10
144.4661526256
 20
87.2007306947
 30
0.0
 10
144.4606080577
 20
87.229266073
 30
0.0
 10
144.4551265141
 20
87.2504082534
 30
0.0
 10
144.4508543612
 20
87.2619374479
 30
0.0
 10
144.4483953516
 20
87.2662009666
 30
0.0
  0
SPLINE
  5
4FD
100
AcDbEntity
  8
GEOM
100
AcDbSpline
 62
7
  6
CONTINUOUS
 70
0
 71
3
 72
11
 73
7
 74
0
 42
0.0000001
 43
0.0000001
 44
0.0000000001
 40
0.0
 40
0.0
 40
0.0
 40
0.0
 40
0.2167841181
 40
0.4604476103
 40
0.7248718619
 40
1.0
 40
1.0
 40
1.0
 40
1.0
 10
132.5917948794
 20
80.5111156712
 30
0.0
 10
132.5643826272
 20
80.4381221617
 30
0.0
 10
132.5178933779
 20
80.2782356838
 30
0.0
 10
132.4936430006
 20
80.0168971972
 30
0.0
 10
132.5218457659
 20
79.7352606468
 30
0.0
 10
132.566397538
 20
79.5460965458
 30
0.0
 10
132.5917948794
 20
79.4504554994
 30
0.0
  0
SPLINE
  5
4FE
100
AcDbEntity
  8
0
100
AcDbSpline
 62
7
  6
CONTINUOUS
 70
0
 71
3
 72
14
 73
10
 74
0
 42
0.0000001
 43
0.0000001
 44
0.0000000001
 40
0.0
 40
0.0
 40
0.0
 40
0.0
 40
0.3997448288
 40
0.562558953
 40
0.7003220423
 40
0.8129155688
 40
0.9002837171
 40
0.962486354
 40
1.0
 40
1.0
 40
1.0
 40
1.0
 10
143.4181546979
 20
61.94919814
 30
0.0
 10
143.4233324282
 20
61.8594353882
 30
0.0
 10
143.431244415
 20
61.7331396575
 30
0.0
 10
143.4435990365
 20
61.5761089393
 30
0.0
 10
143.452166083
 20
61.4835554175
 30
0.0
 10
143.4607094369
 20
61.4081044049
 30
0.0
 10
143.4690186648
 20
61.349621286
 30
0.0
 10
143.4773551795
 20
61.3085372677
 30
0.0
 10
143.4836949178
 20
61.2866720922
 30
0.0
 10
143.4879132288
 20
61.2793645229
 30
0.0
  0
SPLINE
  5
4FF
100
AcDbEntity
  8
0
100
AcDbSpline
 62
7
  6
CONTINUOUS
 70
0
 71
3
 72
9
 73
5
 74
0
 42
0.0000001
 43
0.0000001
 44
0.0000000001
 40
0.0
 40
0.0
 40
0.0
 40
0.0
 40
0.3529466473
 40
1.0
 40
1.0
 40
1.0
 40
1.0
 10
143.6908047337
 20
61.2727859698
 30
0.0
 10
143.6885556843
 20
61.2727859698
 30
0.0
 10
143.6831519045
 20
61.2778660042
 30
0.0
 10
143.6809627243
 20
61.2836036684
 30
0.0
 10
143.6794755829
 20
61.2874492954
 30
0.0
  0
SPLINE
  5
500
100
AcDbEntity
  8
0
100
AcDbSpline
 62
7
  6
CONTINUOUS
 70
0
 71
3
 72
22
 73
18
 74
0
 42
0.0000001
 43
0.0000001
 44
0.0000000001
 40
0.0
 40
0.0
 40
0.0
 40
0.0
 40
0.0039324234
 40
0.0098103802
 40
0.017654519
 40
0.0274673168
 40
0.0529604133
 40
0.0861930337
 40
0.127018336
 40
0.1752481292
 40
0.2306615327
 40
0.2929977431
 40
0.3619703562
 40
0.4372557608
 40
0.6053302855
 40
0.7940895382
 40
1.0
 40
1.0
 40
1.0
 40
1.0
 10
143.6794755829
 20
61.2874492954
 30
0.0
 10
143.6758879874
 20
61.296726526
 30
0.0
 10
143.6698362958
 20
61.3209086926
 30
0.0
 10
143.661993248
 20
61.3648421318
 30
0.0
 10
143.6540854758
 20
61.4238750748
 30
0.0
 10
143.6423516588
 20
61.5323840852
 30
0.0
 10
143.6284184593
 20
61.7052168552
 30
0.0
 10
143.6124934357
 20
61.9565188973
 30
0.0
 10
143.5964741101
 20
62.2654281497
 30
0.0
 10
143.5803546954
 20
62.6304954208
 30
0.0
 10
143.5641917807
 20
63.0500177959
 30
0.0
 10
143.5479915606
 20
63.522039754
 30
0.0
 10
143.5317681677
 20
64.0443522067
 30
0.0
 10
143.5092794924
 20
64.834052921
 30
0.0
 10
143.4816233557
 20
65.926716366
 30
0.0
 10
143.4494156771
 20
67.3497693945
 30
0.0
 10
143.4286689238
 20
68.3478397685
 30
0.0
 10
143.4181546979
 20
68.868567685
 30
0.0
  0
SPLINE
  5
501
100
AcDbEntity
  8
GEOM
100
AcDbSpline
 62
7
  6
CONTINUOUS
 70
0
 71
3
 72
10
 73
6
 74
0
 42
0.0000001
 43
0.0000001
 44
0.0000000001
 40
0.0
 40
0.0
 40
0.0
 40
0.0
 40
0.2500347767
 40
0.5000679694
 40
1.0
 40
1.0
 40
1.0
 40
1.0
 10
137.8026362387
 20
74.2633977074
 30
0.0
 10
137.8028065759
 20
74.6987030463
 30
0.0
 10
137.7793430763
 20
75.5695335842
 30
0.0
 10
137.63870591
 20
77.3054237109
 30
0.0
 10
137.4333544637
 20
78.5974507402
 30
0.0
 10
137.2603541287
 20
79.4504554994
 30
0.0
  0
SPLINE
  5
502
100
AcDbEntity
  8
GEOM
100
AcDbSpline
 62
7
  6
CONTINUOUS
 70
0
 71
3
 72
10
 73
6
 74
0
 42
0.0000001
 43
0.0000001
 44
0.0000000001
 40
0.0
 40
0.0
 40
0.0
 40
0.0
 40
0.4999331694
 40
0.749966016
 40
1.0
 40
1.0
 40
1.0
 40
1.0
 10
137.2603541287
 20
69.0951164401
 30
0.0
 10
137.4327333998
 20
69.9450589087
 30
0.0
 10
137.6375460888
 20
71.2323943221
 30
0.0
 10
137.7784865053
 20
72.9619775885
 30
0.0
 10
137.8024681375
 20
73.829657478
 30
0.0
 10
137.8026362387
 20
74.2633977074
 30
0.0
  0
SPLINE
  5
503
100
AcDbEntity
  8
GEOM
100
AcDbSpline
 62
7
  6
CONTINUOUS
 70
0
 71
3
 72
10
 73
6
 74
0
 42
0.0000001
 43
0.0000001
 44
0.0000000001
 40
0.0
 40
0.0
 40
0.0
 40
0.0
 40
0.4999961025
 40
0.7500116996
 40
1.0
 40
1.0
 40
1.0
 40
1.0
 10
132.7968766314
 20
71.2630336626
 30
0.0
 10
132.7903287037
 20
70.8996451011
 30
0.0
 10
132.7695775615
 20
70.3542941295
 30
0.0
 10
132.6928402134
 20
69.6311818025
 30
0.0
 10
132.6310573805
 20
69.2725408197
 30
0.0
 10
132.5917948794
 20
69.0951164401
 30
0.0
  0
SPLINE
  5
504
100
AcDbEntity
  8
0
100
AcDbSpline
 62
7
  6
CONTINUOUS
 70
0
 71
3
 72
44
 73
40
 74
0
 42
0.0000001
 43
0.0000001
 44
0.0000000001
 40
0.0
 40
0.0
 40
0.0
 40
0.0
 40
0.0002785549
 40
0.0007717159
 40
0.00256064
 40
0.0054684647
 40
0.0095044373
 40
0.0146631495
 40
0.0209344714
 40
0.0283067611
 40
0.0367631824
 40
0.0462838968
 40
0.0568486633
 40
0.0810102217
 40
0.1090270013
 40
0.1406413364
 40
0.1755647519
 40
0.2134756284
 40
0.2540258109
 40
0.2968436912
 40
0.3415349217
 40
0.3876894259
 40
0.4826820897
 40
0.5783380713
 40
0.6711496844
 40
0.757713694
 40
0.7976483625
 40
0.8348558424
 40
0.868994211
 40
0.8997493139
 40
0.9268406175
 40
0.9500188061
 40
0.9690725648
 40
0.9769979488
 40
0.9838310671
 40
0.9895562273
 40
0.994163486
 40
0.9976451947
 40
1.0
 40
1.0
 40
1.0
 40
1.0
 10
148.7681546979
 20
62.2727859698
 30
0.0
 10
148.7659271998
 20
62.2727859698
 30
0.0
 10
148.7605579982
 20
62.2773986502
 30
0.0
 10
148.7525001079
 20
62.2958717163
 30
0.0
 10
148.7426837806
 20
62.336778695
 30
0.0
 10
148.7320741423
 20
62.4055558463
 30
0.0
 10
148.7209838643
 20
62.501829303
 30
0.0
 10
148.7098212786
 20
62.6249623508
 30
0.0
 10
148.6985474865
 20
62.7749143152
 30
0.0
 10
148.6872371826
 20
62.9512746887
 30
0.0
 10
148.6758912211
 20
63.1536701081
 30
0.0
 10
148.6645221709
 20
63.3816261403
 30
0.0
 10
148.6486254495
 20
63.7350970162
 30
0.0
 10
148.6291048897
 20
64.2364539847
 30
0.0
 10
148.606502963
 20
64.906132783
 30
0.0
 10
148.583843727
 20
65.6619114221
 30
0.0
 10
148.5611417996
 20
66.496839801
 30
0.0
 10
148.5384108112
 20
67.4032481228
 30
0.0
 10
148.5156587065
 20
68.3728033518
 30
0.0
 10
148.4928926077
 20
69.3965922139
 30
0.0
 10
148.4701148861
 20
70.4652070001
 30
0.0
 10
148.4394421827
 20
71.9509699347
 30
0.0
 10
148.4016326767
 20
73.8442178088
 30
0.0
 10
148.3566719384
 20
76.1104964163
 30
0.0
 10
148.3117554845
 20
78.3093616564
 30
0.0
 10
148.2734804643
 20
80.0626868318
 30
0.0
 10
148.2423077861
 20
81.3714123923
 30
0.0
 10
148.2195817565
 20
82.2609909299
 30
0.0
 10
148.1968899192
 20
83.0771392114
 30
0.0
 10
148.1742403832
 20
83.8123591528
 30
0.0
 10
148.151669023
 20
84.4598919073
 30
0.0
 10
148.129188218
 20
85.0137902955
 30
0.0
 10
148.1096219892
 20
85.4144123886
 30
0.0
 10
148.093504197
 20
85.6843171262
 30
0.0
 10
148.0822151539
 20
85.8477335368
 30
0.0
 10
148.0709691555
 20
85.9845363807
 30
0.0
 10
148.0598810882
 20
86.0944736048
 30
0.0
 10
148.0488803645
 20
86.1772367986
 30
0.0
 10
148.0404214032
 20
86.2232445181
 30
0.0
 10
148.0354219523
 20
86.2413992079
 30
0.0
  0
SPLINE
  5
505
100
AcDbEntity
  8
0
100
AcDbSpline
 62
7
  6
CONTINUOUS
 70
0
 71
3
 72
9
 73
5
 74
0
 42
0.0000001
 43
0.0000001
 44
0.0000000001
 40
0.0
 40
0.0
 40
0.0
 40
0.0
 40
0.3087190648
 40
1.0
 40
1.0
 40
1.0
 40
1.0
 10
148.0354219523
 20
86.2413992079
 30
0.0
 10
148.0347139583
 20
86.2439701724
 30
0.0
 10
148.0322700709
 20
86.2522386975
 30
0.0
 10
148.0293642082
 20
86.2604818984
 30
0.0
 10
148.0263780605
 20
86.2656527667
 30
0.0
  0
SPLINE
  5
506
100
AcDbEntity
  8
GEOM
100
AcDbSpline
 62
7
  6
CONTINUOUS
 70
0
 71
3
 72
10
 73
6
 74
0
 42
0.0000001
 43
0.0000001
 44
0.0000000001
 40
0.0
 40
0.0
 40
0.0
 40
0.0
 40
0.2500103265
 40
0.5000198126
 40
1.0
 40
1.0
 40
1.0
 40
1.0
 10
132.5917948794
 20
79.4504554994
 30
0.0
 10
132.6310583329
 20
79.2730149314
 30
0.0
 10
132.6928443825
 20
78.9143628744
 30
0.0
 10
132.7695797146
 20
78.1912501987
 30
0.0
 10
132.7903289061
 20
77.6459152735
 30
0.0
 10
132.7968766314
 20
77.2825382769
 30
0.0
  0
SPLINE
  5
507
100
AcDbEntity
  8
0
100
AcDbSpline
 62
7
  6
CONTINUOUS
 70
0
 71
3
 72
47
 73
43
 74
0
 42
0.0000001
 43
0.0000001
 44
0.0000000001
 40
0.0
 40
0.0
 40
0.0
 40
0.0
 40
0.0002825136
 40
0.0007854456
 40
0.0026154841
 40
0.0055919188
 40
0.0097215255
 40
0.015001127
 40
0.0214198289
 40
0.0289628983
 40
0.0376147681
 40
0.0473551937
 40
0.0581605134
 40
0.0828661177
 40
0.1114990205
 40
0.1437918765
 40
0.1794404009
 40
0.2181087353
 40
0.2594341181
 40
0.3030265835
 40
0.3484758902
 40
0.3953545573
 40
0.4916235327
 40
0.5882159692
 40
0.6815019428
 40
0.7258013293
 40
0.7679764416
 40
0.8076302579
 40
0.8443903752
 40
0.877909609
 40
0.9078735645
 40
0.934001196
 40
0.956045949
 40
0.9654725423
 40
0.973803856
 40
0.9810219918
 40
0.9871112867
 40
0.9920573006
 40
0.9958521058
 40
0.9984940395
 40
0.9993860775
 40
1.0
 40
1.0
 40
1.0
 40
1.0
 10
147.2681549277
 20
62.2728003296
 30
0.0
 10
147.265893333
 20
62.2727984082
 30
0.0
 10
147.2604403434
 20
62.2775365074
 30
0.0
 10
147.2522994064
 20
62.2964512927
 30
0.0
 10
147.2423603854
 20
62.3383813789
 30
0.0
 10
147.2316342408
 20
62.4088512174
 30
0.0
 10
147.2204006463
 20
62.507500192
 30
0.0
 10
147.2091029836
 20
62.63366214
 30
0.0
 10
147.1976906828
 20
62.7872918745
 30
0.0
 10
147.186238104
 20
62.9679542073
 30
0.0
 10
147.1747522713
 20
63.1752591844
 30
0.0
 10
147.1632451075
 20
63.4087108785
 30
0.0
 10
147.1471522656
 20
63.7706035187
 30
0.0
 10
147.1273951404
 20
64.2837154429
 30
0.0
 10
147.1045133063
 20
64.9688367925
 30
0.0
 10
147.0815769864
 20
65.7416004275
 30
0.0
 10
147.0585954815
 20
66.5947305238
 30
0.0
 10
147.0355847863
 20
67.5201915847
 30
0.0
 10
147.0125539046
 20
68.5092637007
 30
0.0
 10
146.9895077543
 20
69.5526327768
 30
0.0
 10
146.9664506508
 20
70.6404674409
 30
0.0
 10
146.9354250914
 20
72.1499169051
 30
0.0
 10
146.8971915202
 20
74.06871855
 30
0.0
 10
146.8516948116
 20
76.3589517381
 30
0.0
 10
146.8132033484
 20
78.2332119134
 30
0.0
 10
146.781930091
 20
79.6719021529
 30
0.0
 10
146.7588925204
 20
80.681329917
 30
0.0
 10
146.7358735803
 20
81.6303877357
 30
0.0
 10
146.7128816991
 20
82.5101319731
 30
0.0
 10
146.6899249886
 20
83.3122785969
 30
0.0
 10
146.667026415
 20
84.0292731979
 30
0.0
 10
146.6442029422
 20
84.6543609844
 30
0.0
 10
146.6244110513
 20
85.1150369838
 30
0.0
 10
146.6082197566
 20
85.4332582029
 30
0.0
 10
146.5967384236
 20
85.6328690535
 30
0.0
 10
146.5853006124
 20
85.805720365
 30
0.0
 10
146.5739038948
 20
85.9513961455
 30
0.0
 10
146.5626521885
 20
86.0696090819
 30
0.0
 10
146.5514522175
 20
86.1600100504
 30
0.0
 10
146.5417523591
 20
86.2179949202
 30
0.0
 10
146.5331785069
 20
86.2500557768
 30
0.0
 10
146.5288374612
 20
86.2614062956
 30
0.0
 10
146.5263775753
 20
86.2656609831
 30
0.0
  0
SPLINE
  5
508
100
AcDbEntity
  8
GEOM
100
AcDbSpline
 62
7
  6
CONTINUOUS
 70
0
 71
3
 72
10
 73
6
 74
0
 42
0.0000001
 43
0.0000001
 44
0.0000000001
 40
0.0
 40
0.0
 40
0.0
 40
0.0
 40
0.2152953995
 40
0.4595904456
 40
1.0
 40
1.0
 40
1.0
 40
1.0
 10
137.2603555432
 20
68.034449612
 30
0.0
 10
137.241889637
 20
68.1087422948
 30
0.0
 10
137.2155236028
 20
68.2706496584
 30
0.0
 10
137.1993731413
 20
68.6262886534
 30
0.0
 10
137.227093736
 20
68.9058619078
 30
0.0
 10
137.2603541287
 20
69.0951164401
 30
0.0
  0
SPLINE
  5
509
100
AcDbEntity
  8
GEOM
100
AcDbSpline
 62
7
  6
CONTINUOUS
 70
0
 71
3
 72
11
 73
7
 74
0
 42
0.0000001
 43
0.0000001
 44
0.0000000001
 40
0.0
 40
0.0
 40
0.0
 40
0.0
 40
0.2751151316
 40
0.539540002
 40
0.783205586
 40
1.0
 40
1.0
 40
1.0
 40
1.0
 10
132.5917948794
 20
69.0951164401
 30
0.0
 10
132.5663986161
 20
68.9994799459
 30
0.0
 10
132.5218482648
 20
68.8103201927
 30
0.0
 10
132.4936423464
 20
68.5286877082
 30
0.0
 10
132.5178916662
 20
68.2673443268
 30
0.0
 10
132.564381428
 20
68.1074532845
 30
0.0
 10
132.5917948794
 20
68.0344562683
 30
0.0
  0
SPLINE
  5
50A
100
AcDbEntity
  8
GEOM
100
AcDbSpline
 62
7
  6
CONTINUOUS
 70
0
 71
3
 72
10
 73
6
 74
0
 42
0.0000001
 43
0.0000001
 44
0.0000000001
 40
0.0
 40
0.0
 40
0.0
 40
0.0
 40
0.2484340415
 40
0.4975819768
 40
1.0
 40
1.0
 40
1.0
 40
1.0
 10
137.8026806593
 20
64.3733423114
 30
0.0
 10
137.8026764567
 20
64.6807041086
 30
0.0
 10
137.7788031835
 20
65.2966023426
 30
0.0
 10
137.63731929
 20
66.5265455804
 30
0.0
 10
137.4317307633
 20
67.4369508692
 30
0.0
 10
137.2603559281
 20
68.034449612
 30
0.0
  0
SPLINE
  5
50B
100
AcDbEntity
  8
0
100
AcDbSpline
 62
7
  6
CONTINUOUS
 70
0
 71
3
 72
9
 73
5
 74
0
 42
0.0000001
 43
0.0000001
 44
0.0000000001
 40
0.0
 40
0.0
 40
0.0
 40
0.0
 40
0.2037897045
 40
1.0
 40
1.0
 40
1.0
 40
1.0
 10
145.9099313429
 20
62.279920055
 30
0.0
 10
145.9093211028
 20
62.2809764922
 30
0.0
 10
145.906576383
 20
62.2863043179
 30
0.0
 10
145.9045785783
 20
62.2919801384
 30
0.0
 10
145.9031396957
 20
62.2965244255
 30
0.0
  0
SPLINE
  5
50C
100
AcDbEntity
  8
0
100
AcDbSpline
 62
7
  6
CONTINUOUS
 70
0
 71
3
 72
44
 73
40
 74
0
 42
0.0000001
 43
0.0000001
 44
0.0000000001
 40
0.0
 40
0.0
 40
0.0
 40
0.0
 40
0.0021421986
 40
0.0054162242
 40
0.0098230897
 40
0.0153561201
 40
0.0220059647
 40
0.0297573169
 40
0.0484921806
 40
0.0713919216
 40
0.0982466839
 40
0.1288077876
 40
0.1627947416
 40
0.1998929985
 40
0.2397594266
 40
0.3263031196
 40
0.4192328333
 40
0.5151201349
 40
0.6104272526
 40
0.6567599673
 40
0.7016376263
 40
0.7446460064
 40
0.7853866265
 40
0.8234835924
 40
0.8585852145
 40
0.8903660083
 40
0.9185341087
 40
0.9428293039
 40
0.9534530381
 40
0.9630275638
 40
0.9715321134
 40
0.9789462866
 40
0.9852536312
 40
0.9904421469
 40
0.9945011232
 40
0.9974255856
 40
0.9992246824
 40
0.9997203854
 40
1.0
 40
1.0
 40
1.0
 40
1.0
 10
145.9031396957
 20
62.2965244255
 30
0.0
 10
145.8979669306
 20
62.3128610819
 30
0.0
 10
145.8895181239
 20
62.3555112528
 30
0.0
 10
145.878506506
 20
62.4332661386
 30
0.0
 10
145.8674337268
 20
62.5384290005
 30
0.0
 10
145.8561630257
 20
62.6706491169
 30
0.0
 10
145.8448519693
 20
62.8297147627
 30
0.0
 10
145.8286611775
 20
63.0942854763
 30
0.0
 10
145.8090352268
 20
63.4888613191
 30
0.0
 10
145.7864984913
 20
64.0362654527
 30
0.0
 10
145.7638675991
 20
64.6783367374
 30
0.0
 10
145.7411542434
 20
65.4091415952
 30
0.0
 10
145.7183968382
 20
66.2219210801
 30
0.0
 10
145.6956039637
 20
67.1091617959
 30
0.0
 10
145.6643224536
 20
68.4167369565
 30
0.0
 10
145.6259233606
 20
70.1708782198
 30
0.0
 10
145.5808764517
 20
72.3731042435
 30
0.0
 10
145.5357831931
 20
74.645444454
 30
0.0
 10
145.4978676053
 20
76.5451114899
 30
0.0
 10
145.4671069738
 20
78.0367994773
 30
0.0
 10
145.444259607
 20
79.1102094204
 30
0.0
 10
145.4214238515
 20
80.1388764206
 30
0.0
 10
145.3986022479
 20
81.1132891237
 30
0.0
 10
145.3758015464
 20
82.0244356588
 30
0.0
 10
145.3530301739
 20
82.8638867548
 30
0.0
 10
145.330301745
 20
83.6238837604
 30
0.0
 10
145.3076301428
 20
84.2973958367
 30
0.0
 10
145.2880506235
 20
84.8016704348
 30
0.0
 10
145.2721052481
 20
85.1572298445
 30
0.0
 10
145.2607017379
 20
85.3865487564
 30
0.0
 10
145.2493213721
 20
85.5901619495
 30
0.0
 10
145.2379752907
 20
85.767589034
 30
0.0
 10
145.2266654887
 20
85.9184524984
 30
0.0
 10
145.2154694387
 20
86.0423368523
 30
0.0
 10
145.2043444421
 20
86.1391987964
 30
0.0
 10
145.1937092364
 20
86.2083961808
 30
0.0
 10
145.1838615296
 20
86.2495558876
 30
0.0
 10
145.1757850885
 20
86.2681428294
 30
0.0
 10
145.1703912131
 20
86.2727867219
 30
0.0
 10
145.1681544994
 20
86.2727850515
 30
0.0
  0
SPLINE
  5
50D
100
AcDbEntity
  8
GEOM
100
AcDbSpline
 62
7
  6
CONTINUOUS
 70
0
 71
3
 72
10
 73
6
 74
0
 42
0.0000001
 43
0.0000001
 44
0.0000000001
 40
0.0
 40
0.0
 40
0.0
 40
0.0
 40
0.5024233348
 40
0.7515696754
 40
1.0
 40
1.0
 40
1.0
 40
1.0
 10
137.2603541287
 20
60.712125798
 30
0.0
 10
137.4317356273
 20
61.3096484741
 30
0.0
 10
137.637331776
 20
62.220085641
 30
0.0
 10
137.7788057142
 20
63.4500662117
 30
0.0
 10
137.8026840294
 20
64.0659760782
 30
0.0
 10
137.8026806593
 20
64.3733423114
 30
0.0
  0
SPLINE
  5
50E
100
AcDbEntity
  8
0
100
AcDbSpline
 62
7
  6
CONTINUOUS
 70
0
 71
3
 72
16
 73
12
 74
0
 42
0.0000001
 43
0.0000001
 44
0.0000000001
 40
0.0
 40
0.0
 40
0.0
 40
0.0
 40
0.0119182731
 40
0.030422601
 40
0.0876970598
 40
0.1722030949
 40
0.2839551191
 40
0.4228742281
 40
0.5887184021
 40
0.781193375
 40
1.0
 40
1.0
 40
1.0
 40
1.0
 10
147.9623640956
 20
61.3235901835
 30
0.0
 10
147.9611151429
 20
61.3257498146
 30
0.0
 10
147.9590550069
 20
61.3318507228
 30
0.0
 10
147.9549152727
 20
61.349702827
 30
0.0
 10
147.9503522694
 20
61.3830238831
 30
0.0
 10
147.9450074859
 20
61.4357954948
 30
0.0
 10
147.9396627847
 20
61.5057709454
 30
0.0
 10
147.9342306269
 20
61.5927840218
 30
0.0
 10
147.9287846807
 20
61.6967282627
 30
0.0
 10
147.9233183999
 20
61.8174104178
 30
0.0
 10
147.9198885142
 20
61.9034334532
 30
0.0
 10
147.9181546979
 20
61.9492019509
 30
0.0
  0
SPLINE
  5
50F
100
AcDbEntity
  8
0
100
AcDbSpline
 62
7
  6
CONTINUOUS
 70
0
 71
3
 72
9
 73
5
 74
0
 42
0.0000001
 43
0.0000001
 44
0.0000000001
 40
0.0
 40
0.0
 40
0.0
 40
0.0
 40
0.2121443245
 40
1.0
 40
1.0
 40
1.0
 40
1.0
 10
147.4099319235
 20
62.2799078917
 30
0.0
 10
147.4094641763
 20
62.2807169723
 30
0.0
 10
147.4074009418
 20
62.2846126944
 30
0.0
 10
147.4057925294
 20
62.2887322045
 30
0.0
 10
147.4046411844
 20
62.2920064086
 30
0.0
  0
SPLINE
  5
510
100
AcDbEntity
  8
0
100
AcDbSpline
 62
7
  6
CONTINUOUS
 70
0
 71
3
 72
44
 73
40
 74
0
 42
0.0000001
 43
0.0000001
 44
0.0000000001
 40
0.0
 40
0.0
 40
0.0
 40
0.0
 40
0.0020014428
 40
0.0051360937
 40
0.0094080687
 40
0.0148132927
 40
0.0213401127
 40
0.0289739895
 40
0.0474957761
 40
0.070208339
 40
0.0969037977
 40
0.1273352663
 40
0.16121976
 40
0.198244513
 40
0.2380652683
 40
0.3245945097
 40
0.417602841
 40
0.5136450805
 40
0.6091630256
 40
0.6556153659
 40
0.7006183263
 40
0.7437541165
 40
0.7846230943
 40
0.8228449068
 40
0.8580657056
 40
0.8899591696
 40
0.9182283414
 40
0.9426131488
 40
0.9532765293
 40
0.9628880107
 40
0.9714242087
 40
0.9788662774
 40
0.9851987238
 40
0.9904067857
 40
0.9944806962
 40
0.9974172771
 40
0.9992230107
 40
0.9997198535
 40
1.0
 40
1.0
 40
1.0
 40
1.0
 10
147.4046411844
 20
62.2920064086
 30
0.0
 10
147.3993291167
 20
62.3071129086
 30
0.0
 10
147.3909133554
 20
62.3475393241
 30
0.0
 10
147.3798814096
 20
62.4219252692
 30
0.0
 10
147.3688267081
 20
62.5238908536
 30
0.0
 10
147.3575417591
 20
62.6530333389
 30
0.0
 10
147.3462160449
 20
62.809177422
 30
0.0
 10
147.3299737484
 20
63.0701607764
 30
0.0
 10
147.3103117139
 20
63.4606666294
 30
0.0
 10
147.2877363629
 20
64.0036964802
 30
0.0
 10
147.2650657932
 20
64.6420818284
 30
0.0
 10
147.2423112494
 20
65.3698968286
 30
0.0
 10
147.2195091497
 20
66.1803897307
 30
0.0
 10
147.1966721007
 20
67.0660307951
 30
0.0
 10
147.1653182761
 20
68.3727931836
 30
0.0
 10
147.1268360991
 20
70.1274272732
 30
0.0
 10
147.0817023784
 20
72.3318400339
 30
0.0
 10
147.0365208911
 20
74.6081836027
 30
0.0
 10
146.9985346515
 20
76.5121088714
 30
0.0
 10
146.9677153624
 20
78.0077375812
 30
0.0
 10
146.9448219232
 20
79.0843383261
 30
0.0
 10
146.921939103
 20
80.1162571724
 30
0.0
 10
146.8990717293
 20
81.0939074288
 30
0.0
 10
146.8762246346
 20
82.0082131657
 30
0.0
 10
146.8534059797
 20
82.8506837901
 30
0.0
 10
146.8306329236
 20
83.6134945151
 30
0.0
 10
146.8079137269
 20
84.289566617
 30
0.0
 10
146.7882956448
 20
84.795783686
 30
0.0
 10
146.7723166748
 20
85.1527431411
 30
0.0
 10
146.7608919071
 20
85.3829735601
 30
0.0
 10
146.7494872288
 20
85.5873990327
 30
0.0
 10
146.7381163354
 20
85.7655382999
 30
0.0
 10
146.726786405
 20
85.9170123127
 30
0.0
 10
146.7155672356
 20
86.0413977476
 30
0.0
 10
146.704415832
 20
86.1386517978
 30
0.0
 10
146.6937611437
 20
86.2081315561
 30
0.0
 10
146.6839009092
 20
86.2494621795
 30
0.0
 10
146.6758021972
 20
86.2681167303
 30
0.0
 10
146.6703959892
 20
86.2727711268
 30
0.0
 10
146.6681545772
 20
86.272770127
 30
0.0
  0
SPLINE
  5
511
100
AcDbEntity
  8
GEOM
100
AcDbSpline
 62
7
  6
CONTINUOUS
 70
0
 71
3
 72
10
 73
6
 74
0
 42
0.0000001
 43
0.0000001
 44
0.0000000001
 40
0.0
 40
0.0
 40
0.0
 40
0.0
 40
0.4976385178
 40
0.7476765281
 40
1.0
 40
1.0
 40
1.0
 40
1.0
 10
132.7968766314
 20
62.2450747671
 30
0.0
 10
132.7903229456
 20
61.9878918244
 30
0.0
 10
132.7694312966
 20
61.6011395393
 30
0.0
 10
132.6925581105
 20
61.0895172338
 30
0.0
 10
132.6307540737
 20
60.8366192132
 30
0.0
 10
132.5917954518
 20
60.7121279572
 30
0.0
  0
SPLINE
  5
512
100
AcDbEntity
  8
GEOM
100
AcDbSpline
 62
7
  6
CONTINUOUS
 70
0
 71
3
 72
9
 73
5
 74
0
 42
0.0000001
 43
0.0000001
 44
0.0000000001
 40
0.0
 40
0.0
 40
0.0
 40
0.0
 40
0.4979876095
 40
1.0
 40
1.0
 40
1.0
 40
1.0
 10
137.9181556675
 20
85.2862814093
 30
0.0
 10
137.8772893248
 20
85.7069294763
 30
0.0
 10
137.7521625087
 20
86.5478916551
 30
0.0
 10
137.5506191978
 20
87.3734214752
 30
0.0
 10
137.4335592095
 20
87.7830684492
 30
0.0
  0
SPLINE
  5
513
100
AcDbEntity
  8
GEOM
100
AcDbSpline
 62
7
  6
CONTINUOUS
 70
0
 71
3
 72
15
 73
11
 74
0
 42
0.0000001
 43
0.0000001
 44
0.0000000001
 40
0.0
 40
0.0
 40
0.0
 40
0.0
 40
0.2133033273
 40
0.4019982085
 40
0.5639131821
 40
0.6977176917
 40
0.8032659434
 40
0.8827384949
 40
0.9432321722
 40
1.0
 40
1.0
 40
1.0
 40
1.0
 10
137.4335592095
 20
87.7830684492
 30
0.0
 10
137.4254772589
 20
87.8113514871
 30
0.0
 10
137.4111662964
 20
87.8649269128
 30
0.0
 10
137.3945361277
 20
87.940928667
 30
0.0
 10
137.3842055335
 20
88.0069784219
 30
0.0
 10
137.3802271466
 20
88.0622694785
 30
0.0
 10
137.3827293036
 20
88.1063334189
 30
0.0
 10
137.3914928893
 20
88.1394310999
 30
0.0
 10
137.4089500739
 20
88.1619363473
 30
0.0
 10
137.4257312574
 20
88.166325917
 30
0.0
 10
137.4335592095
 20
88.1664129317
 30
0.0
  0
LINE
  5
514
100
AcDbEntity
  8
GEOM
100
AcDbLine
 62
7
  6
CONTINUOUS
 10
137.4335592095
 20
88.1664129317
 11
137.9181547006
 21
88.17204264
  0
SPLINE
  5
515
100
AcDbEntity
  8
GEOM
100
AcDbSpline
 62
7
  6
CONTINUOUS
 70
0
 71
3
 72
9
 73
5
 74
0
 42
0.0000001
 43
0.0000001
 44
0.0000000001
 40
0.0
 40
0.0
 40
0.0
 40
0.0
 40
0.5023114888
 40
1.0
 40
1.0
 40
1.0
 40
1.0
 10
137.4335592095
 20
80.4110591704
 30
0.0
 10
137.5505691511
 20
80.8223513099
 30
0.0
 10
137.7520084242
 20
81.650587312
 30
0.0
 10
137.8772563261
 20
82.4941674269
 30
0.0
 10
137.9181556512
 20
82.9158658386
 30
0.0
  0
SPLINE
  5
516
100
AcDbEntity
  8
GEOM
100
AcDbSpline
 62
7
  6
CONTINUOUS
 70
0
 71
3
 72
9
 73
5
 74
0
 42
0.0000001
 43
0.0000001
 44
0.0000000001
 40
0.0
 40
0.0
 40
0.0
 40
0.0
 40
0.4999936263
 40
1.0
 40
1.0
 40
1.0
 40
1.0
 10
137.9181547501
 20
75.9502881383
 30
0.0
 10
137.8773929531
 20
76.5439258084
 30
0.0
 10
137.7529626864
 20
77.7285941519
 30
0.0
 10
137.5511632464
 20
78.9022702964
 30
0.0
 10
137.4335592095
 20
79.4855837217
 30
0.0
  0
SPLINE
  5
517
100
AcDbEntity
  8
GEOM
100
AcDbSpline
 62
7
  6
CONTINUOUS
 70
0
 71
3
 72
10
 73
6
 74
0
 42
0.0000001
 43
0.0000001
 44
0.0000000001
 40
0.0
 40
0.0
 40
0.0
 40
0.0
 40
0.5398841906
 40
0.7841095865
 40
1.0
 40
1.0
 40
1.0
 40
1.0
 10
137.4335592095
 20
79.4855837217
 30
0.0
 10
137.4003986428
 20
79.6500701387
 30
0.0
 10
137.3725418512
 20
79.8943845181
 30
0.0
 10
137.388766427
 20
80.205272045
 30
0.0
 10
137.4151997141
 20
80.3465211609
 30
0.0
 10
137.4335592095
 20
80.4110591704
 30
0.0
  0
SPLINE
  5
518
100
AcDbEntity
  8
GEOM
100
AcDbSpline
 62
7
  6
CONTINUOUS
 70
0
 71
3
 72
9
 73
5
 74
0
 42
0.0000001
 43
0.0000001
 44
0.0000000001
 40
0.0
 40
0.0
 40
0.0
 40
0.0
 40
0.5000067167
 40
1.0
 40
1.0
 40
1.0
 40
1.0
 10
137.4335592095
 20
69.0599882178
 30
0.0
 10
137.5511690823
 20
69.6433305715
 30
0.0
 10
137.7529822624
 20
70.8170639815
 30
0.0
 10
137.8773941764
 20
72.0017928669
 30
0.0
 10
137.918154734
 20
72.5954593837
 30
0.0
  0
SPLINE
  5
519
100
AcDbEntity
  8
GEOM
100
AcDbSpline
 62
7
  6
CONTINUOUS
 70
0
 71
3
 72
9
 73
5
 74
0
 42
0.0000001
 43
0.0000001
 44
0.0000000001
 40
0.0
 40
0.0
 40
0.0
 40
0.0
 40
0.4977108761
 40
1.0
 40
1.0
 40
1.0
 40
1.0
 10
137.9181549644
 20
65.6285261225
 30
0.0
 10
137.8772531023
 20
66.0504379601
 30
0.0
 10
137.7521963687
 20
66.894440191
 30
0.0
 10
137.5506174943
 20
67.7230510065
 30
0.0
 10
137.4335592095
 20
68.1345127691
 30
0.0
  0
SPLINE
  5
51A
100
AcDbEntity
  8
GEOM
100
AcDbSpline
 62
7
  6
CONTINUOUS
 70
0
 71
3
 72
10
 73
6
 74
0
 42
0.0000001
 43
0.0000001
 44
0.0000000001
 40
0.0
 40
0.0
 40
0.0
 40
0.0
 40
0.2158459648
 40
0.4600967055
 40
1.0
 40
1.0
 40
1.0
 40
1.0
 10
137.4335592095
 20
68.1345127691
 30
0.0
 10
137.4152032683
 20
68.1990374187
 30
0.0
 10
137.3887692507
 20
68.3402800928
 30
0.0
 10
137.3725398991
 20
68.6511675492
 30
0.0
 10
137.4003972475
 20
68.8954960455
 30
0.0
 10
137.4335592095
 20
69.0599882178
 30
0.0
  0
SPLINE
  5
51B
100
AcDbEntity
  8
GEOM
100
AcDbSpline
 62
7
  6
CONTINUOUS
 70
0
 71
3
 72
9
 73
5
 74
0
 42
0.0000001
 43
0.0000001
 44
0.0000000001
 40
0.0
 40
0.0
 40
0.0
 40
0.0
 40
0.5020209854
 40
1.0
 40
1.0
 40
1.0
 40
1.0
 10
137.4335592095
 20
60.7625034903
 30
0.0
 10
137.550633735
 20
61.1722009486
 30
0.0
 10
137.7522114497
 20
61.9978173826
 30
0.0
 10
137.8772878746
 20
62.8388780651
 30
0.0
 10
137.9181555525
 20
63.259563762
 30
0.0
  0
LINE
  5
51C
100
AcDbEntity
  8
GEOM
100
AcDbLine
 62
7
  6
CONTINUOUS
 10
137.9181553756
 20
60.3732409879
 11
137.4335592095
 21
60.3791590078
  0
SPLINE
  5
51D
100
AcDbEntity
  8
GEOM
100
AcDbSpline
 62
7
  6
CONTINUOUS
 70
0
 71
3
 72
15
 73
11
 74
0
 42
0.0000001
 43
0.0000001
 44
0.0000000001
 40
0.0
 40
0.0
 40
0.0
 40
0.0
 40
0.056751461
 40
0.1172122329
 40
0.1966597937
 40
0.3021791916
 40
0.4359502294
 40
0.5978528739
 40
0.7866407752
 40
1.0
 40
1.0
 40
1.0
 40
1.0
 10
137.4335592095
 20
60.3791590078
 30
0.0
 10
137.4257334486
 20
60.3792456656
 30
0.0
 10
137.4089555391
 20
60.3836220402
 30
0.0
 10
137.3915064797
 20
60.4061228228
 30
0.0
 10
137.3827348303
 20
60.439203865
 30
0.0
 10
137.3802265312
 20
60.4832570999
 30
0.0
 10
137.3841980469
 20
60.5385383323
 30
0.0
 10
137.3945257361
 20
60.6045959729
 30
0.0
 10
137.4111618212
 20
60.6806163044
 30
0.0
 10
137.4254751773
 20
60.734212788
 30
0.0
 10
137.4335592095
 20
60.7625034903
 30
0.0
  0
SPLINE
  5
51E
100
AcDbEntity
  8
0
100
AcDbSpline
 62
7
  6
CONTINUOUS
 70
0
 71
3
 72
8
 73
4
 74
0
 42
0.0000001
 43
0.0000001
 44
0.0000000001
 40
0.0
 40
0.0
 40
0.0
 40
0.0
 40
1.0
 40
1.0
 40
1.0
 40
1.0
 10
99.895508113
 20
87.272721354
 30
0.0
 10
99.8938496886
 20
87.2727235913
 30
0.0
 10
99.89223249
 20
87.2716599906
 30
0.0
 10
99.8910654417
 20
87.2704816975
 30
0.0
  0
SPLINE
  5
51F
100
AcDbEntity
  8
0
100
AcDbSpline
 62
7
  6
CONTINUOUS
 70
0
 71
3
 72
8
 73
4
 74
0
 42
0.0000001
 43
0.0000001
 44
0.0000000001
 40
0.0
 40
0.0
 40
0.0
 40
0.0
 40
1.0
 40
1.0
 40
1.0
 40
1.0
 10
99.8910654417
 20
87.2704816975
 30
0.0
 10
99.8898125084
 20
87.2692166919
 30
0.0
 10
99.8888059353
 20
87.2677100126
 30
0.0
 10
99.8879137645
 20
87.2661691972
 30
0.0
  0
SPLINE
  5
520
100
AcDbEntity
  8
0
100
AcDbSpline
 62
7
  6
CONTINUOUS
 70
0
 71
3
 72
26
 73
22
 74
0
 42
0.0000001
 43
0.0000001
 44
0.0000000001
 40
0.0
 40
0.0
 40
0.0
 40
0.0
 40
0.2002356917
 40
0.3898596471
 40
0.4786894235
 40
0.5625340905
 40
0.6406783803
 40
0.7124744425
 40
0.7773172487
 40
0.8346689701
 40
0.8840447996
 40
0.9250384498
 40
0.9422803399
 40
0.9573077235
 40
0.9700894644
 40
0.9805972715
 40
0.9888170327
 40
0.9947454704
 40
0.9984001527
 40
0.9994140341
 40
1.0
 40
1.0
 40
1.0
 40
1.0
 10
98.0681546979
 20
73.0184444106
 30
0.0
 10
98.0825167018
 20
72.3004853446
 30
0.0
 10
98.1107381595
 20
70.9026214903
 30
0.0
 10
98.1472459549
 20
69.1862911278
 30
0.0
 10
98.1769006766
 20
67.8873231768
 30
0.0
 10
98.1986399001
 20
66.988077547
 30
0.0
 10
98.2203610621
 20
66.1499382098
 30
0.0
 10
98.2420509687
 20
65.3799686911
 30
0.0
 10
98.263705177
 20
64.6845985494
 30
0.0
 10
98.2852906996
 20
64.0696743384
 30
0.0
 10
98.3068014196
 20
63.5403374699
 30
0.0
 10
98.3254931282
 20
63.1548581022
 30
0.0
 10
98.3408483414
 20
62.8925611161
 30
0.0
 10
98.3516574935
 20
62.731359088
 30
0.0
 10
98.3624231589
 20
62.5943488477
 30
0.0
 10
98.3730950296
 20
62.4818817475
 30
0.0
 10
98.3836810957
 20
62.3939851186
 30
0.0
 10
98.393848997
 20
62.3311453398
 30
0.0
 10
98.4031717262
 20
62.293817552
 30
0.0
 10
98.4109570457
 20
62.2768925207
 30
0.0
 10
98.4160530274
 20
62.2727983209
 30
0.0
 10
98.418154464
 20
62.2728030424
 30
0.0
  0
SPLINE
  5
521
100
AcDbEntity
  8
0
100
AcDbSpline
 62
7
  6
CONTINUOUS
 70
0
 71
3
 72
9
 73
5
 74
0
 42
0.0000001
 43
0.0000001
 44
0.0000000001
 40
0.0
 40
0.0
 40
0.0
 40
0.0
 40
0.1913147358
 40
1.0
 40
1.0
 40
1.0
 40
1.0
 10
96.1763777567
 20
86.2656530911
 30
0.0
 10
96.1772365192
 20
86.2641685625
 30
0.0
 10
96.1812029412
 20
86.2561104078
 30
0.0
 10
96.1837826974
 20
86.2474616279
 30
0.0
 10
96.1856804711
 20
86.2404650639
 30
0.0
  0
SPLINE
  5
522
100
AcDbEntity
  8
0
100
AcDbSpline
 62
7
  6
CONTINUOUS
 70
0
 71
3
 72
40
 73
36
 74
0
 42
0.0000001
 43
0.0000001
 44
0.0000000001
 40
0.0
 40
0.0
 40
0.0
 40
0.0
 40
0.0023805346
 40
0.0058860767
 40
0.010515383
 40
0.0162626215
 40
0.0310623545
 40
0.0501520315
 40
0.0733627904
 40
0.1004802711
 40
0.1312581956
 40
0.1654135337
 40
0.2425761367
 40
0.3291421325
 40
0.4219399736
 40
0.5175693011
 40
0.6125258227
 40
0.7033299331
 40
0.7461256684
 40
0.7866544612
 40
0.8245436881
 40
0.8594469038
 40
0.8910419536
 40
0.919041994
 40
0.943187167
 40
0.9632612901
 40
0.9717111641
 40
0.9790778659
 40
0.9853463226
 40
0.9905019649
 40
0.9945339304
 40
0.997440131
 40
0.9992287168
 40
0.9997216381
 40
1.0
 40
1.0
 40
1.0
 40
1.0
 10
96.1856804711
 20
86.2404650639
 30
0.0
 10
96.1906636587
 20
86.2220934358
 30
0.0
 10
96.1991158498
 20
86.1756875632
 30
0.0
 10
96.2101198958
 20
86.0923490373
 30
0.0
 10
96.2212138584
 20
85.9818718216
 30
0.0
 10
96.2376127911
 20
85.7812253205
 30
0.0
 10
96.2571143266
 20
85.4648499972
 30
0.0
 10
96.2794330751
 20
85.0088054646
 30
0.0
 10
96.3018730994
 20
84.4541659932
 30
0.0
 10
96.3244502725
 20
83.8060086482
 30
0.0
 10
96.3470892407
 20
83.0702899607
 30
0.0
 10
96.3786341592
 20
81.9344859777
 30
0.0
 10
96.4171349663
 20
80.3526117049
 30
0.0
 10
96.4619198451
 20
78.301838166
 30
0.0
 10
96.5068127411
 20
76.103368822
 30
0.0
 10
96.5517586546
 20
73.8377942939
 30
0.0
 10
96.5966959118
 20
71.5881651836
 30
0.0
 10
96.6347893482
 20
69.7609567965
 30
0.0
 10
96.6657475029
 20
68.3689163039
 30
0.0
 10
96.6884915226
 20
67.3999215969
 30
0.0
 10
96.7112153428
 20
66.494055735
 30
0.0
 10
96.7339077367
 20
65.6596499541
 30
0.0
 10
96.7565630616
 20
64.9043518465
 30
0.0
 10
96.7791456153
 20
64.2351183819
 30
0.0
 10
96.8016520006
 20
63.6580666505
 30
0.0
 10
96.8212028049
 20
63.2373556299
 30
0.0
 10
96.8372642347
 20
62.9508081388
 30
0.0
 10
96.8485747295
 20
62.7745750265
 30
0.0
 10
96.8598431867
 20
62.6247214449
 30
0.0
 10
96.8709992393
 20
62.5016719972
 30
0.0
 10
96.8820908632
 20
62.4054742697
 30
0.0
 10
96.8926904614
 20
62.3367434627
 30
0.0
 10
96.9025018703
 20
62.2958608705
 30
0.0
 10
96.9105525344
 20
62.2773868518
 30
0.0
 10
96.9159292373
 20
62.272787492
 30
0.0
 10
96.9181550973
 20
62.272791839
 30
0.0
  0
SPLINE
  5
523
100
AcDbEntity
  8
0
100
AcDbSpline
 62
7
  6
CONTINUOUS
 70
0
 71
3
 72
39
 73
35
 74
0
 42
0.0000001
 43
0.0000001
 44
0.0000000001
 40
0.0
 40
0.0
 40
0.0
 40
0.0
 40
0.0002774586
 40
0.0007675305
 40
0.0025468315
 40
0.0054404003
 40
0.0094539348
 40
0.0145834452
 40
0.0208217047
 40
0.0281547896
 40
0.0365650897
 40
0.056544136
 40
0.0805794059
 40
0.108453022
 40
0.1399100109
 40
0.174665272
 40
0.2123994559
 40
0.2527704954
 40
0.2954072959
 40
0.3859082482
 40
0.4806031962
 40
0.5760398573
 40
0.6687389057
 40
0.7553210256
 40
0.8326303753
 40
0.8669122833
 40
0.8978501833
 40
0.9251659328
 40
0.9486064884
 40
0.9679637101
 40
0.983058948
 40
0.9937644679
 40
0.9974419784
 40
1.0
 40
1.0
 40
1.0
 40
1.0
 10
96.3181547668
 20
86.2727555303
 30
0.0
 10
96.320372701
 20
86.272757889
 30
0.0
 10
96.3257292035
 20
86.2682012467
 30
0.0
 10
96.3337794293
 20
86.2498360014
 30
0.0
 10
96.3435525614
 20
86.2091681142
 30
0.0
 10
96.3541259135
 20
86.1407789106
 30
0.0
 10
96.3651851225
 20
86.0450700518
 30
0.0
 10
96.3763186528
 20
85.9226576144
 30
0.0
 10
96.3875568059
 20
85.7735708627
 30
0.0
 10
96.3988359375
 20
85.5982201521
 30
0.0
 10
96.4148565604
 20
85.3131090557
 30
0.0
 10
96.4343598479
 20
84.8944869532
 30
0.0
 10
96.4568053557
 20
84.320267888
 30
0.0
 10
96.4793317729
 20
83.6542401584
 30
0.0
 10
96.5019279677
 20
82.9024792064
 30
0.0
 10
96.5245621163
 20
82.0718645167
 30
0.0
 10
96.5472279996
 20
81.1699698635
 30
0.0
 10
96.5699128574
 20
80.2050541572
 30
0.0
 10
96.6007962301
 20
78.8184112103
 30
0.0
 10
96.6387973541
 20
76.997568524
 30
0.0
 10
96.6836222896
 20
74.7547088206
 30
0.0
 10
96.7284566281
 20
72.4942748097
 30
0.0
 10
96.773240543
 20
70.2987044282
 30
0.0
 10
96.8179180991
 20
68.2480688854
 30
0.0
 10
96.8563176498
 20
66.6643816831
 30
0.0
 10
96.8877616073
 20
65.5254712198
 30
0.0
 10
96.9103549614
 20
64.7861091488
 30
0.0
 10
96.9328619916
 20
64.1334494721
 30
0.0
 10
96.9553048134
 20
63.5734305603
 30
0.0
 10
96.9774614502
 20
63.1111558881
 30
0.0
 10
96.9995358219
 20
62.7508725433
 30
0.0
 10
97.0186041674
 20
62.515901854
 30
0.0
 10
97.0354259141
 20
62.381541608
 30
0.0
 10
97.0438771936
 20
62.332339261
 30
0.0
 10
97.04873886
 20
62.3124774163
 30
0.0
  0
SPLINE
  5
524
100
AcDbEntity
  8
0
100
AcDbSpline
 62
7
  6
CONTINUOUS
 70
0
 71
3
 72
9
 73
5
 74
0
 42
0.0000001
 43
0.0000001
 44
0.0000000001
 40
0.0
 40
0.0
 40
0.0
 40
0.0
 40
0.3182256549
 40
1.0
 40
1.0
 40
1.0
 40
1.0
 10
97.04873886
 20
62.3124774163
 30
0.0
 10
97.0496085437
 20
62.3089244119
 30
0.0
 10
97.0525582452
 20
62.2978471442
 30
0.0
 10
97.0560142582
 20
62.286693287
 30
0.0
 10
97.059932052
 20
62.2799061139
 30
0.0
  0
SPLINE
  5
525
100
AcDbEntity
  8
0
100
AcDbSpline
 62
7
  6
CONTINUOUS
 70
0
 71
3
 72
23
 73
19
 74
0
 42
0.0000001
 43
0.0000001
 44
0.0000000001
 40
0.0
 40
0.0
 40
0.0
 40
0.0
 40
0.1961770872
 40
0.3823182251
 40
0.5524832506
 40
0.6298395714
 40
0.7012010865
 40
0.7660001542
 40
0.823711597
 40
0.8738806623
 40
0.916101647
 40
0.9500442779
 40
0.9638223412
 40
0.9754384432
 40
0.9848709829
 40
0.9921029887
 40
0.9971351374
 40
1.0
 40
1.0
 40
1.0
 40
1.0
 10
98.7955049087
 20
72.9139191092
 30
0.0
 10
98.8095615337
 20
72.1526740629
 30
0.0
 10
98.8371993871
 20
70.6691318207
 30
0.0
 10
98.8792264822
 20
68.5253233287
 30
0.0
 10
98.9151672188
 20
66.842635641
 30
0.0
 10
98.9444486796
 20
65.6053783199
 30
0.0
 10
98.9656849794
 20
64.7769781999
 30
0.0
 10
98.986880861
 20
64.0248467989
 30
0.0
 10
99.0080330295
 20
63.3550000583
 30
0.0
 10
99.0290915726
 20
62.7728233351
 30
0.0
 10
99.0500606954
 20
62.2829678037
 30
0.0
 10
99.0683420868
 20
61.9343572333
 30
0.0
 10
99.0835138815
 20
61.7045768969
 30
0.0
 10
99.0939980446
 20
61.5697872475
 30
0.0
 10
99.1044981671
 20
61.4605993951
 30
0.0
 10
99.1145550243
 20
61.3767954671
 30
0.0
 10
99.1248926039
 20
61.319337633
 30
0.0
 10
99.1323623523
 20
61.2890096283
 30
0.0
 10
99.1379142547
 20
61.2793762553
 30
0.0
  0
SPLINE
  5
526
100
AcDbEntity
  8
0
100
AcDbSpline
 62
7
  6
CONTINUOUS
 70
0
 71
3
 72
11
 73
7
 74
0
 42
0.0000001
 43
0.0000001
 44
0.0000000001
 40
0.0
 40
0.0
 40
0.0
 40
0.0
 40
0.0942638799
 40
0.2844829107
 40
0.5854411222
 40
1.0
 40
1.0
 40
1.0
 40
1.0
 10
99.3408042979
 20
61.2727859698
 30
0.0
 10
99.3378678116
 20
61.2727859698
 30
0.0
 10
99.3311957617
 20
61.2810814052
 30
0.0
 10
99.3258772862
 20
61.2975489998
 30
0.0
 10
99.3188520175
 20
61.3254174325
 30
0.0
 10
99.3151716033
 20
61.3472565032
 30
0.0
 10
99.313144487
 20
61.360010656
 30
0.0
  0
SPLINE
  5
527
100
AcDbEntity
  8
0
100
AcDbSpline
 62
7
  6
CONTINUOUS
 70
0
 71
3
 72
35
 73
31
 74
0
 42
0.0000001
 43
0.0000001
 44
0.0000000001
 40
0.0
 40
0.0
 40
0.0
 40
0.0
 40
0.0076446051
 40
0.019563164
 40
0.0356599753
 40
0.0557978751
 40
0.0798034659
 40
0.1074664836
 40
0.1727757241
 40
0.249448776
 40
0.3348073641
 40
0.4258721159
 40
0.519470738
 40
0.6123334815
 40
0.7012177773
 40
0.7830243797
 40
0.8203696331
 40
0.8548985175
 40
0.886312416
 40
0.9143341525
 40
0.938722243
 40
0.9592623088
 40
0.9680335791
 40
0.9757775938
 40
0.9824792029
 40
0.9881257621
 40
0.9927051625
 40
0.9962082232
 40
0.998634914
 40
1.0
 40
1.0
 40
1.0
 40
1.0
 10
99.313144487
 20
61.360010656
 30
0.0
 10
99.3027763907
 20
61.4252443489
 30
0.0
 10
99.2865843635
 20
61.5936784357
 30
0.0
 10
99.2651639723
 20
61.9009835475
 30
0.0
 10
99.2437550741
 20
62.3165464925
 30
0.0
 10
99.2218611066
 20
62.8365761819
 30
0.0
 10
99.1999050307
 20
63.4566334953
 30
0.0
 10
99.1687306261
 20
64.4668888294
 30
0.0
 10
99.1310044304
 20
65.932216631
 30
0.0
 10
99.0874342053
 20
67.8960517472
 30
0.0
 10
99.0436956251
 20
70.0824714366
 30
0.0
 10
98.9998385038
 20
72.4151587506
 30
0.0
 10
98.9559425204
 20
74.8126953971
 30
0.0
 10
98.9120594949
 20
77.1913891521
 30
0.0
 10
98.8682376647
 20
79.4681783346
 30
0.0
 10
98.8308012433
 20
81.2653070639
 30
0.0
 10
98.8002920854
 20
82.5928211295
 30
0.0
 10
98.7781324933
 20
83.4849972736
 30
0.0
 10
98.7560128837
 20
84.2965884467
 30
0.0
 10
98.7339466405
 20
85.0205252933
 30
0.0
 10
98.7119535953
 20
85.6504599665
 30
0.0
 10
98.6928758133
 20
86.114059252
 30
0.0
 10
98.6772660432
 20
86.4338518259
 30
0.0
 10
98.6662103401
 20
86.6341559111
 30
0.0
 10
98.6551746563
 20
86.8074006647
 30
0.0
 10
98.6442421363
 20
86.953289705
 30
0.0
 10
98.633274087
 20
87.0713264816
 30
0.0
 10
98.6228153926
 20
87.1617547839
 30
0.0
 10
98.6119851295
 20
87.2234523213
 30
0.0
 10
98.6042808708
 20
87.2559713619
 30
0.0
 10
98.5983937824
 20
87.2661920174
 30
0.0
  0
SPLINE
  5
528
100
AcDbEntity
  8
0
100
AcDbSpline
 62
7
  6
CONTINUOUS
 70
0
 71
3
 72
11
 73
7
 74
0
 42
0.0000001
 43
0.0000001
 44
0.0000000001
 40
0.0
 40
0.0
 40
0.0
 40
0.0
 40
0.0942059452
 40
0.2844167306
 40
0.5853962866
 40
1.0
 40
1.0
 40
1.0
 40
1.0
 10
96.8955050777
 20
87.2727859698
 30
0.0
 10
96.8984467705
 20
87.2727859698
 30
0.0
 10
96.9051276366
 20
87.2644650507
 30
0.0
 10
96.9104511164
 20
87.2479603116
 30
0.0
 10
96.9174857691
 20
87.2200198844
 30
0.0
 10
96.9211705064
 20
87.1981263832
 30
0.0
 10
96.9232001557
 20
87.1853399745
 30
0.0
  0
SPLINE
  5
529
100
AcDbEntity
  8
0
100
AcDbSpline
 62
7
  6
CONTINUOUS
 70
0
 71
3
 72
35
 73
31
 74
0
 42
0.0000001
 43
0.0000001
 44
0.0000000001
 40
0.0
 40
0.0
 40
0.0
 40
0.0
 40
0.0076511005
 40
0.0195760032
 40
0.0356790063
 40
0.0558229872
 40
0.079833339
 40
0.1075003224
 40
0.1728145074
 40
0.2494898028
 40
0.3348483453
 40
0.4259111798
 40
0.5195032375
 40
0.6123583948
 40
0.7012371263
 40
0.7830402055
 40
0.8203841952
 40
0.8549112802
 40
0.8863230052
 40
0.9143421979
 40
0.9387279352
 40
0.9592660375
 40
0.968036502
 40
0.9757798236
 40
0.9824807932
 40
0.9881268022
 40
0.9927057791
 40
0.9962085323
 40
0.9986350121
 40
1.0
 40
1.0
 40
1.0
 40
1.0
 10
96.9232001557
 20
87.1853399745
 30
0.0
 10
96.9335640537
 20
87.1200493669
 30
0.0
 10
96.9497574314
 20
86.9515060586
 30
0.0
 10
96.9711773557
 20
86.6440383852
 30
0.0
 10
96.9925873422
 20
86.2283182249
 30
0.0
 10
97.0144804375
 20
85.7081456204
 30
0.0
 10
97.036436652
 20
85.0879656806
 30
0.0
 10
97.0676083076
 20
84.0776008054
 30
0.0
 10
97.1053325811
 20
82.6121892341
 30
0.0
 10
97.1489003907
 20
80.648309306
 30
0.0
 10
97.192636746
 20
78.4619060453
 30
0.0
 10
97.2364911686
 20
76.1293125296
 30
0.0
 10
97.2803840603
 20
73.7319354006
 30
0.0
 10
97.3242640089
 20
71.3534325168
 30
0.0
 10
97.3680834168
 20
69.076807056
 30
0.0
 10
97.4055186951
 20
67.2797832908
 30
0.0
 10
97.4360271405
 20
65.9523376054
 30
0.0
 10
97.458186327
 20
65.0602144241
 30
0.0
 10
97.4803050371
 20
64.2486865698
 30
0.0
 10
97.5023703131
 20
63.5248170724
 30
0.0
 10
97.5243620382
 20
62.8949471147
 30
0.0
 10
97.5434386958
 20
62.4313960914
 30
0.0
 10
97.5590477127
 20
62.1116362023
 30
0.0
 10
97.5701029655
 20
61.9113523321
 30
0.0
 10
97.5811382627
 20
61.738125359
 30
0.0
 10
97.5920702479
 20
61.5922515212
 30
0.0
 10
97.6030373843
 20
61.4742268184
 30
0.0
 10
97.6134947256
 20
61.3838073274
 30
0.0
 10
97.624323726
 20
61.3221155839
 30
0.0
 10
97.6320276063
 20
61.2895993869
 30
0.0
 10
97.6379146481
 20
61.2793797997
 30
0.0
  0
SPLINE
  5
52A
100
AcDbEntity
  8
0
100
AcDbSpline
 62
7
  6
CONTINUOUS
 70
0
 71
3
 72
17
 73
13
 74
0
 42
0.0000001
 43
0.0000001
 44
0.0000000001
 40
0.0
 40
0.0
 40
0.0
 40
0.0
 40
0.0159942525
 40
0.0382779437
 40
0.0670102246
 40
0.1022168558
 40
0.1919580518
 40
0.3070277859
 40
0.4465696692
 40
0.609519305
 40
0.7946002067
 40
1.0
 40
1.0
 40
1.0
 40
1.0
 10
100.3452186347
 20
86.8388990814
 30
0.0
 10
100.3559649764
 20
86.8202971921
 30
0.0
 10
100.3755553114
 20
86.7724121469
 30
0.0
 10
100.4009726974
 20
86.6860822832
 30
0.0
 10
100.4266911294
 20
86.5730766159
 30
0.0
 10
100.4644381095
 20
86.3701231669
 30
0.0
 10
100.5097050529
 20
86.0508081254
 30
0.0
 10
100.561632298
 20
85.5911979383
 30
0.0
 10
100.6140791217
 20
85.0327717212
 30
0.0
 10
100.6670370446
 20
84.3800186188
 30
0.0
 10
100.7203492038
 20
83.6385774904
 30
0.0
 10
100.7544443814
 20
83.1152047586
 30
0.0
 10
100.7717080885
 20
82.8398601301
 30
0.0
  0
SPLINE
  5
52B
100
AcDbEntity
  8
0
100
AcDbSpline
 62
7
  6
CONTINUOUS
 70
0
 71
3
 72
11
 73
7
 74
0
 42
0.0000001
 43
0.0000001
 44
0.0000000001
 40
0.0
 40
0.0
 40
0.0
 40
0.0
 40
0.0976101533
 40
0.2882679202
 40
0.5879710567
 40
1.0
 40
1.0
 40
1.0
 40
1.0
 10
97.8408041592
 20
61.2727859698
 30
0.0
 10
97.8381320722
 20
61.2727859698
 30
0.0
 10
97.831922259
 20
61.2797912675
 30
0.0
 10
97.8268597313
 20
61.2943611945
 30
0.0
 10
97.8203305054
 20
61.3185832938
 30
0.0
 10
97.8168793851
 20
61.3376599775
 30
0.0
 10
97.8149866859
 20
61.3487793743
 30
0.0
  0
SPLINE
  5
52C
100
AcDbEntity
  8
0
100
AcDbSpline
 62
7
  6
CONTINUOUS
 70
0
 71
3
 72
18
 73
14
 74
0
 42
0.0000001
 43
0.0000001
 44
0.0000000001
 40
0.0
 40
0.0
 40
0.0
 40
0.0
 40
0.0144071864
 40
0.0367152959
 40
0.0667816746
 40
0.1043994901
 40
0.149299601
 40
0.201161869
 40
0.3242419538
 40
0.4701114791
 40
0.6345812353
 40
0.8129134701
 40
1.0
 40
1.0
 40
1.0
 40
1.0
 10
97.8149866859
 20
61.3487793743
 30
0.0
 10
97.8056619597
 20
61.4035611005
 30
0.0
 10
97.7909223259
 20
61.5445699203
 30
0.0
 10
97.7714891393
 20
61.8013601283
 30
0.0
 10
97.7520351376
 20
62.1479681341
 30
0.0
 10
97.7321689765
 20
62.5817513821
 30
0.0
 10
97.7122389425
 20
63.0996912017
 30
0.0
 10
97.6838960186
 20
63.9471676886
 30
0.0
 10
97.6495736131
 20
65.1840978909
 30
0.0
 10
97.6099854657
 20
66.8553633525
 30
0.0
 10
97.5702382218
 20
68.7397910619
 30
0.0
 10
97.5303694043
 20
70.7832247974
 30
0.0
 10
97.5041268309
 20
72.1924299482
 30
0.0
 10
97.4908044528
 20
72.9139146446
 30
0.0
  0
SPLINE
  5
52D
100
AcDbEntity
  8
0
100
AcDbSpline
 62
7
  6
CONTINUOUS
 70
0
 71
3
 72
26
 73
22
 74
0
 42
0.0000001
 43
0.0000001
 44
0.0000000001
 40
0.0
 40
0.0
 40
0.0
 40
0.0
 40
0.1856938383
 40
0.3675430797
 40
0.4546334734
 40
0.5379277323
 40
0.6165497292
 40
0.6896719758
 40
0.7565200248
 40
0.816394729
 40
0.8686639879
 40
0.9127793795
 40
0.9316322683
 40
0.9482815534
 40
0.9626804292
 40
0.9747957488
 40
0.9845991908
 40
0.9920656169
 40
0.9971877651
 40
0.9988769731
 40
1.0
 40
1.0
 40
1.0
 40
1.0
 10
97.4908044528
 20
72.9139146446
 30
0.0
 10
97.4743927149
 20
73.8027062023
 30
0.0
 10
97.4422530174
 20
75.5618940914
 30
0.0
 10
97.4017021636
 20
77.7379122882
 30
0.0
 10
97.3687230742
 20
79.4237841362
 30
0.0
 10
97.3443571767
 20
80.6155658776
 30
0.0
 10
97.320010972
 20
81.7404658538
 30
0.0
 10
97.295693676
 20
82.7866165684
 30
0.0
 10
97.2714128122
 20
83.7429960001
 30
0.0
 10
97.2471969427
 20
84.5995159951
 30
0.0
 10
97.2230589437
 20
85.3471646009
 30
0.0
 10
97.2021299569
 20
85.8984316382
 30
0.0
 10
97.1849967136
 20
86.2791892058
 30
0.0
 10
97.1728553571
 20
86.5177645098
 30
0.0
 10
97.1607615979
 20
86.7240464237
 30
0.0
 10
97.1487053629
 20
86.8974800451
 30
0.0
 10
97.136830615
 20
87.0376842554
 30
0.0
 10
97.1249839727
 20
87.1441749512
 30
0.0
 10
97.1147869277
 20
87.2119128864
 30
0.0
 10
97.1056630909
 20
87.2487414315
 30
0.0
 10
97.1010796321
 20
87.2615360863
 30
0.0
 10
97.0983955346
 20
87.266194195
 30
0.0
  0
SPLINE
  5
52E
100
AcDbEntity
  8
0
100
AcDbSpline
 62
7
  6
CONTINUOUS
 70
0
 71
3
 72
49
 73
45
 74
0
 42
0.0000001
 43
0.0000001
 44
0.0000000001
 40
0.0
 40
0.0
 40
0.0
 40
0.0
 40
0.0004317704
 40
0.0011526696
 40
0.0021682729
 40
0.0034799648
 40
0.0069921465
 40
0.0116850619
 40
0.0175457209
 40
0.0245594385
 40
0.0327108749
 40
0.0419792981
 40
0.0637684054
 40
0.08971537
 40
0.1195616511
 40
0.1530180701
 40
0.1897574738
 40
0.229424341
 40
0.2716363839
 40
0.3159867975
 40
0.4093918906
 40
0.5060897322
 40
0.6024309008
 40
0.6948045248
 40
0.7384194631
 40
0.7797726098
 40
0.8184841319
 40
0.8541957857
 40
0.8865817444
 40
0.9153462593
 40
0.9402277385
 40
0.9511413241
 40
0.9610041527
 40
0.9697923421
 40
0.9774871902
 40
0.9840734428
 40
0.9895360525
 40
0.9938621527
 40
0.9955971353
 40
0.9970461733
 40
0.9982091272
 40
0.9990864217
 40
0.9996801351
 40
1.0
 40
1.0
 40
1.0
 40
1.0
 10
94.3986510888
 20
86.7464146612
 30
0.0
 10
94.4004770442
 20
86.7432421962
 30
0.0
 10
94.4031884465
 20
86.7336971446
 30
0.0
 10
94.4067691918
 20
86.7157416011
 30
0.0
 10
94.4103328815
 20
86.6900997714
 30
0.0
 10
94.4157604592
 20
86.6409106018
 30
0.0
 10
94.4221164543
 20
86.560451868
 30
0.0
 10
94.4293901017
 20
86.4414351325
 30
0.0
 10
94.436700621
 20
86.2926784691
 30
0.0
 10
94.4440643163
 20
86.1145804394
 30
0.0
 10
94.451444931
 20
85.9075703576
 30
0.0
 10
94.4618756675
 20
85.5753320057
 30
0.0
 10
94.4745955831
 20
85.0922301663
 30
0.0
 10
94.4892352491
 20
84.4346730144
 30
0.0
 10
94.5039105569
 20
83.6781834127
 30
0.0
 10
94.5186069625
 20
82.8301842966
 30
0.0
 10
94.5333114854
 20
81.8989181434
 30
0.0
 10
94.5480163146
 20
80.8934160682
 30
0.0
 10
94.5627165468
 20
79.823383716
 30
0.0
 10
94.5826508218
 20
78.2978045637
 30
0.0
 10
94.6071388158
 20
76.3103321473
 30
0.0
 10
94.6360193221
 20
73.8821192683
 30
0.0
 10
94.6648341503
 20
71.4626507002
 30
0.0
 10
94.6891979828
 20
69.4931814759
 30
0.0
 10
94.7089638758
 20
67.9898630879
 30
0.0
 10
94.7234797596
 20
66.9414459564
 30
0.0
 10
94.7379648461
 20
65.9600367616
 30
0.0
 10
94.7524174395
 20
65.0546569865
 30
0.0
 10
94.7668264931
 20
64.2336157197
 30
0.0
 10
94.7811855197
 20
63.5044041452
 30
0.0
 10
94.7935661016
 20
62.9572266065
 30
0.0
 10
94.803633188
 20
62.5702836343
 30
0.0
 10
94.8108355884
 20
62.3197472232
 30
0.0
 10
94.8180214511
 20
62.0965100264
 30
0.0
 10
94.8251873886
 20
61.9010666434
 30
0.0
 10
94.8323160028
 20
61.7338347834
 30
0.0
 10
94.8394055531
 20
61.5951953721
 30
0.0
 10
94.8455994156
 20
61.4976855136
 30
0.0
 10
94.850745081
 20
61.4342332903
 30
0.0
 10
94.8542820308
 20
61.397527988
 30
0.0
 10
94.8578199497
 20
61.3682118916
 30
0.0
 10
94.8611997364
 20
61.345995621
 30
0.0
 10
94.8646463546
 20
61.3314662689
 30
0.0
 10
94.8671997205
 20
61.3237356268
 30
0.0
 10
94.8691180769
 20
61.3218190377
 30
0.0
  0
SPLINE
  5
52F
100
AcDbEntity
  8
0
100
AcDbSpline
 62
7
  6
CONTINUOUS
 70
0
 71
3
 72
9
 73
5
 74
0
 42
0.0000001
 43
0.0000001
 44
0.0000000001
 40
0.0
 40
0.0
 40
0.0
 40
0.0
 40
0.3245554908
 40
1.0
 40
1.0
 40
1.0
 40
1.0
 10
99.9181546979
 20
87.2143197478
 30
0.0
 10
99.917107826
 20
87.2197202284
 30
0.0
 10
99.9135837087
 20
87.2362550509
 30
0.0
 10
99.9095858723
 20
87.2529690934
 30
0.0
 10
99.9046116051
 20
87.2632803311
 30
0.0
  0
SPLINE
  5
530
100
AcDbEntity
  8
0
100
AcDbSpline
 62
7
  6
CONTINUOUS
 70
0
 71
3
 72
9
 73
5
 74
0
 42
0.0000001
 43
0.0000001
 44
0.0000000001
 40
0.0
 40
0.0
 40
0.0
 40
0.0
 40
0.3526611308
 40
1.0
 40
1.0
 40
1.0
 40
1.0
 10
99.9046116051
 20
87.2632803311
 30
0.0
 10
99.9039289601
 20
87.2646953966
 30
0.0
 10
99.9019485205
 20
87.2684513841
 30
0.0
 10
99.8983920299
 20
87.2727174635
 30
0.0
 10
99.895508113
 20
87.272721354
 30
0.0
  0
SPLINE
  5
531
100
AcDbEntity
  8
0
100
AcDbSpline
 62
7
  6
CONTINUOUS
 70
0
 71
3
 72
11
 73
7
 74
0
 42
0.0000001
 43
0.0000001
 44
0.0000000001
 40
0.0
 40
0.0
 40
0.0
 40
0.0
 40
0.0960688501
 40
0.2865172993
 40
0.5867980207
 40
1.0
 40
1.0
 40
1.0
 40
1.0
 10
98.3955052745
 20
87.2727859698
 30
0.0
 10
98.3982934659
 20
87.2727859698
 30
0.0
 10
98.4047119697
 20
87.2652222776
 30
0.0
 10
98.4098872082
 20
87.2498193303
 30
0.0
 10
98.4166373752
 20
87.2240097928
 30
0.0
 10
98.4201900291
 20
87.20372759
 30
0.0
 10
98.4221423738
 20
87.1918952804
 30
0.0
  0
SPLINE
  5
532
100
AcDbEntity
  8
0
100
AcDbSpline
 62
7
  6
CONTINUOUS
 70
0
 71
3
 72
18
 73
14
 74
0
 42
0.0000001
 43
0.0000001
 44
0.0000000001
 40
0.0
 40
0.0
 40
0.0
 40
0.0
 40
0.0143016137
 40
0.0370672436
 40
0.0681006699
 40
0.1071083468
 40
0.1537262004
 40
0.207505536
 40
0.3344499474
 40
0.4831147254
 40
0.6478394518
 40
0.8223420649
 40
1.0
 40
1.0
 40
1.0
 40
1.0
 10
98.4221423738
 20
87.1918952804
 30
0.0
 10
98.4332285502
 20
87.1247068034
 30
0.0
 10
98.4499934634
 20
86.9487883313
 30
0.0
 10
98.4723955805
 20
86.6253952534
 30
0.0
 10
98.4946721703
 20
86.1839943679
 30
0.0
 10
98.5175442377
 20
85.6290108611
 30
0.0
 10
98.5404598425
 20
84.9656214398
 30
0.0
 10
98.5730150529
 20
83.8836277098
 30
0.0
 10
98.6123707681
 20
82.3157327767
 30
0.0
 10
98.6578400766
 20
80.2195811006
 30
0.0
 10
98.7034826673
 20
77.8969360181
 30
0.0
 10
98.7492451069
 20
75.4362189112
 30
0.0
 10
98.7798874714
 20
73.7596909229
 30
0.0
 10
98.7955049087
 20
72.9139191092
 30
0.0
  0
SPLINE
  5
533
100
AcDbEntity
  8
0
100
AcDbSpline
 62
7
  6
CONTINUOUS
 70
0
 71
3
 72
14
 73
10
 74
0
 42
0.0000001
 43
0.0000001
 44
0.0000000001
 40
0.0
 40
0.0
 40
0.0
 40
0.0
 40
0.2624530661
 40
0.529674651
 40
0.6586559105
 40
0.7813214883
 40
0.8955636543
 40
0.9490269243
 40
1.0
 40
1.0
 40
1.0
 40
1.0
 10
101.1252614791
 20
70.2265503482
 30
0.0
 10
101.1019382143
 20
71.3302474349
 30
0.0
 10
101.0553382562
 20
73.5577041059
 30
0.0
 10
100.9931065482
 20
76.3274816554
 30
0.0
 10
100.9367179199
 20
78.5092480389
 30
0.0
 10
100.8913816452
 20
80.0476027845
 30
0.0
 10
100.8485110621
 20
81.2682429047
 30
0.0
 10
100.8082827933
 20
82.1871820365
 30
0.0
 10
100.7851246593
 20
82.6258747624
 30
0.0
 10
100.7717080885
 20
82.8398601301
 30
0.0
  0
SPLINE
  5
534
100
AcDbEntity
  8
0
100
AcDbSpline
 62
7
  6
CONTINUOUS
 70
0
 71
3
 72
17
 73
13
 74
0
 42
0.0000001
 43
0.0000001
 44
0.0000000001
 40
0.0
 40
0.0
 40
0.0
 40
0.0
 40
0.1837032836
 40
0.3626762736
 40
0.5308748645
 40
0.6808800731
 40
0.8047617441
 40
0.8963341229
 40
0.9296750706
 40
0.9559580263
 40
0.9779353077
 40
1.0
 40
1.0
 40
1.0
 40
1.0
 10
111.0758127174
 20
134.2937762216
 30
0.0
 10
111.0758126606
 20
134.2467266011
 30
0.0
 10
111.0736523533
 20
134.1538225204
 30
0.0
 10
111.0634984275
 20
134.0181623558
 30
0.0
 10
111.0464269021
 20
133.8919080523
 30
0.0
 10
111.0230869489
 20
133.7809089084
 30
0.0
 10
110.9947620003
 20
133.6916678743
 30
0.0
 10
110.9666194012
 20
133.6336732692
 30
0.0
 10
110.9413036116
 20
133.6040752294
 30
0.0
 10
110.923787847
 20
133.5919423621
 30
0.0
 10
110.9053561287
 20
133.58864948
 30
0.0
 10
110.8942896287
 20
133.5926863932
 30
0.0
 10
110.8894224645
 20
133.5955580208
 30
0.0
  0
SPLINE
  5
535
100
AcDbEntity
  8
0
100
AcDbSpline
 62
7
  6
CONTINUOUS
 70
0
 71
3
 72
22
 73
18
 74
0
 42
0.0000001
 43
0.0000001
 44
0.0000000001
 40
0.0
 40
0.0
 40
0.0
 40
0.0
 40
0.2114981444
 40
0.4043742775
 40
0.5755747134
 40
0.7220599938
 40
0.7850465957
 40
0.8406464371
 40
0.8884564767
 40
0.9281371949
 40
0.9593698937
 40
0.9717204728
 40
0.9818590937
 40
0.9897710398
 40
0.9954416312
 40
0.9988561819
 40
1.0
 40
1.0
 40
1.0
 40
1.0
 10
125.5081041915
 20
88.2283344864
 30
0.0
 10
125.7377079833
 20
88.3223705956
 30
0.0
 10
126.1738104588
 20
88.5092952866
 30
0.0
 10
126.7867483901
 20
88.7927081505
 30
0.0
 10
127.3245234542
 20
89.0565188815
 30
0.0
 10
127.7217643024
 20
89.2606007521
 30
0.0
 10
127.996745528
 20
89.4058054289
 30
0.0
 10
128.1687805151
 20
89.4980501496
 30
0.0
 10
128.3163160967
 20
89.5781231621
 30
0.0
 10
128.4384376715
 20
89.6450896875
 30
0.0
 10
128.5238979536
 20
89.692398963
 30
0.0
 10
128.5789977757
 20
89.7229849551
 30
0.0
 10
128.6101320263
 20
89.7403932184
 30
0.0
 10
128.6344951231
 20
89.7538086018
 30
0.0
 10
128.6517538301
 20
89.7638743491
 30
0.0
 10
128.6624761299
 20
89.7691545101
 30
0.0
 10
128.6668755835
 20
89.7723804913
 30
0.0
 10
128.6681546979
 20
89.7727859698
 30
0.0
  0
SPLINE
  5
536
100
AcDbEntity
  8
0
100
AcDbSpline
 62
7
  6
CONTINUOUS
 70
0
 71
3
 72
15
 73
11
 74
0
 42
0.0000001
 43
0.0000001
 44
0.0000000001
 40
0.0
 40
0.0
 40
0.0
 40
0.0
 40
0.1798123851
 40
0.355854351
 40
0.5225954933
 40
0.672174071
 40
0.7952499958
 40
0.8849944575
 40
0.9452543182
 40
1.0
 40
1.0
 40
1.0
 40
1.0
 10
110.8851306149
 20
134.2937762216
 30
0.0
 10
110.8906187343
 20
134.2589179967
 30
0.0
 10
110.8997353707
 20
134.1896408152
 30
0.0
 10
110.9071803663
 20
134.0872852973
 30
0.0
 10
110.9072988751
 20
133.9905601771
 30
0.0
 10
110.8997282909
 20
133.9045139716
 30
0.0
 10
110.8838183095
 20
133.8348073132
 30
0.0
 10
110.8623960667
 20
133.7854328639
 30
0.0
 10
110.8285963389
 20
133.7571252359
 30
0.0
 10
110.803785196
 20
133.7633928192
 30
0.0
 10
110.7944800134
 20
133.7687631016
 30
0.0
  0
LINE
  5
537
100
AcDbEntity
  8
0
100
AcDbLine
 62
7
  6
CONTINUOUS
 10
110.8894224645
 20
133.5955580208
 11
110.6708618679
 21
133.72462812
  0
LINE
  5
538
100
AcDbEntity
  8
0
100
AcDbLine
 62
7
  6
CONTINUOUS
 10
110.6708618679
 20
133.72462812
 11
110.6681546979
 21
133.7262270028
  0
SPLINE
  5
539
100
AcDbEntity
  8
0
100
AcDbSpline
 62
7
  6
CONTINUOUS
 70
0
 71
3
 72
9
 73
5
 74
0
 42
0.0000001
 43
0.0000001
 44
0.0000000001
 40
0.0
 40
0.0
 40
0.0
 40
0.0
 40
0.4962033342
 40
1.0
 40
1.0
 40
1.0
 40
1.0
 10
110.7944800134
 20
133.7687631015
 30
0.0
 10
110.8238333815
 20
133.7518159282
 30
0.0
 10
110.8743692698
 20
133.7001601066
 30
0.0
 10
110.8904142059
 20
133.6299567573
 30
0.0
 10
110.8894224712
 20
133.5955580208
 30
0.0
  0
SPLINE
  5
53A
100
AcDbEntity
  8
0
100
AcDbSpline
 62
7
  6
CONTINUOUS
 70
0
 71
3
 72
10
 73
6
 74
0
 42
0.0000001
 43
0.0000001
 44
0.0000000001
 40
0.0
 40
0.0
 40
0.0
 40
0.0
 40
0.2205896068
 40
0.4690701113
 40
1.0
 40
1.0
 40
1.0
 40
1.0
 10
125.5081041915
 20
88.2283344139
 30
0.0
 10
125.4696620889
 20
88.2455533345
 30
0.0
 10
125.3942666982
 20
88.2967151393
 30
0.0
 10
125.2662396417
 20
88.4396621824
 30
0.0
 10
125.2025313058
 20
88.5799191031
 30
0.0
 10
125.1789175496
 20
88.6785134708
 30
0.0
  0
SPLINE
  5
53B
100
AcDbEntity
  8
0
100
AcDbSpline
 62
7
  6
CONTINUOUS
 70
0
 71
3
 72
9
 73
5
 74
0
 42
0.0000001
 43
0.0000001
 44
0.0000000001
 40
0.0
 40
0.0
 40
0.0
 40
0.0
 40
0.3930334376
 40
1.0
 40
1.0
 40
1.0
 40
1.0
 10
109.9803679693
 20
141.214207326
 30
0.0
 10
109.9894145614
 20
141.2142067653
 30
0.0
 10
110.011850242
 20
141.2065774047
 30
0.0
 10
110.032341869
 20
141.1965542481
 30
0.0
 10
110.0446494746
 20
141.1899432573
 30
0.0
  0
SPLINE
  5
53C
100
AcDbEntity
  8
0
100
AcDbSpline
 62
7
  6
CONTINUOUS
 70
0
 71
3
 72
11
 73
7
 74
0
 42
0.0000001
 43
0.0000001
 44
0.0000000001
 40
0.0
 40
0.0
 40
0.0
 40
0.0
 40
0.2472500672
 40
0.4971134382
 40
0.7490515593
 40
1.0
 40
1.0
 40
1.0
 40
1.0
 10
109.8419335467
 20
140.8727859698
 30
0.0
 10
109.8798986398
 20
140.8727859698
 30
0.0
 10
109.9581007452
 20
140.8969474435
 30
0.0
 10
110.0335083796
 20
140.992322714
 30
0.0
 10
110.0455590597
 20
141.113627997
 30
0.0
 10
110.0073225531
 20
141.186671156
 30
0.0
 10
109.9803679693
 20
141.214207326
 30
0.0
  0
SPLINE
  5
53D
100
AcDbEntity
  8
0
100
AcDbSpline
 62
7
  6
CONTINUOUS
 70
0
 71
3
 72
9
 73
5
 74
0
 42
0.0000001
 43
0.0000001
 44
0.0000000001
 40
0.0
 40
0.0
 40
0.0
 40
0.0
 40
0.4101350867
 40
1.0
 40
1.0
 40
1.0
 40
1.0
 10
109.8419335467
 20
140.8727859698
 30
0.0
 10
109.8511401238
 20
140.8727856566
 30
0.0
 10
109.8733124709
 20
140.8674692257
 30
0.0
 10
109.8944379225
 20
140.860169605
 30
0.0
 10
109.9068110488
 20
140.8554544921
 30
0.0
  0
SPLINE
  5
53E
100
AcDbEntity
  8
0
100
AcDbSpline
 62
7
  6
CONTINUOUS
 70
0
 71
3
 72
25
 73
21
 74
0
 42
0.0000001
 43
0.0000001
 44
0.0000000001
 40
0.0
 40
0.0
 40
0.0
 40
0.0
 40
0.2119974459
 40
0.4050911701
 40
0.5763007893
 40
0.6527764589
 40
0.7226604229
 40
0.7855531224
 40
0.8410496223
 40
0.8887554531
 40
0.9283389726
 40
0.9449873276
 40
0.9594879456
 40
0.9718038155
 40
0.9819135018
 40
0.9898024729
 40
0.9954562222
 40
0.9974403538
 40
0.9988602373
 40
1.0
 40
1.0
 40
1.0
 40
1.0
 10
125.1789177324
 20
88.6785134708
 30
0.0
 10
125.3976310355
 20
88.7762582053
 30
0.0
 10
125.8123465056
 20
88.9702918413
 30
0.0
 10
126.3937393529
 20
89.2638491972
 30
0.0
 10
126.8328570468
 20
89.499032096
 30
0.0
 10
127.1465814015
 20
89.6732721378
 30
0.0
 10
127.3523303289
 20
89.789812101
 30
0.0
 10
127.5366514652
 20
89.8960665248
 30
0.0
 10
127.6986370167
 20
89.990875893
 30
0.0
 10
127.8374606458
 20
90.0731090683
 30
0.0
 10
127.9382359505
 20
90.1334351539
 30
0.0
 10
128.0066936346
 20
90.17469383
 30
0.0
 10
128.0487161706
 20
90.2001181235
 30
0.0
 10
128.0844062408
 20
90.22174323
 30
0.0
 10
128.113655691
 20
90.2395576572
 30
0.0
 10
128.1365515046
 20
90.2533902839
 30
0.0
 10
128.1513886616
 20
90.2626714328
 30
0.0
 10
128.1603101948
 20
90.2678195385
 30
0.0
 10
128.1643568554
 20
90.2708364577
 30
0.0
 10
128.1674672865
 20
90.2716968004
 30
0.0
 10
128.1681546979
 20
90.2727859698
 30
0.0
  0
SPLINE
  5
53F
100
AcDbEntity
  8
0
100
AcDbSpline
 62
7
  6
CONTINUOUS
 70
0
 71
3
 72
9
 73
5
 74
0
 42
0.0000001
 43
0.0000001
 44
0.0000000001
 40
0.0
 40
0.0
 40
0.0
 40
0.0
 40
0.4792273835
 40
1.0
 40
1.0
 40
1.0
 40
1.0
 10
110.0446494746
 20
141.1899432573
 30
0.0
 10
110.0894466519
 20
141.1583431238
 30
0.0
 10
110.1723229594
 20
141.0758806781
 30
0.0
 10
110.2178396735
 20
140.9660048378
 30
0.0
 10
110.226745168
 20
140.9071005448
 30
0.0
  0
SPLINE
  5
540
100
AcDbEntity
  8
0
100
AcDbSpline
 62
7
  6
CONTINUOUS
 70
0
 71
3
 72
8
 73
4
 74
0
 42
0.0000001
 43
0.0000001
 44
0.0000000001
 40
0.0
 40
0.0
 40
0.0
 40
0.0
 40
1.0
 40
1.0
 40
1.0
 40
1.0
 10
109.9068110488
 20
140.8554544914
 30
0.0
 10
109.9159483244
 20
140.8566214668
 30
0.0
 10
109.9250131466
 20
140.8585558718
 30
0.0
 10
109.9338533039
 20
140.8611449364
 30
0.0
  0
SPLINE
  5
541
100
AcDbEntity
  8
0
100
AcDbSpline
 62
7
  6
CONTINUOUS
 70
0
 71
3
 72
12
 73
8
 74
0
 42
0.0000001
 43
0.0000001
 44
0.0000000001
 40
0.0
 40
0.0
 40
0.0
 40
0.0
 40
0.2493113632
 40
0.5086469779
 40
0.6378876105
 40
0.7637396625
 40
1.0
 40
1.0
 40
1.0
 40
1.0
 10
109.9338533039
 20
140.8611449364
 30
0.0
 10
109.9659703447
 20
140.8705512275
 30
0.0
 10
110.0268419991
 20
140.9082110787
 30
0.0
 10
110.0730459857
 20
140.9839145573
 30
0.0
 10
110.0875939408
 20
141.0520251526
 30
0.0
 10
110.0859030309
 20
141.1183638382
 30
0.0
 10
110.0653766691
 20
141.1659395743
 30
0.0
 10
110.0446494748
 20
141.1899432575
 30
0.0
  0
SPLINE
  5
542
100
AcDbEntity
  8
0
100
AcDbSpline
 62
7
  6
CONTINUOUS
 70
0
 71
3
 72
9
 73
5
 74
0
 42
0.0000001
 43
0.0000001
 44
0.0000000001
 40
0.0
 40
0.0
 40
0.0
 40
0.0
 40
0.2472553057
 40
1.0
 40
1.0
 40
1.0
 40
1.0
 10
109.9364857211
 20
140.8425688007
 30
0.0
 10
109.9462508195
 20
140.8377704947
 30
0.0
 10
109.984456793
 20
140.8166236196
 30
0.0
 10
110.0201348958
 20
140.7848597688
 30
0.0
 10
110.0332418095
 20
140.7544392377
 30
0.0
  0
SPLINE
  5
543
100
AcDbEntity
  8
0
100
AcDbSpline
 62
7
  6
CONTINUOUS
 70
0
 71
3
 72
9
 73
5
 74
0
 42
0.0000001
 43
0.0000001
 44
0.0000000001
 40
0.0
 40
0.0
 40
0.0
 40
0.0
 40
0.4522710243
 40
1.0
 40
1.0
 40
1.0
 40
1.0
 10
110.226745168
 20
140.9071005448
 30
0.0
 10
110.2502890341
 20
140.8292079791
 30
0.0
 10
110.2829450053
 20
140.6513054197
 30
0.0
 10
110.2935963098
 20
140.4713338504
 30
0.0
 10
110.2935988514
 20
140.3727859698
 30
0.0
  0
SPLINE
  5
544
100
AcDbEntity
  8
0
100
AcDbSpline
 62
7
  6
CONTINUOUS
 70
0
 71
3
 72
9
 73
5
 74
0
 42
0.0000001
 43
0.0000001
 44
0.0000000001
 40
0.0
 40
0.0
 40
0.0
 40
0.0
 40
0.5331701921
 40
1.0
 40
1.0
 40
1.0
 40
1.0
 10
110.0332418094
 20
140.7544387221
 30
0.0
 10
110.0786434673
 20
140.7602887743
 30
0.0
 10
110.1623689096
 20
140.7927147001
 30
0.0
 10
110.2186201622
 20
140.8678515745
 30
0.0
 10
110.2267451792
 20
140.9071005448
 30
0.0
  0
SPLINE
  5
545
100
AcDbEntity
  8
0
100
AcDbSpline
 62
7
  6
CONTINUOUS
 70
0
 71
3
 72
9
 73
5
 74
0
 42
0.0000001
 43
0.0000001
 44
0.0000000001
 40
0.0
 40
0.0
 40
0.0
 40
0.0
 40
0.4524135362
 40
1.0
 40
1.0
 40
1.0
 40
1.0
 10
110.0332418095
 20
140.7544392377
 30
0.0
 10
110.0565209429
 20
140.7005053727
 30
0.0
 10
110.0904492809
 20
140.5738842985
 30
0.0
 10
110.1014979884
 20
140.4438869747
 30
0.0
 10
110.1015029388
 20
140.3727859698
 30
0.0
  0
SPLINE
  5
546
100
AcDbEntity
  8
0
100
AcDbSpline
 62
7
  6
CONTINUOUS
 70
0
 71
3
 72
9
 73
5
 74
0
 42
0.0000001
 43
0.0000001
 44
0.0000000001
 40
0.0
 40
0.0
 40
0.0
 40
0.0
 40
0.5318376117
 40
1.0
 40
1.0
 40
1.0
 40
1.0
 10
125.0131294447
 20
87.6309856409
 30
0.0
 10
125.0758156295
 20
87.754501377
 30
0.0
 10
125.2184498525
 20
87.9750567472
 30
0.0
 10
125.4082990988
 20
88.158294701
 30
0.0
 10
125.5081041915
 20
88.2283344864
 30
0.0
  0
SPLINE
  5
547
100
AcDbEntity
  8
0
100
AcDbSpline
 62
7
  6
CONTINUOUS
 70
0
 71
3
 72
12
 73
8
 74
0
 42
0.0000001
 43
0.0000001
 44
0.0000000001
 40
0.0
 40
0.0
 40
0.0
 40
0.0
 40
0.0812547838
 40
0.1824218942
 40
0.4334950833
 40
0.7205574919
 40
1.0
 40
1.0
 40
1.0
 40
1.0
 10
125.0131294654
 20
87.6309856229
 30
0.0
 10
124.9937501189
 20
87.628094811
 30
0.0
 10
124.9492541572
 20
87.628819655
 30
0.0
 10
124.8464090007
 20
87.6487834728
 30
0.0
 10
124.7022762685
 20
87.7069830743
 30
0.0
 10
124.5321422951
 20
87.8073525159
 30
0.0
 10
124.4247780161
 20
87.8930111534
 30
0.0
 10
124.3762559793
 20
87.9397692031
 30
0.0
  0
SPLINE
  5
548
100
AcDbEntity
  8
0
100
AcDbSpline
 62
7
  6
CONTINUOUS
 70
0
 71
3
 72
9
 73
5
 74
0
 42
0.0000001
 43
0.0000001
 44
0.0000000001
 40
0.0
 40
0.0
 40
0.0
 40
0.0
 40
0.5003427035
 40
1.0
 40
1.0
 40
1.0
 40
1.0
 10
110.2935988514
 20
137.4884713947
 30
0.0
 10
110.2935991368
 20
137.4356586507
 30
0.0
 10
110.3169055551
 20
137.3288961446
 30
0.0
 10
110.3814867467
 20
137.2414112592
 30
0.0
 10
110.4202315099
 20
137.2056286822
 30
0.0
  0
SPLINE
  5
549
100
AcDbEntity
  8
0
100
AcDbSpline
 62
7
  6
CONTINUOUS
 70
0
 71
3
 72
9
 73
5
 74
0
 42
0.0000001
 43
0.0000001
 44
0.0000000001
 40
0.0
 40
0.0
 40
0.0
 40
0.0
 40
0.499898269
 40
1.0
 40
1.0
 40
1.0
 40
1.0
 10
110.1015029388
 20
137.4884713947
 30
0.0
 10
110.101503604
 20
137.4098736574
 30
0.0
 10
110.1345332125
 20
137.2509576477
 30
0.0
 10
110.2278606678
 20
137.1186310719
 30
0.0
 10
110.28461179
 20
137.064207326
 30
0.0
  0
SPLINE
  5
54A
100
AcDbEntity
  8
0
100
AcDbSpline
 62
7
  6
CONTINUOUS
 70
0
 71
3
 72
9
 73
5
 74
0
 42
0.0000001
 43
0.0000001
 44
0.0000000001
 40
0.0
 40
0.0
 40
0.0
 40
0.0
 40
0.2681445099
 40
1.0
 40
1.0
 40
1.0
 40
1.0
 10
124.3762559808
 20
87.9397692031
 30
0.0
 10
124.4279694209
 20
88.0233255314
 30
0.0
 10
124.640321583
 20
88.3214603477
 30
0.0
 10
124.934062091
 20
88.5690818713
 30
0.0
 10
125.1789177324
 20
88.6785134708
 30
0.0
  0
SPLINE
  5
54B
100
AcDbEntity
  8
0
100
AcDbSpline
 62
7
  6
CONTINUOUS
 70
0
 71
3
 72
11
 73
7
 74
0
 42
0.0000001
 43
0.0000001
 44
0.0000000001
 40
0.0
 40
0.0
 40
0.0
 40
0.0
 40
0.0994758482
 40
0.2966837169
 40
0.5965308825
 40
1.0
 40
1.0
 40
1.0
 40
1.0
 10
100.8615653731
 20
86.3479749957
 30
0.0
 10
100.8644125467
 20
86.3462076482
 30
0.0
 10
100.8682194352
 20
86.3358919089
 30
0.0
 10
100.8731742495
 20
86.3171313467
 30
0.0
 10
100.8781663049
 20
86.2868112012
 30
0.0
 10
100.881218046
 20
86.2634330486
 30
0.0
 10
100.8828106274
 20
86.249934751
 30
0.0
  0
SPLINE
  5
54C
100
AcDbEntity
  8
0
100
AcDbSpline
 62
7
  6
CONTINUOUS
 70
0
 71
3
 72
9
 73
5
 74
0
 42
0.0000001
 43
0.0000001
 44
0.0000000001
 40
0.0
 40
0.0
 40
0.0
 40
0.0
 40
0.2246108715
 40
1.0
 40
1.0
 40
1.0
 40
1.0
 10
100.8828106274
 20
86.249934751
 30
0.0
 10
100.8834521117
 20
86.2444977007
 30
0.0
 10
100.8861951898
 20
86.2202778421
 30
0.0
 10
100.8885522886
 20
86.1960155268
 30
0.0
 10
100.8902553261
 20
86.1771927449
 30
0.0
  0
SPLINE
  5
54D
100
AcDbEntity
  8
0
100
AcDbSpline
 62
7
  6
CONTINUOUS
 70
0
 71
3
 72
14
 73
10
 74
0
 42
0.0000001
 43
0.0000001
 44
0.0000000001
 40
0.0
 40
0.0
 40
0.0
 40
0.0
 40
0.0467673582
 40
0.1198242031
 40
0.2177858853
 40
0.3387627493
 40
0.4804095797
 40
0.6399495282
 40
1.0
 40
1.0
 40
1.0
 40
1.0
 10
100.8902553261
 20
86.1771927449
 30
0.0
 10
100.9022533913
 20
86.04458441
 30
0.0
 10
100.9211865507
 20
85.703850958
 30
0.0
 10
100.9470783275
 20
85.0843840642
 30
0.0
 10
100.9737961551
 20
84.2534509233
 30
0.0
 10
101.0019976717
 20
83.2272333555
 30
0.0
 10
101.0312181909
 20
82.025654087
 30
0.0
 10
101.073412064
 20
80.1435380978
 30
0.0
 10
101.1040190261
 20
78.6645425677
 30
0.0
 10
101.1252614791
 20
77.6396733063
 30
0.0
  0
SPLINE
  5
54E
100
AcDbEntity
  8
0
100
AcDbSpline
 62
7
  6
CONTINUOUS
 70
0
 71
3
 72
9
 73
5
 74
0
 42
0.0000001
 43
0.0000001
 44
0.0000000001
 40
0.0
 40
0.0
 40
0.0
 40
0.0
 40
0.500108272
 40
1.0
 40
1.0
 40
1.0
 40
1.0
 10
110.8237094464
 20
136.5485219011
 30
0.0
 10
110.8426945336
 20
136.5304082374
 30
0.0
 10
110.8739973512
 20
136.4863659378
 30
0.0
 10
110.8851292672
 20
136.4333291973
 30
0.0
 10
110.8851306149
 20
136.4071005448
 30
0.0
  0
SPLINE
  5
54F
100
AcDbEntity
  8
0
100
AcDbSpline
 62
7
  6
CONTINUOUS
 70
0
 71
3
 72
12
 73
8
 74
0
 42
0.0000001
 43
0.0000001
 44
0.0000000001
 40
0.0
 40
0.0
 40
0.0
 40
0.0
 40
0.0804898215
 40
0.1811016282
 40
0.431181156
 40
0.7180969264
 40
1.0
 40
1.0
 40
1.0
 40
1.0
 10
124.6231799511
 20
87.0389571565
 30
0.0
 10
124.6045079779
 20
87.0375464908
 30
0.0
 10
124.5620960073
 20
87.0406369157
 30
0.0
 10
124.4642107505
 20
87.0633109006
 30
0.0
 10
124.3265558376
 20
87.1211102813
 30
0.0
 10
124.1618433443
 20
87.2174025172
 30
0.0
 10
124.0562169716
 20
87.2979990186
 30
0.0
 10
124.0073848382
 20
87.3417760402
 30
0.0
  0
SPLINE
  5
550
100
AcDbEntity
  8
0
100
AcDbSpline
 62
7
  6
CONTINUOUS
 70
0
 71
3
 72
9
 73
5
 74
0
 42
0.0000001
 43
0.0000001
 44
0.0000000001
 40
0.0
 40
0.0
 40
0.0
 40
0.0
 40
0.4995831769
 40
1.0
 40
1.0
 40
1.0
 40
1.0
 10
124.1282052042
 20
86.7952895972
 30
0.0
 10
124.2210404918
 20
86.804689896
 30
0.0
 10
124.4046576136
 20
86.8582843706
 30
0.0
 10
124.5586413414
 20
86.9713508996
 30
0.0
 10
124.6231799511
 20
87.0389571565
 30
0.0
  0
SPLINE
  5
551
100
AcDbEntity
  8
0
100
AcDbSpline
 62
7
  6
CONTINUOUS
 70
0
 71
3
 72
10
 73
6
 74
0
 42
0.0000001
 43
0.0000001
 44
0.0000000001
 40
0.0
 40
0.0
 40
0.0
 40
0.0
 40
0.2140649891
 40
0.4608050945
 40
1.0
 40
1.0
 40
1.0
 40
1.0
 10
124.1282052042
 20
86.7952896
 30
0.0
 10
124.0995439566
 20
86.8169037314
 30
0.0
 10
124.0442972851
 20
86.8720266533
 30
0.0
 10
123.9482365882
 20
87.0099786993
 30
0.0
 10
123.8971318034
 20
87.1339184996
 30
0.0
 10
123.8736078795
 20
87.2212250947
 30
0.0
  0
SPLINE
  5
552
100
AcDbEntity
  8
0
100
AcDbSpline
 62
7
  6
CONTINUOUS
 70
0
 71
3
 72
9
 73
5
 74
0
 42
0.0000001
 43
0.0000001
 44
0.0000000001
 40
0.0
 40
0.0
 40
0.0
 40
0.0
 40
0.2432145831
 40
1.0
 40
1.0
 40
1.0
 40
1.0
 10
123.8736078796
 20
87.2212250947
 30
0.0
 10
123.8873790524
 20
87.2265210156
 30
0.0
 10
123.9413924607
 20
87.2550566756
 30
0.0
 10
123.9833414403
 20
87.302665752
 30
0.0
 10
124.0073848382
 20
87.3417760402
 30
0.0
  0
SPLINE
  5
553
100
AcDbEntity
  8
0
100
AcDbSpline
 62
7
  6
CONTINUOUS
 70
0
 71
3
 72
26
 73
22
 74
0
 42
0.0000001
 43
0.0000001
 44
0.0000000001
 40
0.0
 40
0.0
 40
0.0
 40
0.0
 40
0.0011639468
 40
0.0029406122
 40
0.0083816236
 40
0.0163535035
 40
0.0268351402
 40
0.0397971234
 40
0.0551998632
 40
0.0729870151
 40
0.0930998239
 40
0.1400233789
 40
0.1953234405
 40
0.2582383528
 40
0.3279050823
 40
0.403360855
 40
0.4835653482
 40
0.5674145764
 40
0.6537532819
 40
0.8291020497
 40
1.0
 40
1.0
 40
1.0
 40
1.0
 10
100.6763779655
 20
86.2656379141
 30
0.0
 10
100.6794916572
 20
86.2602454242
 30
0.0
 10
100.6847281111
 20
86.24523949
 30
0.0
 10
100.6951917891
 20
86.2016999307
 30
0.0
 10
100.7068046373
 20
86.1210842441
 30
0.0
 10
100.7203469013
 20
85.9940348151
 30
0.0
 10
100.7339217697
 20
85.8264740784
 30
0.0
 10
100.7477103038
 20
85.6191197653
 30
0.0
 10
100.7615368121
 20
85.3725965082
 30
0.0
 10
100.7754263317
 20
85.0877759839
 30
0.0
 10
100.7949986311
 20
84.6344072881
 30
0.0
 10
100.8188998873
 20
83.9803630878
 30
0.0
 10
100.8464923561
 20
83.0973342498
 30
0.0
 10
100.8741756732
 20
82.0925848189
 30
0.0
 10
100.901927882
 20
80.9799721097
 30
0.0
 10
100.929723422
 20
79.7748383981
 30
0.0
 10
100.9575486578
 20
78.4938131159
 30
0.0
 10
100.9853926255
 20
77.154553744
 30
0.0
 10
101.0227246241
 20
75.3063794468
 30
0.0
 10
101.0684467038
 20
72.9925870384
 30
0.0
 10
101.1059455497
 20
71.1406164717
 30
0.0
 10
101.1252614842
 20
70.2265511894
 30
0.0
  0
SPLINE
  5
554
100
AcDbEntity
  8
0
100
AcDbSpline
 62
7
  6
CONTINUOUS
 70
0
 71
3
 72
9
 73
5
 74
0
 42
0.0000001
 43
0.0000001
 44
0.0000000001
 40
0.0
 40
0.0
 40
0.0
 40
0.0
 40
0.1805293755
 40
1.0
 40
1.0
 40
1.0
 40
1.0
 10
94.6763772647
 20
86.2656472675
 30
0.0
 10
94.6775039995
 20
86.2636993069
 30
0.0
 10
94.6828087405
 20
86.2523806902
 30
0.0
 10
94.6859065295
 20
86.2402045129
 30
0.0
 10
94.6882577907
 20
86.2302638592
 30
0.0
  0
SPLINE
  5
555
100
AcDbEntity
  8
0
100
AcDbSpline
 62
7
  6
CONTINUOUS
 70
0
 71
3
 72
39
 73
35
 74
0
 42
0.0000001
 43
0.0000001
 44
0.0000000001
 40
0.0
 40
0.0
 40
0.0
 40
0.0
 40
0.0026232814
 40
0.0063650836
 40
0.0171869964
 40
0.0323921738
 40
0.0518433721
 40
0.0753695699
 40
0.1027547462
 40
0.1337521237
 40
0.1680783405
 40
0.2454407507
 40
0.332028487
 40
0.4246913947
 40
0.5200578267
 40
0.6146575972
 40
0.7050484602
 40
0.7476285596
 40
0.7879416032
 40
0.825620258
 40
0.8603216295
 40
0.8917285402
 40
0.919556992
 40
0.9435513685
 40
0.9634976676
 40
0.9718935102
 40
0.9792124013
 40
0.9854399635
 40
0.9905623406
 40
0.9945682162
 40
0.9974553069
 40
0.9992324094
 40
0.9997226175
 40
1.0
 40
1.0
 40
1.0
 40
1.0
 10
94.6882577907
 20
86.2302638592
 30
0.0
 10
94.6930840241
 20
86.2098595267
 30
0.0
 10
94.7015237938
 20
86.1596176358
 30
0.0
 10
94.7182995009
 20
86.0232841822
 30
0.0
 10
94.7373925477
 20
85.7860204575
 30
0.0
 10
94.7594367267
 20
85.4232107911
 30
0.0
 10
94.7815947512
 20
84.9586766532
 30
0.0
 10
94.8040114609
 20
84.3967315844
 30
0.0
 10
94.8265058924
 20
83.7424346087
 30
0.0
 10
94.8490758194
 20
83.0017758194
 30
0.0
 10
94.8804876649
 20
81.8617477136
 30
0.0
 10
94.9188474478
 20
80.2774270879
 30
0.0
 10
94.9634869085
 20
78.2268577285
 30
0.0
 10
95.0082308727
 20
76.0323566212
 30
0.0
 10
95.0530247957
 20
73.7738054797
 30
0.0
 10
95.0978086308
 20
71.533417685
 30
0.0
 10
95.1357771009
 20
69.7148880828
 30
0.0
 10
95.166631834
 20
68.3302087493
 30
0.0
 10
95.1892965236
 20
67.3667698367
 30
0.0
 10
95.2119402919
 20
66.4663218831
 30
0.0
 10
95.2345536529
 20
65.6370820636
 30
0.0
 10
95.2571289718
 20
64.8866036548
 30
0.0
 10
95.2796330078
 20
64.2217442218
 30
0.0
 10
95.3020596887
 20
63.648544011
 30
0.0
 10
95.3215433155
 20
63.2306764582
 30
0.0
 10
95.3375476342
 20
62.94609041
 30
0.0
 10
95.3488187214
 20
62.7710755437
 30
0.0
 10
95.3600480786
 20
62.6222628906
 30
0.0
 10
95.3711649544
 20
62.5000684956
 30
0.0
 10
95.3822153751
 20
62.404541091
 30
0.0
 10
95.3927820361
 20
62.336291943
 30
0.0
 10
95.4025548837
 20
62.2956976484
 30
0.0
 10
95.4105858332
 20
62.2773508785
 30
0.0
 10
95.4159373861
 20
62.2727849772
 30
0.0
 10
95.4181544448
 20
62.2727876551
 30
0.0
  0
SPLINE
  5
556
100
AcDbEntity
  8
0
100
AcDbSpline
 62
7
  6
CONTINUOUS
 70
0
 71
3
 72
40
 73
36
 74
0
 42
0.0000001
 43
0.0000001
 44
0.0000000001
 40
0.0
 40
0.0
 40
0.0
 40
0.0
 40
0.0002786507
 40
0.0007715962
 40
0.0025618629
 40
0.0054743342
 40
0.009514498
 40
0.0146776874
 40
0.0209563655
 40
0.0283373281
 40
0.0368023678
 40
0.0569091368
 40
0.0810962164
 40
0.1091414057
 40
0.1407875999
 40
0.175744847
 40
0.213690586
 40
0.2542776757
 40
0.2971309303
 40
0.3880461569
 40
0.483098688
 40
0.5787987557
 40
0.6716328293
 40
0.7581928241
 40
0.835301496
 40
0.8694118141
 40
0.9001296581
 40
0.9271768694
 40
0.9503011662
 40
0.9692959505
 40
0.983984803
 40
0.9896749782
 40
0.9942440741
 40
0.9976849315
 40
1.0
 40
1.0
 40
1.0
 40
1.0
 10
94.8181542961
 20
86.2727537048
 30
0.0
 10
94.8203827047
 20
86.2727545183
 30
0.0
 10
94.8257595875
 20
86.2681553673
 30
0.0
 10
94.8338322974
 20
86.2496689137
 30
0.0
 10
94.8436456347
 20
86.2087151322
 30
0.0
 10
94.8542516495
 20
86.1398484562
 30
0.0
 10
94.8653505247
 20
86.0434636079
 30
0.0
 10
94.8765227087
 20
85.9201942616
 30
0.0
 10
94.8878016776
 20
85.7700686133
 30
0.0
 10
94.8991199042
 20
85.5934996722
 30
0.0
 10
94.9151960961
 20
85.3064255518
 30
0.0
 10
94.9347687773
 20
84.8849528817
 30
0.0
 10
94.9572919928
 20
84.3068829265
 30
0.0
 10
94.9798985488
 20
83.636473881
 30
0.0
 10
95.0025734232
 20
82.8798940185
 30
0.0
 10
95.0252876509
 20
82.0441073654
 30
0.0
 10
95.0480327656
 20
81.1367958976
 30
0.0
 10
95.0707975433
 20
80.1663210469
 30
0.0
 10
95.1017838428
 20
78.7723192262
 30
0.0
 10
95.1399101922
 20
76.9428021228
 30
0.0
 10
95.1848884226
 20
74.6907142102
 30
0.0
 10
95.2298747322
 20
72.4232781609
 30
0.0
 10
95.2748074834
 20
70.2237703109
 30
0.0
 10
95.3196304237
 20
68.1729710563
 30
0.0
 10
95.3581707645
 20
66.5917705497
 30
0.0
 10
95.3897482145
 20
65.4571200188
 30
0.0
 10
95.4124100659
 20
64.7227275588
 30
0.0
 10
95.4350007205
 20
64.0762372836
 30
0.0
 10
95.457463832
 20
63.5235538872
 30
0.0
 10
95.4797880912
 20
63.0698017687
 30
0.0
 10
95.4993119581
 20
62.7554986504
 30
0.0
 10
95.5157345537
 20
62.5566647456
 30
0.0
 10
95.5268222148
 20
62.4476345906
 30
0.0
 10
95.5378308145
 20
62.3658282695
 30
0.0
 10
95.5462887009
 20
62.3204658337
 30
0.0
 10
95.5513161796
 20
62.302647586
 30
0.0
  0
SPLINE
  5
557
100
AcDbEntity
  8
0
100
AcDbSpline
 62
7
  6
CONTINUOUS
 70
0
 71
3
 72
9
 73
5
 74
0
 42
0.0000001
 43
0.0000001
 44
0.0000000001
 40
0.0
 40
0.0
 40
0.0
 40
0.0
 40
0.306654381
 40
1.0
 40
1.0
 40
1.0
 40
1.0
 10
95.5513161796
 20
62.302647586
 30
0.0
 10
95.5519918072
 20
62.3002530457
 30
0.0
 10
95.5543339145
 20
62.2924989655
 30
0.0
 10
95.5571199099
 20
62.2847830922
 30
0.0
 10
95.5599313972
 20
62.2799106098
 30
0.0
  0
SPLINE
  5
558
100
AcDbEntity
  8
0
100
AcDbSpline
 62
7
  6
CONTINUOUS
 70
0
 71
3
 72
42
 73
38
 74
0
 42
0.0000001
 43
0.0000001
 44
0.0000000001
 40
0.0
 40
0.0
 40
0.0
 40
0.0
 40
0.0002808026
 40
0.0007797444
 40
0.0025943952
 40
0.0055448269
 40
0.0096375748
 40
0.0148697276
 40
0.0212323493
 40
0.0287096415
 40
0.0372847348
 40
0.0576534072
 40
0.0821471282
 40
0.1105428487
 40
0.1425722565
 40
0.1779409649
 40
0.2163158971
 40
0.2573420346
 40
0.3006346816
 40
0.3923902585
 40
0.4881668514
 40
0.5843987413
 40
0.6775032562
 40
0.7640143638
 40
0.8037785511
 40
0.8407120295
 40
0.8744717645
 40
0.9047425919
 40
0.9312425032
 40
0.9537264779
 40
0.9719842766
 40
0.9794756025
 40
0.9858524511
 40
0.9910989827
 40
0.9952062063
 40
0.9981711222
 40
1.0
 40
1.0
 40
1.0
 40
1.0
 10
99.3181542798
 20
86.2727658342
 30
0.0
 10
99.3204014195
 20
86.2727707774
 30
0.0
 10
99.3258283988
 20
86.2680913193
 30
0.0
 10
99.3339365894
 20
86.2493404922
 30
0.0
 10
99.3438254101
 20
86.2077984645
 30
0.0
 10
99.3545044329
 20
86.1379724947
 30
0.0
 10
99.3656851658
 20
86.0402423538
 30
0.0
 10
99.3769327871
 20
85.915245418
 30
0.0
 10
99.3882894568
 20
85.7630223501
 30
0.0
 10
99.3996892472
 20
85.5840100948
 30
0.0
 10
99.4158788847
 20
85.2929930315
 30
0.0
 10
99.4355839909
 20
84.8658029077
 30
0.0
 10
99.458269322
 20
84.2799849503
 30
0.0
 10
99.48103098
 20
83.6007941417
 30
0.0
 10
99.5038669481
 20
82.8345353517
 30
0.0
 10
99.5267388739
 20
81.9883863856
 30
0.0
 10
99.5496439213
 20
81.0702172946
 30
0.0
 10
99.5725678328
 20
80.0886184201
 30
0.0
 10
99.6037601316
 20
78.6799144144
 30
0.0
 10
99.6421362175
 20
76.8331185372
 30
0.0
 10
99.6874216878
 20
74.5627257649
 30
0.0
 10
99.7327087513
 20
72.2815358049
 30
0.0
 10
99.7779486814
 20
70.0745076316
 30
0.0
 10
99.8165321467
 20
68.3193257778
 30
0.0
 10
99.8479739075
 20
67.0136125749
 30
0.0
 10
99.8708662026
 20
66.1299643461
 30
0.0
 10
99.8937204947
 20
65.3223137747
 30
0.0
 10
99.9165267445
 20
64.5981942579
 30
0.0
 10
99.939246508
 20
63.9643554002
 30
0.0
 10
99.9618633677
 20
63.4267221606
 30
0.0
 10
99.9815758996
 20
63.0412218099
 30
0.0
 10
99.997879022
 20
62.784649841
 30
0.0
 10
100.0092161351
 20
62.6320889022
 30
0.0
 10
100.0205281615
 20
62.5067348446
 30
0.0
 10
100.0315471276
 20
62.4086846772
 30
0.0
 10
100.042609492
 20
62.3384450192
 30
0.0
 10
100.0509582894
 20
62.3007082436
 30
0.0
 10
100.0564722228
 20
62.2871509055
 30
0.0
  0
SPLINE
  5
559
100
AcDbEntity
  8
0
100
AcDbSpline
 62
7
  6
CONTINUOUS
 70
0
 71
3
 72
8
 73
4
 74
0
 42
0.0000001
 43
0.0000001
 44
0.0000000001
 40
0.0
 40
0.0
 40
0.0
 40
0.0
 40
1.0
 40
1.0
 40
1.0
 40
1.0
 10
100.0564722228
 20
62.2871509055
 30
0.0
 10
100.0574803708
 20
62.28467213
 30
0.0
 10
100.0585921484
 20
62.2822232555
 30
0.0
 10
100.0599315975
 20
62.2799066703
 30
0.0
  0
SPLINE
  5
55A
100
AcDbEntity
  8
0
100
AcDbSpline
 62
7
  6
CONTINUOUS
 70
0
 71
3
 72
38
 73
34
 74
0
 42
0.0000001
 43
0.0000001
 44
0.0000000001
 40
0.0
 40
0.0
 40
0.0
 40
0.0
 40
0.0072025141
 40
0.0186821683
 40
0.0343480404
 40
0.054068924
 40
0.0776831293
 40
0.1049892327
 40
0.1697185442
 40
0.246042373
 40
0.3313255107
 40
0.4226015421
 40
0.5166750546
 40
0.6102258336
 40
0.6999321405
 40
0.7423356912
 40
0.7825928132
 40
0.820338544
 40
0.8552301579
 40
0.8869502985
 40
0.9152072658
 40
0.9397441612
 40
0.9603318105
 40
0.9690853087
 40
0.9767826893
 40
0.9834056323
 40
0.988940483
 40
0.9933741607
 40
0.9966951723
 40
0.9979371062
 40
0.998900279
 40
0.9995861114
 40
1.0
 40
1.0
 40
1.0
 40
1.0
 10
99.9181546979
 20
87.2143197478
 30
0.0
 10
99.924814643
 20
87.1534974455
 30
0.0
 10
99.9348666964
 20
86.9950216392
 30
0.0
 10
99.9483562534
 20
86.7035818569
 30
0.0
 10
99.9617597319
 20
86.3056481522
 30
0.0
 10
99.9755424759
 20
85.8046268468
 30
0.0
 10
99.9893661573
 20
85.2046800873
 30
0.0
 10
100.0090563674
 20
84.2224264042
 30
0.0
 10
100.032903764
 20
82.7923981435
 30
0.0
 10
100.0604860848
 20
80.8698538283
 30
0.0
 10
100.0882356239
 20
78.7217743184
 30
0.0
 10
100.1161229229
 20
76.4229005839
 30
0.0
 10
100.1440944533
 20
74.0537886549
 30
0.0
 10
100.1721216856
 20
71.6980132701
 30
0.0
 10
100.195911995
 20
69.7811583488
 30
0.0
 10
100.2152686854
 20
68.3170171027
 30
0.0
 10
100.2295205782
 20
67.2942557757
 30
0.0
 10
100.2437760634
 20
66.3353154582
 30
0.0
 10
100.2580307671
 20
65.4489059097
 30
0.0
 10
100.2722767312
 20
64.6431152416
 30
0.0
 10
100.2865010102
 20
63.9253031656
 30
0.0
 10
100.3006904137
 20
63.3020829057
 30
0.0
 10
100.3130211192
 20
62.8445486815
 30
0.0
 10
100.3231309323
 20
62.5300657997
 30
0.0
 10
100.3302824893
 20
62.3341813893
 30
0.0
 10
100.3374165902
 20
62.1656613357
 30
0.0
 10
100.3445007484
 20
62.0248880268
 30
0.0
 10
100.3515502722
 20
61.9122183525
 30
0.0
 10
100.3577162516
 20
61.8360133004
 30
0.0
 10
100.3629762661
 20
61.7893796737
 30
0.0
 10
100.3664366365
 20
61.7650230727
 30
0.0
 10
100.3699043114
 20
61.7479115536
 30
0.0
 10
100.3725411147
 20
61.7388044074
 30
0.0
 10
100.3742935509
 20
61.7357562437
 30
0.0
  0
SPLINE
  5
55B
100
AcDbEntity
  8
0
100
AcDbSpline
 62
7
  6
CONTINUOUS
 70
0
 71
3
 72
9
 73
5
 74
0
 42
0.0000001
 43
0.0000001
 44
0.0000000001
 40
0.0
 40
0.0
 40
0.0
 40
0.0
 40
0.1915006156
 40
1.0
 40
1.0
 40
1.0
 40
1.0
 10
100.8181549111
 20
86.27277434
 30
0.0
 10
100.8188222096
 20
86.2727758724
 30
0.0
 10
100.8223240352
 20
86.271957752
 30
0.0
 10
100.8245413136
 20
86.2687164835
 30
0.0
 10
100.826000489
 20
86.2663065248
 30
0.0
  0
SPLINE
  5
55C
100
AcDbEntity
  8
0
100
AcDbSpline
 62
7
  6
CONTINUOUS
 70
0
 71
3
 72
9
 73
5
 74
0
 42
0.0000001
 43
0.0000001
 44
0.0000000001
 40
0.0
 40
0.0
 40
0.0
 40
0.0
 40
0.3925659876
 40
1.0
 40
1.0
 40
1.0
 40
1.0
 10
100.826000489
 20
86.2663065248
 30
0.0
 10
100.8292015955
 20
86.261019611
 30
0.0
 10
100.8345094074
 20
86.2459947839
 30
0.0
 10
100.8382393538
 20
86.2307469853
 30
0.0
 10
100.8402510442
 20
86.2213976179
 30
0.0
  0
SPLINE
  5
55D
100
AcDbEntity
  8
0
100
AcDbSpline
 62
7
  6
CONTINUOUS
 70
0
 71
3
 72
18
 73
14
 74
0
 42
0.0000001
 43
0.0000001
 44
0.0000000001
 40
0.0
 40
0.0
 40
0.0
 40
0.0
 40
0.0136556501
 40
0.0349211749
 40
0.0637128849
 40
0.0998733005
 40
0.143219241
 40
0.1935006525
 40
0.3137415606
 40
0.4579397081
 40
0.6228717221
 40
0.8049342731
 40
1.0
 40
1.0
 40
1.0
 40
1.0
 10
100.8402510442
 20
86.2213976179
 30
0.0
 10
100.8484743772
 20
86.1831795299
 30
0.0
 10
100.8614401986
 20
86.0838653613
 30
0.0
 10
100.8785272952
 20
85.9023406633
 30
0.0
 10
100.89562306
 20
85.6560603188
 30
0.0
 10
100.9130964834
 20
85.3465326859
 30
0.0
 10
100.9306163373
 20
84.9753861136
 30
0.0
 10
100.9556144679
 20
84.3636438941
 30
0.0
 10
100.9858795956
 20
83.4631737508
 30
0.0
 10
101.0207330259
 20
82.234482247
 30
0.0
 10
101.0557355994
 20
80.8287511438
 30
0.0
 10
101.0908522803
 20
79.2773621326
 30
0.0
 10
101.113689527
 20
78.1979775273
 30
0.0
 10
101.1252614814
 20
77.6396720604
 30
0.0
  0
SPLINE
  5
55E
100
AcDbEntity
  8
0
100
AcDbSpline
 62
7
  6
CONTINUOUS
 70
0
 71
3
 72
27
 73
23
 74
0
 42
0.0000001
 43
0.0000001
 44
0.0000000001
 40
0.0
 40
0.0
 40
0.0
 40
0.0
 40
0.0005633248
 40
0.0016046184
 40
0.0054383932
 40
0.0116914351
 40
0.0203701491
 40
0.0314634955
 40
0.04494655
 40
0.0607801241
 40
0.078923243
 40
0.099331342
 40
0.1219454666
 40
0.1735386423
 40
0.2331461343
 40
0.3001138344
 40
0.3737085039
 40
0.4531271306
 40
0.5374985777
 40
0.6259026032
 40
0.8108772933
 40
1.0
 40
1.0
 40
1.0
 40
1.0
 10
97.8181549636
 20
86.2727590937
 30
0.0
 10
97.8206463507
 20
86.2727632436
 30
0.0
 10
97.8265977515
 20
86.2670473527
 30
0.0
 10
97.8352173559
 20
86.2452074571
 30
0.0
 10
97.8460282829
 20
86.1963750729
 30
0.0
 10
97.8575232998
 20
86.1145564259
 30
0.0
 10
97.8696639454
 20
85.9999109413
 30
0.0
 10
97.8818375323
 20
85.8533990186
 30
0.0
 10
97.8941462454
 20
85.6750763885
 30
0.0
 10
97.9064948244
 20
85.4655474627
 30
0.0
 10
97.9188838144
 20
85.2253374029
 30
0.0
 10
97.9312921275
 20
84.9551087363
 30
0.0
 10
97.9486323561
 20
84.5370156601
 30
0.0
 10
97.9699248658
 20
83.9455785851
 30
0.0
 10
97.9945924177
 20
83.1579861278
 30
0.0
 10
98.0193215886
 20
82.2730483423
 30
0.0
 10
98.0440988675
 20
81.3004634829
 30
0.0
 10
98.0689047471
 20
80.2508856596
 30
0.0
 10
98.0937352037
 20
79.1357947132
 30
0.0
 10
98.1273671765
 20
77.5539469878
 30
0.0
 10
98.1686930418
 20
75.5088806002
 30
0.0
 10
98.2014262721
 20
73.8547013159
 30
0.0
 10
98.2181546979
 20
73.0184444106
 30
0.0
  0
SPLINE
  5
55F
100
AcDbEntity
  8
0
100
AcDbSpline
 62
7
  6
CONTINUOUS
 70
0
 71
3
 72
13
 73
9
 74
0
 42
0.0000001
 43
0.0000001
 44
0.0000000001
 40
0.0
 40
0.0
 40
0.0
 40
0.0
 40
0.2375654216
 40
0.364981584
 40
0.4954495198
 40
0.6265672374
 40
0.7558377614
 40
1.0
 40
1.0
 40
1.0
 40
1.0
 10
114.1465818226
 20
87.0028811396
 30
0.0
 10
114.900782875
 20
86.7107803726
 30
0.0
 10
116.0899961148
 20
86.3313865074
 30
0.0
 10
117.7510989125
 20
86.0260719906
 30
0.0
 10
119.0735755553
 20
85.9181935229
 30
0.0
 10
120.4064529707
 20
85.9531485973
 30
0.0
 10
122.1118955239
 20
86.1783140603
 30
0.0
 10
123.3440600378
 20
86.5194421208
 30
0.0
 10
124.1282052042
 20
86.7952895972
 30
0.0
  0
SPLINE
  5
560
100
AcDbEntity
  8
0
100
AcDbSpline
 62
7
  6
CONTINUOUS
 70
0
 71
3
 72
10
 73
6
 74
0
 42
0.0000001
 43
0.0000001
 44
0.0000000001
 40
0.0
 40
0.0
 40
0.0
 40
0.0
 40
0.2171126574
 40
0.4647831649
 40
1.0
 40
1.0
 40
1.0
 40
1.0
 10
114.1465818226
 20
87.002881124
 30
0.0
 10
114.1789709232
 20
87.02310452
 30
0.0
 10
114.2417964529
 20
87.0769428587
 30
0.0
 10
114.3502083522
 20
87.2161349101
 30
0.0
 10
114.4069604745
 20
87.345010879
 30
0.0
 10
114.4315318088
 20
87.4358775739
 30
0.0
  0
SPLINE
  5
561
100
AcDbEntity
  8
0
100
AcDbSpline
 62
7
  6
CONTINUOUS
 70
0
 71
3
 72
13
 73
9
 74
0
 42
0.0000001
 43
0.0000001
 44
0.0000000001
 40
0.0
 40
0.0
 40
0.0
 40
0.0
 40
0.2370251815
 40
0.3644950869
 40
0.4952314261
 40
0.6266771475
 40
0.7561410125
 40
1.0
 40
1.0
 40
1.0
 40
1.0
 10
114.4315317078
 20
87.4358775739
 30
0.0
 10
115.1375115721
 20
87.1369946965
 30
0.0
 10
116.2561039706
 20
86.7456292821
 30
0.0
 10
117.8284950148
 20
86.4275149608
 30
0.0
 10
119.0865789894
 20
86.314116551
 30
0.0
 10
120.3558877266
 20
86.3503896343
 30
0.0
 10
121.9744806375
 20
86.5850512933
 30
0.0
 10
123.1374163868
 20
86.9381349475
 30
0.0
 10
123.8736078796
 20
87.2212250947
 30
0.0
  0
SPLINE
  5
562
100
AcDbEntity
  8
0
100
AcDbSpline
 62
7
  6
CONTINUOUS
 70
0
 71
3
 72
11
 73
7
 74
0
 42
0.0000001
 43
0.0000001
 44
0.0000000001
 40
0.0
 40
0.0
 40
0.0
 40
0.0
 40
0.2285974049
 40
0.4672505214
 40
0.7236767562
 40
1.0
 40
1.0
 40
1.0
 40
1.0
 10
112.7323682603
 20
87.1156559782
 30
0.0
 10
112.8325482571
 20
87.1645842956
 30
0.0
 10
113.0555382412
 20
87.2292743804
 30
0.0
 10
113.4114706078
 20
87.2328941446
 30
0.0
 10
113.7823823836
 20
87.1575866206
 30
0.0
 10
114.0252826774
 20
87.0616052614
 30
0.0
 10
114.1465818226
 20
87.0028811396
 30
0.0
  0
SPLINE
  5
563
100
AcDbEntity
  8
0
100
AcDbSpline
 62
7
  6
CONTINUOUS
 70
0
 71
3
 72
9
 73
5
 74
0
 42
0.0000001
 43
0.0000001
 44
0.0000000001
 40
0.0
 40
0.0
 40
0.0
 40
0.0
 40
0.4705266474
 40
1.0
 40
1.0
 40
1.0
 40
1.0
 10
112.7323682938
 20
87.1156559477
 30
0.0
 10
112.7562694931
 20
87.16119645
 30
0.0
 10
112.7838250993
 20
87.2704917148
 30
0.0
 10
112.7726920872
 20
87.3810541739
 30
0.0
 10
112.7593197319
 20
87.4373629027
 30
0.0
  0
SPLINE
  5
564
100
AcDbEntity
  8
0
100
AcDbSpline
 62
7
  6
CONTINUOUS
 70
0
 71
3
 72
11
 73
7
 74
0
 42
0.0000001
 43
0.0000001
 44
0.0000000001
 40
0.0
 40
0.0
 40
0.0
 40
0.0
 40
0.2331340802
 40
0.4731959841
 40
0.7279867096
 40
1.0
 40
1.0
 40
1.0
 40
1.0
 10
112.7593197252
 20
87.4373629027
 30
0.0
 10
112.874797886
 20
87.506238709
 30
0.0
 10
113.1331755094
 20
87.6084045463
 30
0.0
 10
113.5550959998
 20
87.6499259056
 30
0.0
 10
113.9968351331
 20
87.5930417078
 30
0.0
 10
114.2870635029
 20
87.4970399434
 30
0.0
 10
114.4315317078
 20
87.4358775739
 30
0.0
  0
SPLINE
  5
565
100
AcDbEntity
  8
0
100
AcDbSpline
 62
7
  6
CONTINUOUS
 70
0
 71
3
 72
9
 73
5
 74
0
 42
0.0000001
 43
0.0000001
 44
0.0000000001
 40
0.0
 40
0.0
 40
0.0
 40
0.0
 40
0.1987048895
 40
1.0
 40
1.0
 40
1.0
 40
1.0
 10
111.2039411355
 20
86.3930733886
 30
0.0
 10
111.3091079465
 20
86.431729637
 30
0.0
 10
111.8344576499
 20
86.6368386821
 30
0.0
 10
112.340282135
 20
86.8911015868
 30
0.0
 10
112.7323682603
 20
87.1156559782
 30
0.0
  0
SPLINE
  5
566
100
AcDbEntity
  8
0
100
AcDbSpline
 62
7
  6
CONTINUOUS
 70
0
 71
3
 72
9
 73
5
 74
0
 42
0.0000001
 43
0.0000001
 44
0.0000000001
 40
0.0
 40
0.0
 40
0.0
 40
0.0
 40
0.4923914389
 40
1.0
 40
1.0
 40
1.0
 40
1.0
 10
111.203941132
 20
86.393073392
 30
0.0
 10
111.2421770592
 20
86.4389645296
 30
0.0
 10
111.3014613098
 20
86.5487106827
 30
0.0
 10
111.3165757016
 20
86.6720479672
 30
0.0
 10
111.3135103089
 20
86.733550222
 30
0.0
  0
SPLINE
  5
567
100
AcDbEntity
  8
0
100
AcDbSpline
 62
7
  6
CONTINUOUS
 70
0
 71
3
 72
9
 73
5
 74
0
 42
0.0000001
 43
0.0000001
 44
0.0000000001
 40
0.0
 40
0.0
 40
0.0
 40
0.0
 40
0.1972594283
 40
1.0
 40
1.0
 40
1.0
 40
1.0
 10
111.3135102829
 20
86.733550222
 30
0.0
 10
111.4127147927
 20
86.7703441996
 30
0.0
 10
111.911501091
 20
86.9679304547
 30
0.0
 10
112.3895295726
 20
87.2167815199
 30
0.0
 10
112.7593197252
 20
87.4373629027
 30
0.0
  0
SPLINE
  5
568
100
AcDbEntity
  8
0
100
AcDbSpline
 62
7
  6
CONTINUOUS
 70
0
 71
3
 72
21
 73
17
 74
0
 42
0.0000001
 43
0.0000001
 44
0.0000000001
 40
0.0
 40
0.0
 40
0.0
 40
0.0
 40
0.0010862195
 40
0.0043231195
 40
0.0096927369
 40
0.0171774675
 40
0.0384235321
 40
0.0679279969
 40
0.1055619485
 40
0.1511141108
 40
0.2042643133
 40
0.2647261912
 40
0.4066491713
 40
0.5756551733
 40
0.7726267415
 40
1.0
 40
1.0
 40
1.0
 40
1.0
 10
110.2942970728
 20
86.3374798906
 30
0.0
 10
110.2944871473
 20
86.3372010518
 30
0.0
 10
110.2960989263
 20
86.3372642747
 30
0.0
 10
110.2986859835
 20
86.3360196437
 30
0.0
 10
110.3036793834
 20
86.3349272214
 30
0.0
 10
110.3138074466
 20
86.3320421923
 30
0.0
 10
110.3314185957
 20
86.3276831579
 30
0.0
 10
110.3580916948
 20
86.3212608076
 30
0.0
 10
110.3922781831
 20
86.3136598414
 30
0.0
 10
110.4337875246
 20
86.3052320238
 30
0.0
 10
110.4825210585
 20
86.2967911589
 30
0.0
 10
110.5611706035
 20
86.2859200707
 30
0.0
 10
110.6763471283
 20
86.276665627
 30
0.0
 10
110.8344779514
 20
86.2814979861
 30
0.0
 10
111.016867609
 20
86.313120766
 30
0.0
 10
111.1411257996
 20
86.3607608835
 30
0.0
 10
111.2039411355
 20
86.3930733886
 30
0.0
  0
SPLINE
  5
569
100
AcDbEntity
  8
0
100
AcDbSpline
 62
7
  6
CONTINUOUS
 70
0
 71
3
 72
21
 73
17
 74
0
 42
0.0000001
 43
0.0000001
 44
0.0000000001
 40
0.0
 40
0.0
 40
0.0
 40
0.0
 40
0.00108922
 40
0.0043279068
 40
0.0096989911
 40
0.0171856684
 40
0.0384398864
 40
0.0679619876
 40
0.1056277753
 40
0.1512464714
 40
0.2044878773
 40
0.2650434485
 40
0.4070729246
 40
0.5756369847
 40
0.7713723689
 40
1.0
 40
1.0
 40
1.0
 40
1.0
 10
110.6681546979
 20
86.8213064104
 30
0.0
 10
110.6682075195
 20
86.8210692782
 30
0.0
 10
110.669448308
 20
86.8209082997
 30
0.0
 10
110.6709970759
 20
86.8196339412
 30
0.0
 10
110.6744050979
 20
86.8181605128
 30
0.0
 10
110.6810818364
 20
86.8146587251
 30
0.0
 10
110.6928596339
 20
86.8090400709
 30
0.0
 10
110.7106670301
 20
86.800612428
 30
0.0
 10
110.7335940642
 20
86.7902211292
 30
0.0
 10
110.7615163233
 20
86.7780753489
 30
0.0
 10
110.7944987043
 20
86.7647712045
 30
0.0
 10
110.848097386
 20
86.745183683
 30
0.0
 10
110.9274068846
 20
86.7210442183
 30
0.0
 10
111.0387394914
 20
86.7004073316
 30
0.0
 10
111.1716254543
 20
86.6957587835
 30
0.0
 10
111.26569069
 20
86.7158392687
 30
0.0
 10
111.3135102829
 20
86.733550222
 30
0.0
  0
SPLINE
  5
56A
100
AcDbEntity
  8
0
100
AcDbSpline
 62
7
  6
CONTINUOUS
 70
0
 71
3
 72
25
 73
21
 74
0
 42
0.0000001
 43
0.0000001
 44
0.0000000001
 40
0.0
 40
0.0
 40
0.0
 40
0.0
 40
0.0011892353
 40
0.0029422816
 40
0.0081847126
 40
0.0157571279
 40
0.0256531096
 40
0.0378561737
 40
0.0523332492
 40
0.069046117
 40
0.0879556525
 40
0.1321602954
 40
0.1844820326
 40
0.2443743913
 40
0.311211301
 40
0.3842868144
 40
0.4628385055
 40
0.6330167191
 40
0.8145984882
 40
1.0
 40
1.0
 40
1.0
 40
1.0
 10
97.6763779517
 20
86.2656590457
 30
0.0
 10
97.6790092461
 20
86.261110032
 30
0.0
 10
97.6835941186
 20
86.2488231548
 30
0.0
 10
97.6926687541
 20
86.2138397533
 30
0.0
 10
97.7028850996
 20
86.1501414849
 30
0.0
 10
97.714712815
 20
86.0505194903
 30
0.0
 10
97.7265890287
 20
85.9199088812
 30
0.0
 10
97.7386244252
 20
85.7587322452
 30
0.0
 10
97.7507021342
 20
85.5673540556
 30
0.0
 10
97.7628292821
 20
85.3462968692
 30
0.0
 10
97.7799286643
 20
84.9939550205
 30
0.0
 10
97.8008218514
 20
84.4842677854
 30
0.0
 10
97.8249254577
 20
83.7934741216
 30
0.0
 10
97.8491067225
 20
83.0026184617
 30
0.0
 10
97.8733480775
 20
82.1200164197
 30
0.0
 10
97.8976309881
 20
81.1549320198
 30
0.0
 10
97.9309344002
 20
79.733268872
 30
0.0
 10
97.9717588221
 20
77.8321657956
 30
0.0
 10
98.0196815112
 20
75.458942068
 30
0.0
 10
98.0517690326
 20
73.8375666582
 30
0.0
 10
98.0681546979
 20
73.0184444106
 30
0.0
  0
SPLINE
  5
56B
100
AcDbEntity
  8
0
100
AcDbSpline
 62
7
  6
CONTINUOUS
 70
0
 71
3
 72
9
 73
5
 74
0
 42
0.0000001
 43
0.0000001
 44
0.0000000001
 40
0.0
 40
0.0
 40
0.0
 40
0.0
 40
0.1888198703
 40
1.0
 40
1.0
 40
1.0
 40
1.0
 10
99.1763773388
 20
86.2656640374
 30
0.0
 10
99.1772955473
 20
86.2640730321
 30
0.0
 10
99.1815554466
 20
86.2553040813
 30
0.0
 10
99.1842602547
 20
86.245887674
 30
0.0
 10
99.1862632277
 20
86.238254434
 30
0.0
  0
SPLINE
  5
56C
100
AcDbEntity
  8
0
100
AcDbSpline
 62
7
  6
CONTINUOUS
 70
0
 71
3
 72
40
 73
36
 74
0
 42
0.0000001
 43
0.0000001
 44
0.0000000001
 40
0.0
 40
0.0
 40
0.0
 40
0.0
 40
0.0024348917
 40
0.0059925887
 40
0.0106743527
 40
0.016472457
 40
0.0313620313
 40
0.0505358719
 40
0.0738164715
 40
0.1009963463
 40
0.1318230669
 40
0.1660181097
 40
0.2432260674
 40
0.3297971434
 40
0.4225646446
 40
0.518134669
 40
0.6130105426
 40
0.7037209952
 40
0.7464675147
 40
0.786947502
 40
0.8247891123
 40
0.8596460215
 40
0.891199303
 40
0.9191590576
 40
0.9432717835
 40
0.9633147843
 40
0.9717533274
 40
0.9791106535
 40
0.9853685803
 40
0.9905154267
 40
0.9945430108
 40
0.9974458275
 40
0.9992300717
 40
0.9997217627
 40
1.0
 40
1.0
 40
1.0
 40
1.0
 10
99.1862632277
 20
86.238254434
 30
0.0
 10
99.191204442
 20
86.2194236879
 30
0.0
 10
99.1996589605
 20
86.1721665693
 30
0.0
 10
99.2106634972
 20
86.0875501414
 30
0.0
 10
99.2217557434
 20
85.975836656
 30
0.0
 10
99.238126948
 20
85.7736569022
 30
0.0
 10
99.2576272331
 20
85.4555121254
 30
0.0
 10
99.2799235971
 20
84.9975580263
 30
0.0
 10
99.3023573067
 20
84.4412404281
 30
0.0
 10
99.3249135102
 20
83.7916964077
 30
0.0
 10
99.3475393282
 20
83.0548411669
 30
0.0
 10
99.3790519868
 20
81.9180749852
 30
0.0
 10
99.4175223264
 20
80.3356313828
 30
0.0
 10
99.4622738695
 20
78.2848938047
 30
0.0
 10
99.5071332103
 20
76.087311651
 30
0.0
 10
99.5520446652
 20
73.823316328
 30
0.0
 10
99.5969472463
 20
71.5757712439
 30
0.0
 10
99.6350122183
 20
69.7505256923
 30
0.0
 10
99.6659472979
 20
68.3601516327
 30
0.0
 10
99.6886733404
 20
67.3924145553
 30
0.0
 10
99.7113784884
 20
66.487776979
 30
0.0
 10
99.7340544663
 20
65.6545364192
 30
0.0
 10
99.7566890075
 20
64.9003371826
 30
0.0
 10
99.7792580073
 20
64.2320837525
 30
0.0
 10
99.8017405649
 20
63.6559176873
 30
0.0
 10
99.8212815043
 20
63.2358462818
 30
0.0
 10
99.8373288853
 20
62.9497407256
 30
0.0
 10
99.8486270474
 20
62.7737741073
 30
0.0
 10
99.8598881362
 20
62.6241645761
 30
0.0
 10
99.8710407269
 20
62.5013170559
 30
0.0
 10
99.882118405
 20
62.4052606111
 30
0.0
 10
99.892707166
 20
62.3366323772
 30
0.0
 10
99.9025044037
 20
62.2958255861
 30
0.0
 10
99.9105667938
 20
62.2774028462
 30
0.0
 10
99.9159299179
 20
62.2728181016
 30
0.0
 10
99.9181545716
 20
62.2728162711
 30
0.0
  0
SPLINE
  5
56D
100
AcDbEntity
  8
0
100
AcDbSpline
 62
7
  6
CONTINUOUS
 70
0
 71
3
 72
9
 73
5
 74
0
 42
0.0000001
 43
0.0000001
 44
0.0000000001
 40
0.0
 40
0.0
 40
0.0
 40
0.0
 40
0.3682963924
 40
1.0
 40
1.0
 40
1.0
 40
1.0
 10
96.1379216283
 20
61.279379138
 30
0.0
 10
96.1329688998
 20
61.2879813231
 30
0.0
 10
96.1259747841
 20
61.314502011
 30
0.0
 10
96.1209455204
 20
61.3407944883
 30
0.0
 10
96.11823545
 20
61.3576026711
 30
0.0
  0
SPLINE
  5
56E
100
AcDbEntity
  8
0
100
AcDbSpline
 62
7
  6
CONTINUOUS
 70
0
 71
3
 72
38
 73
34
 74
0
 42
0.0000001
 43
0.0000001
 44
0.0000000001
 40
0.0
 40
0.0
 40
0.0
 40
0.0
 40
0.0076755766
 40
0.0197190177
 40
0.0360324716
 40
0.0564728753
 40
0.0808612991
 40
0.1089779235
 40
0.175367814
 40
0.2532763957
 40
0.3399248486
 40
0.4322219295
 40
0.5268745965
 40
0.6205056719
 40
0.7097744935
 40
0.7517684138
 40
0.7914962456
 40
0.8286019818
 40
0.8627558189
 40
0.8936501668
 40
0.9210124235
 40
0.9445951004
 40
0.9549040446
 40
0.9641920586
 40
0.9724384991
 40
0.9796271352
 40
0.9857421957
 40
0.990769155
 40
0.9947000168
 40
0.997531425
 40
0.9992681489
 40
0.9997413028
 40
1.0
 40
1.0
 40
1.0
 40
1.0
 10
96.11823545
 20
61.3576026711
 30
0.0
 10
96.107673483
 20
61.4231092623
 30
0.0
 10
96.0913352164
 20
61.5929787159
 30
0.0
 10
96.0696756969
 20
61.9036390287
 30
0.0
 10
96.0480543811
 20
62.324974029
 30
0.0
 10
96.0259148233
 20
62.8530514801
 30
0.0
 10
96.0037199256
 20
63.4832571521
 30
0.0
 10
95.9721985351
 20
64.5105776385
 30
0.0
 10
95.9340650972
 20
66.0005655804
 30
0.0
 10
95.8900215464
 20
67.9965337818
 30
0.0
 10
95.8458073903
 20
70.2165067337
 30
0.0
 10
95.8014736742
 20
72.5812495979
 30
0.0
 10
95.7571051994
 20
75.0063644442
 30
0.0
 10
95.7127483975
 20
77.405296811
 30
0.0
 10
95.6751293629
 20
79.3490599111
 30
0.0
 10
95.6445617727
 20
80.8268962813
 30
0.0
 10
95.6221193923
 20
81.8538724333
 30
0.0
 10
95.5996970007
 20
82.8130572062
 30
0.0
 10
95.5773050436
 20
83.6958580199
 30
0.0
 10
95.5549531881
 20
84.4944016988
 30
0.0
 10
95.5326610855
 20
85.2015233213
 30
0.0
 10
95.5134021274
 20
85.7306944192
 30
0.0
 10
95.4977216903
 20
86.1036386676
 30
0.0
 10
95.4865097995
 20
86.3440739443
 30
0.0
 10
95.4753166962
 20
86.5575066191
 30
0.0
 10
95.4641603121
 20
86.743461056
 30
0.0
 10
95.4530406714
 20
86.9015559618
 30
0.0
 10
95.4420380784
 20
87.0313412792
 30
0.0
 10
95.4310762894
 20
87.1328218895
 30
0.0
 10
95.4206731767
 20
87.2052413635
 30
0.0
 10
95.4109288794
 20
87.2484107075
 30
0.0
 10
95.4031011665
 20
87.2677658229
 30
0.0
 10
95.3977406147
 20
87.2727668793
 30
0.0
 10
95.3955042737
 20
87.2727628898
 30
0.0
  0
SPLINE
  5
56F
100
AcDbEntity
  8
0
100
AcDbSpline
 62
7
  6
CONTINUOUS
 70
0
 71
3
 72
9
 73
5
 74
0
 42
0.0000001
 43
0.0000001
 44
0.0000000001
 40
0.0
 40
0.0
 40
0.0
 40
0.0
 40
0.3776114567
 40
1.0
 40
1.0
 40
1.0
 40
1.0
 10
95.5983954367
 20
87.2661959357
 30
0.0
 10
95.6025039266
 20
87.259074054
 30
0.0
 10
95.6087297363
 20
87.2378699974
 30
0.0
 10
95.6131177471
 20
87.2166545608
 30
0.0
 10
95.6154920603
 20
87.2033125131
 30
0.0
  0
SPLINE
  5
570
100
AcDbEntity
  8
0
100
AcDbSpline
 62
7
  6
CONTINUOUS
 70
0
 71
3
 72
33
 73
29
 74
0
 42
0.0000001
 43
0.0000001
 44
0.0000000001
 40
0.0
 40
0.0
 40
0.0
 40
0.0
 40
0.0070264686
 40
0.0182953913
 40
0.0337192713
 40
0.0531688941
 40
0.0764781586
 40
0.1034450865
 40
0.1673932968
 40
0.2428057748
 40
0.3270766738
 40
0.4172931445
 40
0.5103364547
 40
0.6029900262
 40
0.6920508022
 40
0.7744401465
 40
0.8122320151
 40
0.8473105051
 40
0.8793748355
 40
0.9081442507
 40
0.9333738794
 40
0.9548419073
 40
0.9723679882
 40
0.9857988911
 40
0.9909448388
 40
0.9950289698
 40
0.9980459188
 40
1.0
 40
1.0
 40
1.0
 40
1.0
 10
95.6154920603
 20
87.2033125131
 30
0.0
 10
95.6261294709
 20
87.1435374011
 30
0.0
 10
95.6420545473
 20
86.9860172372
 30
0.0
 10
95.6634106617
 20
86.6955426438
 30
0.0
 10
95.684610791
 20
86.2973292895
 30
0.0
 10
95.7064003095
 20
85.7950742287
 30
0.0
 10
95.7282305885
 20
85.1929722295
 30
0.0
 10
95.7592997384
 20
84.2064733456
 30
0.0
 10
95.7968572652
 20
82.7697520102
 30
0.0
 10
95.8402089864
 20
80.837884333
 30
0.0
 10
95.8837341032
 20
78.6789893858
 30
0.0
 10
95.9273846534
 20
76.3677251736
 30
0.0
 10
95.971078367
 20
73.9840163516
 30
0.0
 10
96.0147650455
 20
71.6102951787
 30
0.0
 10
96.0583977859
 20
69.3286476819
 30
0.0
 10
96.0956326907
 20
67.5210136414
 30
0.0
 10
96.1259559563
 20
66.1797894837
 30
0.0
 10
96.1480196417
 20
65.2733387845
 30
0.0
 10
96.1700467683
 20
64.4448733627
 30
0.0
 10
96.192028556
 20
63.7015408998
 30
0.0
 10
96.2139418842
 20
63.0498131172
 30
0.0
 10
96.2357205509
 20
62.4952886511
 30
0.0
 10
96.2573642898
 20
62.0428152743
 30
0.0
 10
96.2762824888
 20
61.7313947286
 30
0.0
 10
96.2922689312
 20
61.5362488694
 30
0.0
 10
96.3029733796
 20
61.430923254
 30
0.0
 10
96.313639839
 20
61.3534624616
 30
0.0
 10
96.321796357
 20
61.3111303284
 30
0.0
 10
96.3268558807
 20
61.2950213923
 30
0.0
  0
SPLINE
  5
571
100
AcDbEntity
  8
0
100
AcDbSpline
 62
7
  6
CONTINUOUS
 70
0
 71
3
 72
9
 73
5
 74
0
 42
0.0000001
 43
0.0000001
 44
0.0000000001
 40
0.0
 40
0.0
 40
0.0
 40
0.0
 40
0.6578357358
 40
1.0
 40
1.0
 40
1.0
 40
1.0
 10
96.3268558807
 20
61.2950213923
 30
0.0
 10
96.3285841815
 20
61.2895186833
 30
0.0
 10
96.3312082551
 20
61.2816715082
 30
0.0
 10
96.3370452293
 20
61.2734085528
 30
0.0
 10
96.3399948729
 20
61.2728611311
 30
0.0
  0
SPLINE
  5
572
100
AcDbEntity
  8
0
100
AcDbSpline
 62
7
  6
CONTINUOUS
 70
0
 71
3
 72
23
 73
19
 74
0
 42
0.0000001
 43
0.0000001
 44
0.0000000001
 40
0.0
 40
0.0
 40
0.0
 40
0.0
 40
0.1958280406
 40
0.3816775284
 40
0.5516155242
 40
0.6288969791
 40
0.7002187782
 40
0.7650049574
 40
0.8227473431
 40
0.8729752295
 40
0.9152997219
 40
0.9493758099
 40
0.9632401719
 40
0.9749511677
 40
0.984484875
 40
0.9918318125
 40
0.9969931675
 40
1.0
 40
1.0
 40
1.0
 40
1.0
 10
98.2181546979
 20
73.0184444106
 30
0.0
 10
98.2321860177
 20
72.3170163038
 30
0.0
 10
98.2597769074
 20
70.9499065784
 30
0.0
 10
98.3017305355
 20
68.974148123
 30
0.0
 10
98.3376040637
 20
67.42305941
 30
0.0
 10
98.366831031
 20
66.2822354977
 30
0.0
 10
98.3880258951
 20
65.5180452675
 30
0.0
 10
98.4091888405
 20
64.8238832205
 30
0.0
 10
98.4302993413
 20
64.2053293598
 30
0.0
 10
98.4513299462
 20
63.6672934206
 30
0.0
 10
98.4722559081
 20
63.2141199665
 30
0.0
 10
98.4905151367
 20
62.8912352203
 30
0.0
 10
98.5056469356
 20
62.6780722744
 30
0.0
 10
98.516120903
 20
62.5527008582
 30
0.0
 10
98.5265943826
 20
62.4508595939
 30
0.0
 10
98.5366927333
 20
62.3723723058
 30
0.0
 10
98.546951632
 20
62.3180228309
 30
0.0
 10
98.554543219
 20
62.2892315572
 30
0.0
 10
98.5599314382
 20
62.2799037825
 30
0.0
  0
SPLINE
  5
573
100
AcDbEntity
  8
0
100
AcDbSpline
 62
7
  6
CONTINUOUS
 70
0
 71
3
 72
9
 73
5
 74
0
 42
0.0000001
 43
0.0000001
 44
0.0000000001
 40
0.0
 40
0.0
 40
0.0
 40
0.0
 40
0.2373325247
 40
1.0
 40
1.0
 40
1.0
 40
1.0
 10
132.5018951772
 20
149.4346751243
 30
0.0
 10
132.49461979
 20
149.3982807703
 30
0.0
 10
132.4670421287
 20
149.2443422119
 30
0.0
 10
132.4444852792
 20
149.0894530815
 30
0.0
 10
132.4197178389
 20
148.9727859698
 30
0.0
  0
ELLIPSE
  5
574
100
AcDbEntity
  8
0
100
AcDbEllipse
 62
7
  6
CONTINUOUS
 10
131.3873496167
 20
149.010053751
 30
0.0
 11
0.5486916773
 21
1.2874646535
 31
0.0
 40
0.7145358838
 41
-1.5707963268
 42
-1.3028918007
  0
ELLIPSE
  5
575
100
AcDbEntity
  8
0
100
AcDbEllipse
 62
7
  6
CONTINUOUS
 10
132.8423586453
 20
148.9727859698
 30
0.0
 11
0.0
 21
1.0
 31
0.0
 40
0.383864035
 41
0.0
 42
1.0906723322
  0
ELLIPSE
  5
576
100
AcDbEntity
  8
0
100
AcDbEllipse
 62
7
  6
CONTINUOUS
 10
132.4584946103
 20
149.9727859698
 30
0.0
 11
0.0
 21
3.0
 31
0.0
 40
0.383864035
 41
0.0
 42
1.5707963268
  0
ELLIPSE
  5
577
100
AcDbEntity
  8
0
100
AcDbEllipse
 62
7
  6
CONTINUOUS
 10
113.9375414431
 20
149.9727859698
 30
0.0
 11
3.0
 21
0.0
 31
0.0
 40
1.0
 41
-0.0
 42
1.5707963268
  0
ELLIPSE
  5
578
100
AcDbEntity
  8
0
100
AcDbEllipse
 62
7
  6
CONTINUOUS
 10
130.2357575116
 20
146.3079275994
 30
0.0
 11
-0.5486916773
 21
-1.2874646535
 31
0.0
 40
0.7145358838
 41
1.5707963268
 42
2.1085963504
  0
ELLIPSE
  5
579
100
AcDbEntity
  8
0
100
AcDbEllipse
 62
7
  6
CONTINUOUS
 10
118.3517550054
 20
148.263560593
 30
0.0
 11
-1.2104221425
 21
1.2980188316
 31
0.0
 40
0.563438437
 41
0.5435120867
 42
1.5707963268
  0
ENDSEC
  0
SECTION
  2
OBJECTS
  0
DICTIONARY
  5
57A
100
AcDbDictionary
  3
ACAD_GROUP
350
57B
  3
ACAD_MLINESTYLE
350
57C
  0
DICTIONARY
  5
57B
102
{ACAD_REACTORS
330
57A
102
}
100
AcDbDictionary
  0
DICTIONARY
  5
57C
102
{ACAD_REACTORS
330
57A
102
}
100
AcDbDictionary
  3
STANDARD
350
57D
  0
MLINESTYLE
  5
57D
102
{ACAD_REACTORS
330
57C
102
}
100
AcDbMlineStyle
  2
STANDARD
 70
0
  3

 62
256
 51
90.0
 52
90.0
 71
2
 49
0.5
 62
256
  6
BYLAYER
 49
-0.5
 62
256
  6
BYLAYER
  0
ENDSEC
  0
EOF
