999
DXF file: C:\Users\64ciro\Desktop\FILE 3D-2D\ARMATEC\h36nll020_3080.dxf
999
Pro/ENGINEER 2017260 by Parametric Technology Corporation
  0
SECTION
  2
HEADER
  9
$ACADVER
  1
AC1014
  9
$DWGCODEPAGE
  3
ANSI_1252
  9
$EXTMAX
 10
297.0
 20
210.0
 30
0.0
  9
$EXTMIN
 10
0.0
 20
0.0
 30
0.0
  9
$LIMMIN
 10
0.0
 20
0.0
  9
$LIMMAX
 10
297.0
 20
210.0
  9
$VIEWCTR
 10
148.5
 20
105.0
  9
$VIEWSIZE
 40
210.0
  9
$CLAYER
  8
0
  9
$LTSCALE
 40
16.335
  9
$CELTYPE
  6
BYLAYER
  9
$DIMSCALE
 40
1.0
  9
$DIMASZ
 40
1.5
  9
$DIMEXO
 40
0.0625
  9
$DIMDLI
 40
11.286
  9
$DIMEXE
 40
0.125
  9
$DIMCEN
 40
2.673
  9
$DIMLFAC
 40
1.0
  9
$DIMBLK
  1
_CLOSED
  9
$DIMALT
 70
0
  9
$DIMALTF
 40
25.4
  9
$DIMTXT
 40
2.0
  9
$DIMTOL
 70
1
  9
$DIMLIM
 70
0
  9
$DIMTFAC
 40
1.0
  9
$DIMTP
 40
0.01
  9
$DIMTM
 40
0.01
  9
$DIMGAP
 40
0.625
  9
$AUNITS
 70
0
  9
$PDMODE
 70
3
  9
$PDSIZE
 40
0.3125
  9
$HANDSEED
  5
5EB
  9
$TILEMODE
 70
1
  9
$MEASUREMENT
 70
1
  0
ENDSEC
  0
SECTION
  2
CLASSES
  0
ENDSEC
  0
SECTION
  2
TABLES
  0
TABLE
  2
VPORT
  5
8
100
AcDbSymbolTable
 70
2
  0
VPORT
  5
1F4
100
AcDbSymbolTableRecord
100
AcDbViewportTableRecord
  2
*ACTIVE
 70
0
 10
0.0
 20
0.0
 11
1.0
 21
1.0
 12
148.5
 22
105.0
 13
0.0
 23
0.0
 14
1.0
 24
1.0
 15
0.0
 25
0.0
 16
0.0
 26
0.0
 36
1.0
 17
0.0
 27
0.0
 37
0.0
 40
210.0
 41
1.4142857143
 42
50.0
 43
0.0
 44
0.0
 50
0.0
 51
0.0
 71
0
 72
100
 73
1
 74
1
 75
0
 76
0
 77
0
 78
0
  0
ENDTAB
  0
TABLE
  2
LTYPE
  5
5
100
AcDbSymbolTable
 70
6
  0
LTYPE
  5
14
100
AcDbSymbolTableRecord
100
AcDbLinetypeTableRecord
  2
BYBLOCK
 70
0
  3

 72
65
 73
0
 40
0.0
  0
LTYPE
  5
15
100
AcDbSymbolTableRecord
100
AcDbLinetypeTableRecord
  2
BYLAYER
 70
0
  3

 72
65
 73
0
 40
0.0
  0
LTYPE
  5
16
100
AcDbSymbolTableRecord
100
AcDbLinetypeTableRecord
  2
CONTINUOUS
 70
64
  3
Solid line
 72
65
 73
0
 40
0.0
  0
LTYPE
  5
1F5
100
AcDbSymbolTableRecord
100
AcDbLinetypeTableRecord
  2
CENTER
 70
64
  3
____ _ ____ _ ____ _ ____ _ ____ _ ____ _ ____
 72
65
 73
4
 40
0.6
 49
0.375
 74
0
 49
-0.075
 74
0
 49
0.075
 74
0
 49
-0.075
 74
0
  0
LTYPE
  5
1F6
100
AcDbSymbolTableRecord
100
AcDbLinetypeTableRecord
  2
HIDDEN
 70
64
  3
- - - - - - - - - - - - - - - - - - - -
 72
65
 73
2
 40
0.2
 49
0.1
 74
0
 49
-0.1
 74
0
  0
LTYPE
  5
1F7
100
AcDbSymbolTableRecord
100
AcDbLinetypeTableRecord
  2
PHANTOM
 70
64
  3
_____ _ _ _____ _ _ _____ _ _ _____
 72
65
 73
6
 40
0.8
 49
0.45
 74
0
 49
-0.05
 74
0
 49
0.1
 74
0
 49
-0.05
 74
0
 49
0.1
 74
0
 49
-0.05
 74
0
  0
LTYPE
  5
1F8
100
AcDbSymbolTableRecord
100
AcDbLinetypeTableRecord
  2
DOT
 70
64
  3
. . . . . . . . . . . . . . . . . . . .
 72
65
 73
2
 40
0.2
 49
0.1
 74
0
 49
-0.1
 74
0
  0
LTYPE
  5
1F9
100
AcDbSymbolTableRecord
100
AcDbLinetypeTableRecord
  2
DASHED
 70
64
  3
- - - - - - - - - - - - - - - - - - - -
 72
65
 73
2
 40
0.2
 49
0.1
 74
0
 49
-0.1
 74
0
  0
ENDTAB
  0
TABLE
  2
LAYER
  5
2
100
AcDbSymbolTable
 70
36
  0
LAYER
  5
10
100
AcDbSymbolTableRecord
100
AcDbLayerTableRecord
  2
0
 70
0
 62
7
  6
CONTINUOUS
  0
LAYER
  5
1FA
100
AcDbSymbolTableRecord
100
AcDbLayerTableRecord
  2
DEFAULT_1
 70
0
 62
7
  6
CENTER
  0
LAYER
  5
1FB
100
AcDbSymbolTableRecord
100
AcDbLayerTableRecord
  2
DEFAULT_2
 70
0
 62
8
  6
HIDDEN
  0
LAYER
  5
1FC
100
AcDbSymbolTableRecord
100
AcDbLayerTableRecord
  2
DEFAULT_3
 70
0
 62
7
  6
PHANTOM
  0
LAYER
  5
1FD
100
AcDbSymbolTableRecord
100
AcDbLayerTableRecord
  2
ASSI
 70
0
 62
7
  6
CONTINUOUS
  0
LAYER
  5
1FE
100
AcDbSymbolTableRecord
100
AcDbLayerTableRecord
  2
COSMETICA
 70
0
 62
7
  6
CONTINUOUS
  0
LAYER
  5
1FF
100
AcDbSymbolTableRecord
100
AcDbLayerTableRecord
  2
CSYS
 70
0
 62
7
  6
CONTINUOUS
  0
LAYER
  5
200
100
AcDbSymbolTableRecord
100
AcDbLayerTableRecord
  2
CURVE
 70
0
 62
7
  6
CONTINUOUS
  0
LAYER
  5
201
100
AcDbSymbolTableRecord
100
AcDbLayerTableRecord
  2
DETTAGLI
 70
0
 62
7
  6
CONTINUOUS
  0
LAYER
  5
202
100
AcDbSymbolTableRecord
100
AcDbLayerTableRecord
  2
FILETTI
 70
0
 62
7
  6
CONTINUOUS
  0
LAYER
  5
203
100
AcDbSymbolTableRecord
100
AcDbLayerTableRecord
  2
GEOM
 70
0
 62
7
  6
CONTINUOUS
  0
LAYER
  5
204
100
AcDbSymbolTableRecord
100
AcDbLayerTableRecord
  2
GEOMETRIA_SOLIDA
 70
0
 62
7
  6
CONTINUOUS
  0
LAYER
  5
205
100
AcDbSymbolTableRecord
100
AcDbLayerTableRecord
  2
LAY0001
 70
0
 62
7
  6
CONTINUOUS
  0
LAYER
  5
206
100
AcDbSymbolTableRecord
100
AcDbLayerTableRecord
  2
LAY0002
 70
0
 62
7
  6
CONTINUOUS
  0
LAYER
  5
207
100
AcDbSymbolTableRecord
100
AcDbLayerTableRecord
  2
LAY0003
 70
0
 62
7
  6
CONTINUOUS
  0
LAYER
  5
208
100
AcDbSymbolTableRecord
100
AcDbLayerTableRecord
  2
NOGEOM
 70
0
 62
7
  6
CONTINUOUS
  0
LAYER
  5
209
100
AcDbSymbolTableRecord
100
AcDbLayerTableRecord
  2
PIANI
 70
0
 62
7
  6
CONTINUOUS
  0
LAYER
  5
20A
100
AcDbSymbolTableRecord
100
AcDbLayerTableRecord
  2
QUOTE
 70
0
 62
7
  6
CONTINUOUS
  0
LAYER
  5
20B
100
AcDbSymbolTableRecord
100
AcDbLayerTableRecord
  2
RACCORDI
 70
0
 62
7
  6
CONTINUOUS
  0
LAYER
  5
20C
100
AcDbSymbolTableRecord
100
AcDbLayerTableRecord
  2
RIF
 70
0
 62
7
  6
CONTINUOUS
  0
LAYER
  5
20D
100
AcDbSymbolTableRecord
100
AcDbLayerTableRecord
  2
TABELLE
 70
0
 62
7
  6
CONTINUOUS
  0
ENDTAB
  0
TABLE
  2
STYLE
  5
3
100
AcDbSymbolTable
 70
1
  0
STYLE
  5
11
100
AcDbSymbolTableRecord
100
AcDbTextStyleTableRecord
  2
STANDARD
 70
0
 40
0.0
 41
0.8
 50
0.0
 71
0
 42
0.2
  3
txt
  4

  0
STYLE
  5
20E
100
AcDbSymbolTableRecord
100
AcDbTextStyleTableRecord
  2
TEXTSTYLE_1
 70
0
 40
0.0
 41
0.8
 50
0.0
 71
0
 42
0.2
  3
gdt
  4

  0
ENDTAB
  0
TABLE
  2
VIEW
  5
6
100
AcDbSymbolTable
 70
0
  0
ENDTAB
  0
TABLE
  2
UCS
  5
7
100
AcDbSymbolTable
 70
0
  0
ENDTAB
  0
TABLE
  2
APPID
  5
9
100
AcDbSymbolTable
 70
1
  0
APPID
  5
20F
100
AcDbSymbolTableRecord
100
AcDbRegAppTableRecord
  2
ACAD
 70
0
  0
ENDTAB
  0
TABLE
  2
BLOCK_RECORD
  5
1
100
AcDbSymbolTable
 70
0
  0
BLOCK_RECORD
  5
1F
100
AcDbSymbolTableRecord
100
AcDbBlockTableRecord
  2
*MODEL_SPACE
  0
BLOCK_RECORD
  5
1B
100
AcDbSymbolTableRecord
100
AcDbBlockTableRecord
  2
*PAPER_SPACE
  0
ENDTAB
  0
TABLE
  2
DIMSTYLE
  5
A
100
AcDbSymbolTable
 70
1
  0
DIMSTYLE
105
210
100
AcDbSymbolTableRecord
100
AcDbDimStyleTableRecord
  2
STANDARD
 70
0
  3

  4

  5
_CLOSED
  6
_CLOSED
  7
_CLOSED
 40
1.0
 41
1.5
 42
0.0625
 43
0.38
 44
0.125
 45
0.0
 46
0.0
 47
0.01
 48
0.01
140
2.0
141
0.09
142
0.0
143
25.4
144
1.0
145
0.0
146
1.0
147
0.625
 71
1.0
 72
0.0
 73
0
 74
0
 75
0
 76
0
 77
1
 78
8
 79
2
170
0
171
1
172
0
173
0
174
0
175
0
176
0
177
0
178
0
270
2
179
2
271
2
272
2
273
2
274
2
275
0
280
0
281
0
282
0
283
1
284
8
285
0
286
0
287
3
288
0
340
11
  0
ENDTAB
  0
ENDSEC
  0
SECTION
  2
BLOCKS
  0
BLOCK
  5
20
100
AcDbEntity
  8
0
100
AcDbBlockBegin
  2
*MODEL_SPACE
 70
0
 10
0.0
 20
0.0
 30
0.0
  3
*MODEL_SPACE
  1

  0
ENDBLK
  5
21
100
AcDbEntity
  8
0
100
AcDbBlockEnd
  0
BLOCK
  5
1C
100
AcDbEntity
  8
0
100
AcDbBlockBegin
  2
*PAPER_SPACE
 70
0
 10
0.0
 20
0.0
 30
0.0
  3
*PAPER_SPACE
  1

  0
ENDBLK
  5
1D
100
AcDbEntity
  8
0
100
AcDbBlockEnd
  0
ENDSEC
  0
SECTION
  2
ENTITIES
  0
LINE
  5
211
100
AcDbEntity
  8
0
100
AcDbLine
 62
7
  6
CONTINUOUS
 10
0.0
 20
0.0
 11
0.0
 21
210.0
  0
LINE
  5
212
100
AcDbEntity
  8
0
100
AcDbLine
 62
7
  6
CONTINUOUS
 10
0.0
 20
0.0
 11
297.0
 21
0.0
  0
LINE
  5
213
100
AcDbEntity
  8
0
100
AcDbLine
 62
7
  6
CONTINUOUS
 10
0.0
 20
210.0
 11
297.0
 21
210.0
  0
LINE
  5
214
100
AcDbEntity
  8
0
100
AcDbLine
 62
7
  6
CONTINUOUS
 10
297.0
 20
0.0
 11
297.0
 21
210.0
  0
LINE
  5
215
100
AcDbEntity
  8
0
100
AcDbLine
 62
7
  6
CONTINUOUS
 10
91.1361887389
 20
59.6310707542
 11
91.1303831116
 21
59.6360973354
  0
LINE
  5
216
100
AcDbEntity
  8
0
100
AcDbLine
 62
7
  6
CONTINUOUS
 10
92.6303836953
 20
59.6360973326
 11
92.6361893193
 21
59.6310707542
  0
LINE
  5
217
100
AcDbEntity
  8
0
100
AcDbLine
 62
7
  6
CONTINUOUS
 10
94.1303830177
 20
59.6360973283
 11
94.1361886368
 21
59.6310707542
  0
LINE
  5
218
100
AcDbEntity
  8
0
100
AcDbLine
 62
7
  6
CONTINUOUS
 10
88.908838672
 20
60.8310707542
 11
89.9330054974
 21
59.8069039289
  0
LINE
  5
219
100
AcDbEntity
  8
0
100
AcDbLine
 62
7
  6
CONTINUOUS
 10
90.5526701304
 20
60.6364112191
 11
91.1303831116
 21
59.6360973354
  0
LINE
  5
21A
100
AcDbEntity
  8
0
100
AcDbLine
 62
7
  6
CONTINUOUS
 10
92.052670704
 20
60.636411233
 11
92.6303836953
 21
59.6360973326
  0
LINE
  5
21B
100
AcDbEntity
  8
0
100
AcDbLine
 62
7
  6
CONTINUOUS
 10
93.5526700514
 20
60.6364111882
 11
94.1303830177
 21
59.6360973283
  0
LINE
  5
21C
100
AcDbEntity
  8
0
100
AcDbLine
 62
7
  6
CONTINUOUS
 10
95.0526703487
 20
60.6364112318
 11
95.5675699484
 21
59.7448609406
  0
LINE
  5
21D
100
AcDbEntity
  8
0
100
AcDbLine
 62
7
  6
CONTINUOUS
 10
107.3730522344
 20
58.7168571919
 11
105.2946251096
 21
60.7952843166
  0
LINE
  5
21E
100
AcDbEntity
  8
0
100
AcDbLine
 62
7
  6
CONTINUOUS
 10
92.3314884028
 20
85.1310707542
 11
92.908838672
 21
84.6310707542
  0
LINE
  5
21F
100
AcDbEntity
  8
0
100
AcDbLine
 62
7
  6
CONTINUOUS
 10
89.6650066321
 20
92.6257303129
 11
89.4613507633
 21
92.9783574242
  0
LINE
  5
220
100
AcDbEntity
  8
0
100
AcDbLine
 62
7
  6
CONTINUOUS
 10
91.1650071101
 20
92.6257302727
 11
90.5872941189
 21
93.6260441727
  0
LINE
  5
221
100
AcDbEntity
  8
0
100
AcDbLine
 62
7
  6
CONTINUOUS
 10
88.908838672
 20
60.8310707542
 11
88.908838672
 21
92.4310707542
  0
LINE
  5
222
100
AcDbEntity
  8
0
100
AcDbLine
 62
7
  6
CONTINUOUS
 10
104.6257206802
 20
156.2310707542
 11
103.408838672
 21
154.9261245649
  0
LINE
  5
223
100
AcDbEntity
  8
0
100
AcDbLine
 62
7
  6
CONTINUOUS
 10
105.2972609505
 20
156.2310707542
 11
103.408838672
 21
154.2059857914
  0
LINE
  5
224
100
AcDbEntity
  8
0
100
AcDbLine
 62
7
  6
CONTINUOUS
 10
112.2900365185
 20
164.0738051643
 11
112.908838672
 21
164.4310707542
  0
LINE
  5
225
100
AcDbEntity
  8
0
100
AcDbLine
 62
7
  6
CONTINUOUS
 10
129.950673085
 20
57.6310707542
 11
122.6987881657
 21
57.6310707542
  0
LINE
  5
226
100
AcDbEntity
  8
0
100
AcDbLine
 62
7
  6
CONTINUOUS
 10
121.6188891783
 20
58.1310707542
 11
108.7872657967
 21
58.1310707542
  0
LINE
  5
227
100
AcDbEntity
  8
GEOM
100
AcDbLine
 62
7
  6
CONTINUOUS
 10
130.8457859671
 20
59.1310707542
 11
136.28195958
 21
59.1310707542
  0
LINE
  5
228
100
AcDbEntity
  8
0
100
AcDbLine
 62
7
  6
CONTINUOUS
 10
91.1361887389
 20
59.6310707542
 11
91.3314887265
 21
59.6310707542
  0
LINE
  5
229
100
AcDbEntity
  8
0
100
AcDbLine
 62
7
  6
CONTINUOUS
 10
92.6361893193
 20
59.6310707542
 11
92.8314880931
 21
59.6310707542
  0
LINE
  5
22A
100
AcDbEntity
  8
0
100
AcDbLine
 62
7
  6
CONTINUOUS
 10
94.1361886368
 20
59.6310707542
 11
94.3314883786
 21
59.6310707542
  0
LINE
  5
22B
100
AcDbEntity
  8
0
100
AcDbLine
 62
7
  6
CONTINUOUS
 10
142.7361887266
 20
59.6310707542
 11
142.9314887739
 21
59.6310707542
  0
LINE
  5
22C
100
AcDbEntity
  8
0
100
AcDbLine
 62
7
  6
CONTINUOUS
 10
144.2361893354
 20
59.6310707542
 11
144.4314880913
 21
59.6310707542
  0
LINE
  5
22D
100
AcDbEntity
  8
0
100
AcDbLine
 62
7
  6
CONTINUOUS
 10
145.7361886649
 20
59.6310707542
 11
145.9314882851
 21
59.6310707542
  0
LINE
  5
22E
100
AcDbEntity
  8
0
100
AcDbLine
 62
7
  6
CONTINUOUS
 10
147.2361888838
 20
59.6310707542
 11
147.408838672
 21
59.6310707542
  0
LINE
  5
22F
100
AcDbEntity
  8
GEOM
100
AcDbLine
 62
7
  6
CONTINUOUS
 10
130.8457896783
 20
59.7168669275
 11
135.6053241388
 21
59.7168571919
  0
LINE
  5
230
100
AcDbEntity
  8
0
100
AcDbLine
 62
7
  6
CONTINUOUS
 10
90.4088384526
 20
60.6310707819
 11
90.5588384526
 21
60.6310707819
  0
LINE
  5
231
100
AcDbEntity
  8
0
100
AcDbLine
 62
7
  6
CONTINUOUS
 10
91.908839023
 20
60.6310707986
 11
92.058839023
 21
60.6310707986
  0
LINE
  5
232
100
AcDbEntity
  8
0
100
AcDbLine
 62
7
  6
CONTINUOUS
 10
93.4088383649
 20
60.6310707585
 11
93.5588383649
 21
60.6310707585
  0
LINE
  5
233
100
AcDbEntity
  8
0
100
AcDbLine
 62
7
  6
CONTINUOUS
 10
94.9088386719
 20
60.6310707936
 11
95.0588386719
 21
60.6310707936
  0
LINE
  5
234
100
AcDbEntity
  8
0
100
AcDbLine
 62
7
  6
CONTINUOUS
 10
96.4088389792
 20
60.6310707844
 11
96.4588387022
 21
60.6310707844
  0
LINE
  5
235
100
AcDbEntity
  8
0
100
AcDbLine
 62
7
  6
CONTINUOUS
 10
142.0088384245
 20
60.6310708078
 11
142.1588384245
 21
60.6310708078
  0
LINE
  5
236
100
AcDbEntity
  8
0
100
AcDbLine
 62
7
  6
CONTINUOUS
 10
143.5088390547
 20
60.6310707731
 11
143.6588390547
 21
60.6310707731
  0
LINE
  5
237
100
AcDbEntity
  8
0
100
AcDbLine
 62
7
  6
CONTINUOUS
 10
145.0088383779
 20
60.631070783
 11
145.1588383779
 21
60.631070783
  0
LINE
  5
238
100
AcDbEntity
  8
0
100
AcDbLine
 62
7
  6
CONTINUOUS
 10
146.5088385846
 20
60.6310708034
 11
146.6588385846
 21
60.6310708034
  0
LINE
  5
239
100
AcDbEntity
  8
0
100
AcDbLine
 62
7
  6
CONTINUOUS
 10
148.0088390673
 20
60.631070764
 11
148.1588390673
 21
60.631070764
  0
LINE
  5
23A
100
AcDbEntity
  8
0
100
AcDbLine
 62
7
  6
CONTINUOUS
 10
140.6188891783
 20
61.3810707542
 11
137.608838672
 21
61.3810707542
  0
LINE
  5
23B
100
AcDbEntity
  8
0
100
AcDbLine
 62
7
  6
CONTINUOUS
 10
103.8804115473
 20
61.3810707542
 11
97.6230522344
 21
61.3810707542
  0
LINE
  5
23C
100
AcDbEntity
  8
0
100
AcDbLine
 62
7
  6
CONTINUOUS
 10
90.5814884934
 20
93.6310707542
 11
90.5872941189
 21
93.6260441727
  0
LINE
  5
23D
100
AcDbEntity
  8
0
100
AcDbLine
 62
7
  6
CONTINUOUS
 10
122.2038134188
 20
57.8360960074
 11
122.1138639252
 21
57.9260455011
  0
LINE
  5
23E
100
AcDbEntity
  8
0
100
AcDbLine
 62
7
  6
CONTINUOUS
 10
92.6650071741
 20
92.6257303103
 11
92.0872942001
 21
93.6260441828
  0
LINE
  5
23F
100
AcDbEntity
  8
0
100
AcDbLine
 62
7
  6
CONTINUOUS
 10
94.1650066912
 20
92.625730297
 11
93.5872937139
 21
93.6260441744
  0
LINE
  5
240
100
AcDbEntity
  8
0
100
AcDbLine
 62
7
  6
CONTINUOUS
 10
95.6650072944
 20
92.6257302717
 11
95.0872943016
 21
93.6260441743
  0
LINE
  5
241
100
AcDbEntity
  8
0
100
AcDbLine
 62
7
  6
CONTINUOUS
 10
95.458838672
 20
76.4637359099
 11
95.458838672
 21
64.1102028037
  0
LINE
  5
242
100
AcDbEntity
  8
0
100
AcDbLine
 62
7
  6
CONTINUOUS
 10
96.4588387062
 20
62.0143516387
 11
96.4588387022
 21
60.6310707844
  0
LINE
  5
243
100
AcDbEntity
  8
0
100
AcDbLine
 62
7
  6
CONTINUOUS
 10
96.9159454532
 20
61.0881775354
 11
96.9159454532
 21
92.173963973
  0
LINE
  5
244
100
AcDbEntity
  8
0
100
AcDbLine
 62
7
  6
CONTINUOUS
 10
97.6230522344
 20
61.3810707542
 11
97.6230522344
 21
91.8810707542
  0
LINE
  5
245
100
AcDbEntity
  8
0
100
AcDbLine
 62
7
  6
CONTINUOUS
 10
103.408838672
 20
142.7197458888
 11
103.158838672
 21
142.2867331869
  0
LINE
  5
246
100
AcDbEntity
  8
0
100
AcDbLine
 62
7
  6
CONTINUOUS
 10
112.8950358705
 20
156.2172679527
 11
112.508838672
 21
155.8310707542
  0
LINE
  5
247
100
AcDbEntity
  8
0
100
AcDbLine
 62
7
  6
CONTINUOUS
 10
107.158838672
 20
150.3310707542
 11
107.458838672
 21
150.6310707542
  0
LINE
  5
248
100
AcDbEntity
  8
0
100
AcDbLine
 62
7
  6
CONTINUOUS
 10
109.608838672
 20
152.4310707542
 11
109.3251829215
 21
152.1474150037
  0
LINE
  5
249
100
AcDbEntity
  8
0
100
AcDbLine
 62
7
  6
CONTINUOUS
 10
112.2900365185
 20
161.2285057027
 11
111.208838672
 21
160.604275835
  0
LINE
  5
24A
100
AcDbEntity
  8
GEOM
100
AcDbLine
 62
7
  6
CONTINUOUS
 10
130.3236346356
 20
70.365859111
 11
130.8457859672
 21
70.2107605376
  0
LINE
  5
24B
100
AcDbEntity
  8
0
100
AcDbLine
 62
7
  6
CONTINUOUS
 10
148.2464739889
 20
60.4739929073
 11
148.2503452771
 21
60.4725773594
  0
LINE
  5
24C
100
AcDbEntity
  8
0
100
AcDbLine
 62
7
  6
CONTINUOUS
 10
92.0872942001
 20
93.6260441828
 11
92.0814885841
 21
93.6310707542
  0
LINE
  5
24D
100
AcDbEntity
  8
0
100
AcDbLine
 62
7
  6
CONTINUOUS
 10
93.5872937139
 20
93.6260441744
 11
93.5814880883
 21
93.6310707542
  0
LINE
  5
24E
100
AcDbEntity
  8
0
100
AcDbLine
 62
7
  6
CONTINUOUS
 10
96.9159454532
 20
92.173963973
 11
96.0467553931
 21
93.0431540331
  0
LINE
  5
24F
100
AcDbEntity
  8
0
100
AcDbLine
 62
7
  6
CONTINUOUS
 10
111.9161782463
 20
75.1237767918
 11
110.648838672
 21
77.6110707542
  0
LINE
  5
250
100
AcDbEntity
  8
0
100
AcDbLine
 62
7
  6
CONTINUOUS
 10
112.2528761176
 20
75.7845835711
 11
111.3222344146
 21
77.6110707542
  0
LINE
  5
251
100
AcDbEntity
  8
0
100
AcDbLine
 62
7
  6
CONTINUOUS
 10
102.908838672
 20
145.9310707542
 11
102.908838672
 21
142.7197458888
  0
LINE
  5
252
100
AcDbEntity
  8
0
100
AcDbLine
 62
7
  6
CONTINUOUS
 10
103.408838672
 20
142.7197458888
 11
103.408838672
 21
156.2310707542
  0
LINE
  5
253
100
AcDbEntity
  8
0
100
AcDbLine
 62
7
  6
CONTINUOUS
 10
103.8804115473
 20
61.3810707542
 11
103.8804115473
 21
91.8810707542
  0
LINE
  5
254
100
AcDbEntity
  8
0
100
AcDbLine
 62
7
  6
CONTINUOUS
 10
108.3143934205
 20
142.6068066855
 11
108.4493134805
 21
142.7482280263
  0
LINE
  5
255
100
AcDbEntity
  8
0
100
AcDbLine
 62
7
  6
CONTINUOUS
 10
107.7752957641
 20
143.1224921105
 11
107.910915484
 21
143.2639134667
  0
LINE
  5
256
100
AcDbEntity
  8
0
100
AcDbLine
 62
7
  6
CONTINUOUS
 10
109.5663311664
 20
151.8621687903
 11
108.9192458149
 21
151.5248401671
  0
LINE
  5
257
100
AcDbEntity
  8
GEOM
100
AcDbLine
 62
7
  6
CONTINUOUS
 10
130.8457859671
 20
68.7965469751
 11
135.6053241388
 21
68.7965469751
  0
LINE
  5
258
100
AcDbEntity
  8
GEOM
100
AcDbLine
 62
7
  6
CONTINUOUS
 10
130.8457859671
 20
70.2107605374
 11
135.6053241388
 21
70.2107605374
  0
LINE
  5
259
100
AcDbEntity
  8
0
100
AcDbLine
 62
7
  6
CONTINUOUS
 10
121.208838672
 20
73.0510707542
 11
109.208838672
 21
73.0510707542
  0
LINE
  5
25A
100
AcDbEntity
  8
GEOM
100
AcDbLine
 62
7
  6
CONTINUOUS
 10
130.448770434
 20
72.7848839041
 11
131.1461067227
 21
72.7722298148
  0
LINE
  5
25B
100
AcDbEntity
  8
GEOM
100
AcDbLine
 62
7
  6
CONTINUOUS
 10
136.0383368407
 20
70.1224334148
 11
135.6053256262
 21
70.2107602383
  0
LINE
  5
25C
100
AcDbEntity
  8
0
100
AcDbLine
 62
7
  6
CONTINUOUS
 10
142.7361880412
 20
59.6310707543
 11
142.7303830989
 21
59.636097336
  0
LINE
  5
25D
100
AcDbEntity
  8
0
100
AcDbLine
 62
7
  6
CONTINUOUS
 10
144.2303837106
 20
59.6360973336
 11
144.2361893354
 21
59.6310707542
  0
LINE
  5
25E
100
AcDbEntity
  8
0
100
AcDbLine
 62
7
  6
CONTINUOUS
 10
145.7303830471
 20
59.6360973275
 11
145.7361886649
 21
59.6310707542
  0
LINE
  5
25F
100
AcDbEntity
  8
0
100
AcDbLine
 62
7
  6
CONTINUOUS
 10
147.2361890961
 20
59.6310707542
 11
147.2303832552
 21
59.6360973368
  0
LINE
  5
260
100
AcDbEntity
  8
0
100
AcDbLine
 62
7
  6
CONTINUOUS
 10
141.8807296039
 20
60.4091798223
 11
141.1138639252
 21
61.1760455011
  0
LINE
  5
261
100
AcDbEntity
  8
0
100
AcDbLine
 62
7
  6
CONTINUOUS
 10
105.2946251096
 20
60.7952843166
 11
105.2946251096
 21
92.4668571919
  0
LINE
  5
262
100
AcDbEntity
  8
0
100
AcDbLine
 62
7
  6
CONTINUOUS
 10
106.408838672
 20
146.4310707542
 11
106.408838672
 21
155.7310707542
  0
LINE
  5
263
100
AcDbEntity
  8
0
100
AcDbLine
 62
7
  6
CONTINUOUS
 10
107.158838672
 20
147.3810707542
 11
107.158838672
 21
150.3310707542
  0
LINE
  5
264
100
AcDbEntity
  8
0
100
AcDbLine
 62
7
  6
CONTINUOUS
 10
107.3730522344
 20
94.5452843166
 11
107.3730522344
 21
58.7168571919
  0
LINE
  5
265
100
AcDbEntity
  8
0
100
AcDbLine
 62
7
  6
CONTINUOUS
 10
107.408838672
 20
146.9653853293
 11
107.408838672
 21
146.6310707542
  0
LINE
  5
266
100
AcDbEntity
  8
0
100
AcDbLine
 62
7
  6
CONTINUOUS
 10
107.5921869129
 20
145.9310707542
 11
107.5921869129
 21
143.5467561792
  0
LINE
  5
267
100
AcDbEntity
  8
0
100
AcDbLine
 62
7
  6
CONTINUOUS
 10
107.7842828255
 20
145.9310707542
 11
107.7842828255
 21
143.5467561792
  0
LINE
  5
268
100
AcDbEntity
  8
0
100
AcDbLine
 62
7
  6
CONTINUOUS
 10
108.158838672
 20
139.2845117871
 11
108.158838672
 21
95.4816624615
  0
LINE
  5
269
100
AcDbEntity
  8
0
100
AcDbLine
 62
7
  6
CONTINUOUS
 10
108.3758145891
 20
142.4653853293
 11
108.3758145891
 21
139.8520610061
  0
LINE
  5
26A
100
AcDbEntity
  8
0
100
AcDbLine
 62
7
  6
CONTINUOUS
 10
108.5664966915
 20
142.4653853293
 11
108.5664966915
 21
139.8520610061
  0
LINE
  5
26B
100
AcDbEntity
  8
0
100
AcDbLine
 62
7
  6
CONTINUOUS
 10
108.7872657967
 20
94.5357762822
 11
108.7872657967
 21
58.1310707542
  0
LINE
  5
26C
100
AcDbEntity
  8
0
100
AcDbLine
 62
7
  6
CONTINUOUS
 10
108.908838672
 20
151.5139931727
 11
108.908838672
 21
151.0281493793
  0
LINE
  5
26D
100
AcDbEntity
  8
0
100
AcDbLine
 62
7
  6
CONTINUOUS
 10
109.208838672
 20
73.0510707542
 11
109.208838672
 21
80.2510707542
  0
LWPOLYLINE
  5
26E
100
AcDbEntity
  8
0
100
AcDbPolyline
 62
7
  6
CONTINUOUS
 90
11
 70
0
 10
108.1588387554
 20
95.4816624539
 10
108.154451991
 20
95.4034180026
 10
108.1407650776
 20
95.3236231364
 10
108.1179562972
 20
95.2459423466
 10
108.086330769
 20
95.171414738
 10
108.0463115438
 20
95.1010372232
 10
107.9984339591
 20
95.0357512155
 10
107.9433384887
 20
94.9764300319
 10
107.881762177
 20
94.9238671965
 10
107.8145286885
 20
94.8787657614
 10
107.803245954
 20
94.8722500902
  0
LINE
  5
26F
100
AcDbEntity
  8
0
100
AcDbLine
 62
7
  6
CONTINUOUS
 10
116.908838672
 20
159.4310707542
 11
116.8573521126
 21
159.2310707542
  0
LINE
  5
270
100
AcDbEntity
  8
0
100
AcDbLine
 62
7
  6
CONTINUOUS
 10
118.7629406383
 20
159.4310707542
 11
118.6830028891
 21
159.2310707542
  0
LINE
  5
271
100
AcDbEntity
  8
0
100
AcDbLine
 62
7
  6
CONTINUOUS
 10
113.490088672
 20
140.2951726432
 11
113.3025886748
 21
139.9121939655
  0
LINE
  5
272
100
AcDbEntity
  8
0
100
AcDbLine
 62
7
  6
CONTINUOUS
 10
122.908838672
 20
159.4310707542
 11
122.8086140181
 21
159.2310707542
  0
LINE
  5
273
100
AcDbEntity
  8
0
100
AcDbLine
 62
7
  6
CONTINUOUS
 10
120.4355501858
 20
159.4310707542
 11
120.3349861107
 21
159.2310707542
  0
LINE
  5
274
100
AcDbEntity
  8
0
100
AcDbLine
 62
7
  6
CONTINUOUS
 10
122.6151777698
 20
159.4310707542
 11
122.5039482377
 21
159.2310707542
  0
LINE
  5
275
100
AcDbEntity
  8
0
100
AcDbLine
 62
7
  6
CONTINUOUS
 10
121.7629406383
 20
159.4310707542
 11
121.6515941496
 21
159.2310707542
  0
LINE
  5
276
100
AcDbEntity
  8
0
100
AcDbLine
 62
7
  6
CONTINUOUS
 10
114.052588672
 20
140.1036833043
 11
113.8650886497
 21
139.8164490278
  0
LINE
  5
277
100
AcDbEntity
  8
0
100
AcDbLine
 62
7
  6
CONTINUOUS
 10
113.8650886497
 20
140.678151321
 11
113.490088672
 21
140.2951726432
  0
LINE
  5
278
100
AcDbEntity
  8
0
100
AcDbLine
 62
7
  6
CONTINUOUS
 10
120.608838672
 20
73.6510707542
 11
109.808838672
 21
73.6510707542
  0
LINE
  5
279
100
AcDbEntity
  8
0
100
AcDbLine
 62
7
  6
CONTINUOUS
 10
117.2756301572
 20
74.5510707542
 11
116.6756301572
 21
74.5510707542
  0
LINE
  5
27A
100
AcDbEntity
  8
0
100
AcDbLine
 62
7
  6
CONTINUOUS
 10
115.8356301572
 20
74.5510707542
 11
115.2356301572
 21
74.5510707542
  0
LINE
  5
27B
100
AcDbEntity
  8
0
100
AcDbLine
 62
7
  6
CONTINUOUS
 10
112.8364822817
 20
74.5510707542
 11
112.1630865391
 21
74.5510707542
  0
LINE
  5
27C
100
AcDbEntity
  8
0
100
AcDbLine
 62
7
  6
CONTINUOUS
 10
118.9556301572
 20
76.6310707542
 11
118.5956301572
 21
76.6310707542
  0
LINE
  5
27D
100
AcDbEntity
  8
0
100
AcDbLine
 62
7
  6
CONTINUOUS
 10
119.5556301572
 20
77.2510707542
 11
118.9556301572
 21
77.2510707542
  0
LINE
  5
27E
100
AcDbEntity
  8
0
100
AcDbLine
 62
7
  6
CONTINUOUS
 10
117.2756301572
 20
77.6110707542
 11
116.6756301572
 21
77.6110707542
  0
LINE
  5
27F
100
AcDbEntity
  8
0
100
AcDbLine
 62
7
  6
CONTINUOUS
 10
115.8356301572
 20
77.6110707542
 11
115.2356301572
 21
77.6110707542
  0
LINE
  5
280
100
AcDbEntity
  8
0
100
AcDbLine
 62
7
  6
CONTINUOUS
 10
114.3956301572
 20
77.6110707542
 11
113.7222344146
 21
77.6110707542
  0
LINE
  5
281
100
AcDbEntity
  8
0
100
AcDbLine
 62
7
  6
CONTINUOUS
 10
111.3222344146
 20
77.6110707542
 11
110.648838672
 21
77.6110707542
  0
LINE
  5
282
100
AcDbEntity
  8
0
100
AcDbLine
 62
7
  6
CONTINUOUS
 10
115.8356301572
 20
78.2110707542
 11
115.2356301572
 21
78.2110707542
  0
LINE
  5
283
100
AcDbEntity
  8
0
100
AcDbLine
 62
7
  6
CONTINUOUS
 10
144.758838672
 20
78.3035261665
 11
144.608838672
 21
78.3035261665
  0
LINE
  5
284
100
AcDbEntity
  8
0
100
AcDbLine
 62
7
  6
CONTINUOUS
 10
115.8356301572
 20
78.8110707542
 11
115.2356301572
 21
78.8110707542
  0
LINE
  5
285
100
AcDbEntity
  8
0
100
AcDbLine
 62
7
  6
CONTINUOUS
 10
144.608838672
 20
78.3035261665
 11
144.0314884028
 21
78.4080546298
  0
LINE
  5
286
100
AcDbEntity
  8
0
100
AcDbLine
 62
7
  6
CONTINUOUS
 10
89.4613507633
 20
92.9783574242
 11
89.4575244706
 21
92.9797565528
  0
LINE
  5
287
100
AcDbEntity
  8
0
100
AcDbLine
 62
7
  6
CONTINUOUS
 10
109.808838672
 20
73.6510707542
 11
109.808838672
 21
79.6510707542
  0
LINE
  5
288
100
AcDbEntity
  8
0
100
AcDbLine
 62
7
  6
CONTINUOUS
 10
110.408838672
 20
152.4310707542
 11
110.408838672
 21
155.4310707542
  0
LINE
  5
289
100
AcDbEntity
  8
0
100
AcDbLine
 62
7
  6
CONTINUOUS
 10
110.608838672
 20
120.4653853293
 11
110.608838672
 21
124.9653853293
  0
LINE
  5
28A
100
AcDbEntity
  8
0
100
AcDbLine
 62
7
  6
CONTINUOUS
 10
110.8777642393
 20
154.9980580523
 11
110.8777642393
 21
152.4310707542
  0
LINE
  5
28B
100
AcDbEntity
  8
0
100
AcDbLine
 62
7
  6
CONTINUOUS
 10
110.908838672
 20
160.0846605927
 11
110.908838672
 21
159.4310707542
  0
LINE
  5
28C
100
AcDbEntity
  8
0
100
AcDbLine
 62
7
  6
CONTINUOUS
 10
111.115088672
 20
124.4866619821
 11
111.115088672
 21
123.0504916723
  0
LINE
  5
28D
100
AcDbEntity
  8
0
100
AcDbLine
 62
7
  6
CONTINUOUS
 10
111.115088672
 20
122.4760236557
 11
111.115088672
 21
120.4653853293
  0
LINE
  5
28E
100
AcDbEntity
  8
0
100
AcDbLine
 62
7
  6
CONTINUOUS
 10
111.808838672
 20
107.3164491768
 11
111.808838672
 21
106.4653853293
  0
LINE
  5
28F
100
AcDbEntity
  8
0
100
AcDbLine
 62
7
  6
CONTINUOUS
 10
112.2900365185
 20
161.2285057027
 11
112.2900365185
 21
164.0738051643
  0
LINE
  5
290
100
AcDbEntity
  8
0
100
AcDbLine
 62
7
  6
CONTINUOUS
 10
112.508838672
 20
155.8310707542
 11
112.508838672
 21
155.4310707542
  0
LINE
  5
291
100
AcDbEntity
  8
0
100
AcDbLine
 62
7
  6
CONTINUOUS
 10
113.208838672
 20
139.4334703501
 11
113.208838672
 21
137.9973001744
  0
LINE
  5
292
100
AcDbEntity
  8
0
100
AcDbLine
 62
7
  6
CONTINUOUS
 10
113.2244635915
 20
123.9121939655
 11
113.2244635915
 21
123.6249596889
  0
LINE
  5
293
100
AcDbEntity
  8
0
100
AcDbLine
 62
7
  6
CONTINUOUS
 10
113.7307135915
 20
123.9121939655
 11
113.7307135915
 21
123.5292150195
  0
LINE
  5
294
100
AcDbEntity
  8
0
100
AcDbLine
 62
7
  6
CONTINUOUS
 10
113.771338672
 20
139.4334703501
 11
113.771338672
 21
137.9973001744
  0
LINE
  5
295
100
AcDbEntity
  8
0
100
AcDbLine
 62
7
  6
CONTINUOUS
 10
114.405713672
 20
124.9653853293
 11
114.405713672
 21
120.4653853293
  0
LINE
  5
296
100
AcDbEntity
  8
0
100
AcDbLine
 62
7
  6
CONTINUOUS
 10
114.4282254172
 20
156.2310707542
 11
114.4282254172
 21
155.2801245643
  0
LINE
  5
297
100
AcDbEntity
  8
0
100
AcDbLine
 62
7
  6
CONTINUOUS
 10
114.5994375952
 20
161.2285057027
 11
114.5994375952
 21
164.0738051643
  0
LINE
  5
298
100
AcDbEntity
  8
0
100
AcDbLine
 62
7
  6
CONTINUOUS
 10
114.911963672
 20
124.3909173127
 11
114.911963672
 21
120.4653853293
  0
LINE
  5
299
100
AcDbEntity
  8
0
100
AcDbLine
 62
7
  6
CONTINUOUS
 10
115.2356301572
 20
74.5510707542
 11
115.2356301572
 21
77.6110707542
  0
LINE
  5
29A
100
AcDbEntity
  8
0
100
AcDbLine
 62
7
  6
CONTINUOUS
 10
115.2356301572
 20
78.2110707542
 11
115.2356301572
 21
78.8110707542
  0
LINE
  5
29B
100
AcDbEntity
  8
0
100
AcDbLine
 62
7
  6
CONTINUOUS
 10
115.0547367058
 20
159.4310707542
 11
115.0367411992
 21
159.2310707542
  0
LINE
  5
29C
100
AcDbEntity
  8
0
100
AcDbLine
 62
7
  6
CONTINUOUS
 10
113.3025886748
 20
139.9121939655
 11
113.208838672
 21
139.4334703501
  0
LINE
  5
29D
100
AcDbEntity
  8
0
100
AcDbLine
 62
7
  6
CONTINUOUS
 10
112.0755053466
 20
113.2738961096
 11
111.9421720093
 21
112.593045127
  0
LINE
  5
29E
100
AcDbEntity
  8
0
100
AcDbLine
 62
7
  6
CONTINUOUS
 10
116.865088672
 20
137.6143214966
 11
116.7713387614
 21
137.1355980824
  0
LINE
  5
29F
100
AcDbEntity
  8
0
100
AcDbLine
 62
7
  6
CONTINUOUS
 10
113.8650886497
 20
139.8164490278
 11
113.771338672
 21
139.4334703501
  0
LINE
  5
2A0
100
AcDbEntity
  8
0
100
AcDbLine
 62
7
  6
CONTINUOUS
 10
113.2244635915
 20
123.6249596889
 11
113.140088672
 21
123.3377256806
  0
LINE
  5
2A1
100
AcDbEntity
  8
0
100
AcDbLine
 62
7
  6
CONTINUOUS
 10
113.7307135915
 20
123.5292150195
 11
113.646338672
 21
123.2419810112
  0
LINE
  5
2A2
100
AcDbEntity
  8
0
100
AcDbLine
 62
7
  6
CONTINUOUS
 10
116.302588672
 20
137.6143214966
 11
116.2088387614
 21
137.3270874883
  0
LINE
  5
2A3
100
AcDbEntity
  8
0
100
AcDbLine
 62
7
  6
CONTINUOUS
 10
119.8150885826
 20
139.6249596889
 11
119.721338672
 21
139.3377256806
  0
LINE
  5
2A4
100
AcDbEntity
  8
0
100
AcDbLine
 62
7
  6
CONTINUOUS
 10
120.3775885826
 20
139.5292150195
 11
120.283838672
 21
139.2419810112
  0
LINE
  5
2A5
100
AcDbEntity
  8
0
100
AcDbLine
 62
7
  6
CONTINUOUS
 10
90.3803829684
 20
93.6260441777
 11
89.8026699991
 21
92.625730313
  0
LINE
  5
2A6
100
AcDbEntity
  8
0
100
AcDbLine
 62
7
  6
CONTINUOUS
 10
91.8803834551
 20
93.6260441725
 11
91.3026704641
 21
92.6257302727
  0
LINE
  5
2A7
100
AcDbEntity
  8
0
100
AcDbLine
 62
7
  6
CONTINUOUS
 10
93.3803835284
 20
93.6260441834
 11
92.802670554
 21
92.6257303102
  0
LINE
  5
2A8
100
AcDbEntity
  8
0
100
AcDbLine
 62
7
  6
CONTINUOUS
 10
94.8803830266
 20
93.6260441742
 11
94.3026700495
 21
92.6257302971
  0
LINE
  5
2A9
100
AcDbEntity
  8
0
100
AcDbLine
 62
7
  6
CONTINUOUS
 10
120.283838672
 20
139.2419810112
 11
120.002588672
 21
138.8590023334
  0
LINE
  5
2AA
100
AcDbEntity
  8
0
100
AcDbLine
 62
7
  6
CONTINUOUS
 10
149.7799925515
 20
175.802221193
 11
136.1748831151
 21
159.5882831445
  0
LINE
  5
2AB
100
AcDbEntity
  8
0
100
AcDbLine
 62
7
  6
CONTINUOUS
 10
116.7713387614
 20
137.1355980824
 11
116.3963385826
 21
136.7526193711
  0
LINE
  5
2AC
100
AcDbEntity
  8
0
100
AcDbLine
 62
7
  6
CONTINUOUS
 10
119.721338672
 20
139.3377256806
 11
119.5338385826
 21
139.1462363418
  0
LINE
  5
2AD
100
AcDbEntity
  8
0
100
AcDbLine
 62
7
  6
CONTINUOUS
 10
126.658838672
 20
147.3810707542
 11
126.5626882519
 21
147.2849203342
  0
LINE
  5
2AE
100
AcDbEntity
  8
0
100
AcDbLine
 62
7
  6
CONTINUOUS
 10
126.2916813845
 20
143.2639134667
 11
125.7759959595
 21
142.7482280418
  0
LINE
  5
2AF
100
AcDbEntity
  8
0
100
AcDbLine
 62
7
  6
CONTINUOUS
 10
114.333838672
 20
140.2951726432
 11
114.052588672
 21
140.1036833043
  0
LINE
  5
2B0
100
AcDbEntity
  8
0
100
AcDbLine
 62
7
  6
CONTINUOUS
 10
116.2088387614
 20
137.3270874883
 11
115.9275887614
 21
137.1355980824
  0
LINE
  5
2B1
100
AcDbEntity
  8
0
100
AcDbLine
 62
7
  6
CONTINUOUS
 10
114.2400886944
 20
140.8696406598
 11
113.8650886497
 21
140.678151321
  0
LINE
  5
2B2
100
AcDbEntity
  8
0
100
AcDbLine
 62
7
  6
CONTINUOUS
 10
145.3361889412
 20
78.4080546298
 11
144.758838672
 21
78.3035261665
  0
LINE
  5
2B3
100
AcDbEntity
  8
GEOM
100
AcDbLine
 62
7
  6
CONTINUOUS
 10
130.448770434
 20
80.4772576044
 11
131.1461067227
 21
80.4899116937
  0
LINE
  5
2B4
100
AcDbEntity
  8
0
100
AcDbLine
 62
7
  6
CONTINUOUS
 10
120.608838672
 20
79.6510707542
 11
109.808838672
 21
79.6510707542
  0
LINE
  5
2B5
100
AcDbEntity
  8
0
100
AcDbLine
 62
7
  6
CONTINUOUS
 10
121.208838672
 20
80.2510707542
 11
109.208838672
 21
80.2510707542
  0
LINE
  5
2B6
100
AcDbEntity
  8
GEOM
100
AcDbLine
 62
7
  6
CONTINUOUS
 10
130.8457859671
 20
83.051380971
 11
135.6053241388
 21
83.051380971
  0
LINE
  5
2B7
100
AcDbEntity
  8
GEOM
100
AcDbLine
 62
7
  6
CONTINUOUS
 10
130.8457859671
 20
84.4655945334
 11
135.6053241388
 21
84.4655945334
  0
LINE
  5
2B8
100
AcDbEntity
  8
0
100
AcDbLine
 62
7
  6
CONTINUOUS
 10
92.908838672
 20
84.6310707542
 11
93.058838672
 21
84.6310707542
  0
LINE
  5
2B9
100
AcDbEntity
  8
0
100
AcDbLine
 62
7
  6
CONTINUOUS
 10
142.1526701017
 20
60.6364112458
 11
142.7303830989
 21
59.636097336
  0
LINE
  5
2BA
100
AcDbEntity
  8
0
100
AcDbLine
 62
7
  6
CONTINUOUS
 10
113.3821271582
 20
159.4310707542
 11
113.3993842302
 21
159.2310707542
  0
LINE
  5
2BB
100
AcDbEntity
  8
0
100
AcDbLine
 62
7
  6
CONTINUOUS
 10
115.808838672
 20
112.593045127
 11
115.808838672
 21
112.2526191588
  0
LINE
  5
2BC
100
AcDbEntity
  8
0
100
AcDbLine
 62
7
  6
CONTINUOUS
 10
115.8356301572
 20
74.5510707542
 11
115.8356301572
 21
77.6110707542
  0
LINE
  5
2BD
100
AcDbEntity
  8
0
100
AcDbLine
 62
7
  6
CONTINUOUS
 10
115.8356301572
 20
78.2110707542
 11
115.8356301572
 21
78.8110707542
  0
LINE
  5
2BE
100
AcDbEntity
  8
0
100
AcDbLine
 62
7
  6
CONTINUOUS
 10
116.608838672
 20
112.593045127
 11
116.608838672
 21
112.2526191588
  0
LINE
  5
2BF
100
AcDbEntity
  8
0
100
AcDbLine
 62
7
  6
CONTINUOUS
 10
116.608838672
 20
107.3164491768
 11
116.608838672
 21
106.4653853293
  0
LINE
  5
2C0
100
AcDbEntity
  8
0
100
AcDbLine
 62
7
  6
CONTINUOUS
 10
116.6756301572
 20
74.5510707542
 11
116.6756301572
 21
74.7110707542
  0
LINE
  5
2C1
100
AcDbEntity
  8
0
100
AcDbLine
 62
7
  6
CONTINUOUS
 10
116.6756301572
 20
76.4535151533
 11
116.6756301572
 21
77.6110707542
  0
LINE
  5
2C2
100
AcDbEntity
  8
0
100
AcDbLine
 62
7
  6
CONTINUOUS
 10
116.908838672
 20
140.9653853293
 11
116.908838672
 21
136.4653853293
  0
LINE
  5
2C3
100
AcDbEntity
  8
0
100
AcDbLine
 62
7
  6
CONTINUOUS
 10
117.2744638329
 20
124.9653853293
 11
117.2744638329
 21
121.1355980824
  0
LINE
  5
2C4
100
AcDbEntity
  8
0
100
AcDbLine
 62
7
  6
CONTINUOUS
 10
117.2756301572
 20
77.0110707542
 11
117.2756301572
 21
77.6110707542
  0
LINE
  5
2C5
100
AcDbEntity
  8
0
100
AcDbLine
 62
7
  6
CONTINUOUS
 10
117.471338672
 20
140.4866619821
 11
117.471338672
 21
139.0504916723
  0
LINE
  5
2C6
100
AcDbEntity
  8
0
100
AcDbLine
 62
7
  6
CONTINUOUS
 10
117.471338672
 20
138.4760236557
 11
117.471338672
 21
136.4653853293
  0
LINE
  5
2C7
100
AcDbEntity
  8
0
100
AcDbLine
 62
7
  6
CONTINUOUS
 10
117.6755054658
 20
111.2313426848
 11
117.6755054658
 21
109.6994279738
  0
LINE
  5
2C8
100
AcDbEntity
  8
0
100
AcDbLine
 62
7
  6
CONTINUOUS
 10
117.7807138329
 20
124.9653853293
 11
117.7807138329
 21
120.4653853293
  0
LINE
  5
2C9
100
AcDbEntity
  8
0
100
AcDbLine
 62
7
  6
CONTINUOUS
 10
118.3421722596
 20
111.0611299391
 11
118.3421722596
 21
109.8696407194
  0
LINE
  5
2CA
100
AcDbEntity
  8
0
100
AcDbLine
 62
7
  6
CONTINUOUS
 10
118.455713672
 20
124.2951726432
 11
118.455713672
 21
123.5292150195
  0
LINE
  5
2CB
100
AcDbEntity
  8
0
100
AcDbLine
 62
7
  6
CONTINUOUS
 10
118.9556301572
 20
76.6310707542
 11
118.9556301572
 21
77.2510707542
  0
LINE
  5
2CC
100
AcDbEntity
  8
0
100
AcDbLine
 62
7
  6
CONTINUOUS
 10
118.961963672
 20
124.1994279738
 11
118.961963672
 21
120.4653853293
  0
LINE
  5
2CD
100
AcDbEntity
  8
0
100
AcDbLine
 62
7
  6
CONTINUOUS
 10
119.2182397488
 20
161.2285057027
 11
119.2182397488
 21
164.0738051643
  0
LINE
  5
2CE
100
AcDbEntity
  8
0
100
AcDbLine
 62
7
  6
CONTINUOUS
 10
119.408838672
 20
142.2310707542
 11
119.408838672
 21
149.2310707542
  0
LINE
  5
2CF
100
AcDbEntity
  8
0
100
AcDbLine
 62
7
  6
CONTINUOUS
 10
119.468213672
 20
124.9653853293
 11
119.468213672
 21
120.4653853293
  0
LINE
  5
2D0
100
AcDbEntity
  8
0
100
AcDbLine
 62
7
  6
CONTINUOUS
 10
119.5556301572
 20
76.4490697005
 11
119.5556301572
 21
77.2510707542
  0
LINE
  5
2D1
100
AcDbEntity
  8
0
100
AcDbLine
 62
7
  6
CONTINUOUS
 10
119.8150885826
 20
139.9121939655
 11
119.8150885826
 21
139.6249596889
  0
LINE
  5
2D2
100
AcDbEntity
  8
0
100
AcDbLine
 62
7
  6
CONTINUOUS
 10
120.1432139939
 20
123.0504916723
 11
120.1432139939
 21
122.3802789863
  0
LINE
  5
2D3
100
AcDbEntity
  8
0
100
AcDbLine
 62
7
  6
CONTINUOUS
 10
120.3775885826
 20
139.9121939655
 11
120.3775885826
 21
139.5292150195
  0
LINE
  5
2D4
100
AcDbEntity
  8
0
100
AcDbLine
 62
7
  6
CONTINUOUS
 10
120.5650883501
 20
123.0504916723
 11
120.5650883501
 21
122.8590023334
  0
LINE
  5
2D5
100
AcDbEntity
  8
0
100
AcDbLine
 62
7
  6
CONTINUOUS
 10
120.608838672
 20
73.6510707542
 11
120.608838672
 21
79.6510707542
  0
LINE
  5
2D6
100
AcDbEntity
  8
0
100
AcDbLine
 62
7
  6
CONTINUOUS
 10
120.6494639939
 20
122.0930448438
 11
120.6494639939
 21
121.8058108355
  0
LINE
  5
2D7
100
AcDbEntity
  8
0
100
AcDbLine
 62
7
  6
CONTINUOUS
 10
120.227588672
 20
123.7207043584
 11
120.1432139939
 21
123.0504916723
  0
LINE
  5
2D8
100
AcDbEntity
  8
0
100
AcDbLine
 62
7
  6
CONTINUOUS
 10
118.4755050844
 20
112.0824064131
 11
118.3421722596
 21
111.0611299391
  0
LINE
  5
2D9
100
AcDbEntity
  8
0
100
AcDbLine
 62
7
  6
CONTINUOUS
 10
120.6494639939
 20
123.6249596889
 11
120.5650883501
 21
123.0504916723
  0
LINE
  5
2DA
100
AcDbEntity
  8
0
100
AcDbLine
 62
7
  6
CONTINUOUS
 10
117.808838672
 20
112.0824064131
 11
117.6755054658
 21
111.2313426848
  0
LINE
  5
2DB
100
AcDbEntity
  8
0
100
AcDbLine
 62
7
  6
CONTINUOUS
 10
116.608838672
 20
112.2526191588
 11
116.4755054658
 21
111.5717681761
  0
LINE
  5
2DC
100
AcDbEntity
  8
0
100
AcDbLine
 62
7
  6
CONTINUOUS
 10
117.9421718782
 20
112.593045127
 11
117.808838672
 21
112.0824064131
  0
LINE
  5
2DD
100
AcDbEntity
  8
0
100
AcDbLine
 62
7
  6
CONTINUOUS
 10
120.733838672
 20
123.9121939655
 11
120.6494639939
 21
123.6249596889
  0
LINE
  5
2DE
100
AcDbEntity
  8
0
100
AcDbLine
 62
7
  6
CONTINUOUS
 10
120.733838672
 20
122.3802789863
 11
120.6494639939
 21
122.0930448438
  0
LINE
  5
2DF
100
AcDbEntity
  8
0
100
AcDbLine
 62
7
  6
CONTINUOUS
 10
120.3963389939
 20
124.1994279738
 11
120.227588672
 21
123.7207043584
  0
LINE
  5
2E0
100
AcDbEntity
  8
0
100
AcDbLine
 62
7
  6
CONTINUOUS
 10
115.808838672
 20
112.2526191588
 11
115.5421718782
 21
111.5717681761
  0
LINE
  5
2E1
100
AcDbEntity
  8
0
100
AcDbLine
 62
7
  6
CONTINUOUS
 10
129.9925791513
 20
155.6929599088
 11
128.7975864793
 21
152.8889975199
  0
LINE
  5
2E2
100
AcDbEntity
  8
0
100
AcDbLine
 62
7
  6
CONTINUOUS
 10
129.7979732848
 20
154.8762786429
 11
124.408838672
 21
142.2310707542
  0
LINE
  5
2E3
100
AcDbEntity
  8
0
100
AcDbLine
 62
7
  6
CONTINUOUS
 10
112.8755053705
 20
113.103683364
 11
112.608838672
 21
112.593045127
  0
LINE
  5
2E4
100
AcDbEntity
  8
0
100
AcDbLine
 62
7
  6
CONTINUOUS
 10
96.0429438649
 20
93.0417602925
 11
95.8026706527
 21
92.6257302716
  0
LINE
  5
2E5
100
AcDbEntity
  8
0
100
AcDbLine
 62
7
  6
CONTINUOUS
 10
113.646338672
 20
123.2419810112
 11
113.393213672
 21
122.8590023334
  0
LINE
  5
2E6
100
AcDbEntity
  8
0
100
AcDbLine
 62
7
  6
CONTINUOUS
 10
118.961963672
 20
124.9653853293
 11
118.455713672
 21
124.2951726432
  0
LINE
  5
2E7
100
AcDbEntity
  8
0
100
AcDbLine
 62
7
  6
CONTINUOUS
 10
138.4730164445
 20
157.6599203155
 11
151.7783890959
 21
173.5166459736
  0
LINE
  5
2E8
100
AcDbEntity
  8
0
100
AcDbLine
 62
7
  6
CONTINUOUS
 10
113.140088672
 20
123.3377256806
 11
112.9713385915
 21
123.1462363418
  0
LINE
  5
2E9
100
AcDbEntity
  8
0
100
AcDbLine
 62
7
  6
CONTINUOUS
 10
120.002588672
 20
138.8590023334
 11
119.6275887614
 21
138.6675129946
  0
LINE
  5
2EA
100
AcDbEntity
  8
0
100
AcDbLine
 62
7
  6
CONTINUOUS
 10
116.3963385826
 20
136.7526193711
 11
116.021338672
 21
136.5611300071
  0
LINE
  5
2EB
100
AcDbEntity
  8
0
100
AcDbLine
 62
7
  6
CONTINUOUS
 10
119.5338385826
 20
139.1462363418
 11
119.2525885826
 21
139.0504916723
  0
LINE
  5
2EC
100
AcDbEntity
  8
GEOM
100
AcDbLine
 62
7
  6
CONTINUOUS
 10
136.0383368407
 20
83.1397080936
 11
135.6053241388
 21
83.051380971
  0
LINE
  5
2ED
100
AcDbEntity
  8
0
100
AcDbLine
 62
7
  6
CONTINUOUS
 10
118.608838672
 20
107.1462363716
 11
118.208838672
 21
107.6568746682
  0
LINE
  5
2EE
100
AcDbEntity
  8
0
100
AcDbLine
 62
7
  6
CONTINUOUS
 10
116.4755054658
 20
113.2738961096
 11
115.9421718782
 21
113.9547470923
  0
LINE
  5
2EF
100
AcDbEntity
  8
0
100
AcDbLine
 62
7
  6
CONTINUOUS
 10
143.6526707348
 20
60.6364112087
 11
144.2303837106
 21
59.6360973336
  0
LINE
  5
2F0
100
AcDbEntity
  8
0
100
AcDbLine
 62
7
  6
CONTINUOUS
 10
145.1526700661
 20
60.6364112115
 11
145.7303830471
 21
59.6360973275
  0
LINE
  5
2F1
100
AcDbEntity
  8
0
100
AcDbLine
 62
7
  6
CONTINUOUS
 10
146.6526702607
 20
60.6364112423
 11
147.2303832552
 21
59.6360973368
  0
LINE
  5
2F2
100
AcDbEntity
  8
0
100
AcDbLine
 62
7
  6
CONTINUOUS
 10
148.1526707508
 20
60.6364111966
 11
148.2464739889
 21
60.4739929073
  0
LINE
  5
2F3
100
AcDbEntity
  8
0
100
AcDbLine
 62
7
  6
CONTINUOUS
 10
115.808838672
 20
112.593045127
 11
115.5421718782
 21
113.103683364
  0
LINE
  5
2F4
100
AcDbEntity
  8
0
100
AcDbLine
 62
7
  6
CONTINUOUS
 10
119.008838672
 20
107.8270874138
 11
118.4755050844
 21
108.848364007
  0
LINE
  5
2F5
100
AcDbEntity
  8
0
100
AcDbLine
 62
7
  6
CONTINUOUS
 10
118.208838672
 20
107.6568746682
 11
117.9421718782
 21
108.33772577
  0
LINE
  5
2F6
100
AcDbEntity
  8
0
100
AcDbLine
 62
7
  6
CONTINUOUS
 10
113.2244635915
 20
123.9121939655
 11
113.140088672
 21
124.1994279738
  0
LINE
  5
2F7
100
AcDbEntity
  8
0
100
AcDbLine
 62
7
  6
CONTINUOUS
 10
113.7307135915
 20
123.9121939655
 11
113.646338672
 21
124.1994279738
  0
LINE
  5
2F8
100
AcDbEntity
  8
0
100
AcDbLine
 62
7
  6
CONTINUOUS
 10
117.9421718782
 20
108.33772577
 11
117.808838672
 21
108.848364007
  0
LINE
  5
2F9
100
AcDbEntity
  8
0
100
AcDbLine
 62
7
  6
CONTINUOUS
 10
113.8650886497
 20
137.6143214966
 11
113.771338672
 21
137.9973001744
  0
LINE
  5
2FA
100
AcDbEntity
  8
0
100
AcDbLine
 62
7
  6
CONTINUOUS
 10
116.608838672
 20
112.593045127
 11
116.4755054658
 21
113.2738961096
  0
LINE
  5
2FB
100
AcDbEntity
  8
0
100
AcDbLine
 62
7
  6
CONTINUOUS
 10
113.3025886748
 20
137.5185768272
 11
113.208838672
 21
137.9973001744
  0
LINE
  5
2FC
100
AcDbEntity
  8
0
100
AcDbLine
 62
7
  6
CONTINUOUS
 10
117.808838672
 20
108.848364007
 11
117.6755054658
 21
109.6994279738
  0
LINE
  5
2FD
100
AcDbEntity
  8
0
100
AcDbLine
 62
7
  6
CONTINUOUS
 10
118.4755050844
 20
108.848364007
 11
118.3421722596
 21
109.8696407194
  0
LINE
  5
2FE
100
AcDbEntity
  8
0
100
AcDbLine
 62
7
  6
CONTINUOUS
 10
120.227588672
 20
121.7100661661
 11
120.1432139939
 21
122.3802789863
  0
LINE
  5
2FF
100
AcDbEntity
  8
0
100
AcDbLine
 62
7
  6
CONTINUOUS
 10
121.208838672
 20
73.0510707542
 11
121.208838672
 21
80.2510707542
  0
LINE
  5
300
100
AcDbEntity
  8
0
100
AcDbLine
 62
7
  6
CONTINUOUS
 10
121.5276408255
 20
161.2285057027
 11
121.5276408255
 21
164.0738051643
  0
LINE
  5
301
100
AcDbEntity
  8
0
100
AcDbLine
 62
7
  6
CONTINUOUS
 10
121.6188891783
 20
58.1310707542
 11
121.6188891783
 21
93.362385026
  0
LINE
  5
302
100
AcDbEntity
  8
0
100
AcDbLine
 62
7
  6
CONTINUOUS
 10
121.808838672
 20
111.0611299391
 11
121.808838672
 21
109.8696407194
  0
LINE
  5
303
100
AcDbEntity
  8
0
100
AcDbLine
 62
7
  6
CONTINUOUS
 10
122.1138639252
 20
93.5478089149
 11
122.1138639252
 21
57.9260455011
  0
LINE
  5
304
100
AcDbEntity
  8
0
100
AcDbLine
 62
7
  6
CONTINUOUS
 10
122.2038134188
 20
57.8360960074
 11
122.2038134188
 21
93.6705983822
  0
LINE
  5
305
100
AcDbEntity
  8
0
100
AcDbLine
 62
7
  6
CONTINUOUS
 10
122.4755050844
 20
111.2313426848
 11
122.4755050844
 21
109.6994279738
  0
LINE
  5
306
100
AcDbEntity
  8
0
100
AcDbLine
 62
7
  6
CONTINUOUS
 10
122.6987881657
 20
94.2127253326
 11
122.6987881657
 21
57.6310707542
  0
LINE
  5
307
100
AcDbEntity
  8
0
100
AcDbLine
 62
7
  6
CONTINUOUS
 10
122.758838672
 20
122.0930448438
 11
122.758838672
 21
121.8058108355
  0
LINE
  5
308
100
AcDbEntity
  8
0
100
AcDbLine
 62
7
  6
CONTINUOUS
 10
122.908838672
 20
160.0846605927
 11
122.908838672
 21
159.4310707542
  0
LINE
  5
309
100
AcDbEntity
  8
0
100
AcDbLine
 62
7
  6
CONTINUOUS
 10
123.1807139939
 20
122.1887896474
 11
123.1807139939
 21
121.7100661661
  0
LINE
  5
30A
100
AcDbEntity
  8
0
100
AcDbLine
 62
7
  6
CONTINUOUS
 10
125.658838672
 20
142.4653853293
 11
125.658838672
 21
96.3310707542
  0
LINE
  5
30B
100
AcDbEntity
  8
0
100
AcDbLine
 62
7
  6
CONTINUOUS
 10
126.408838672
 20
146.9239236136
 11
126.408838672
 21
143.5467561792
  0
LINE
  5
30C
100
AcDbEntity
  8
0
100
AcDbLine
 62
7
  6
CONTINUOUS
 10
126.658838672
 20
147.3810707542
 11
126.658838672
 21
147.5105302211
  0
LINE
  5
30D
100
AcDbEntity
  8
0
100
AcDbLine
 62
7
  6
CONTINUOUS
 10
121.808838672
 20
109.8696407194
 11
121.6755050844
 21
108.848364007
  0
LINE
  5
30E
100
AcDbEntity
  8
0
100
AcDbLine
 62
7
  6
CONTINUOUS
 10
122.4755050844
 20
109.6994279738
 11
122.3421722596
 21
108.848364007
  0
LINE
  5
30F
100
AcDbEntity
  8
0
100
AcDbLine
 62
7
  6
CONTINUOUS
 10
122.3421722596
 20
108.848364007
 11
122.208838672
 21
108.33772577
  0
LINE
  5
310
100
AcDbEntity
  8
0
100
AcDbLine
 62
7
  6
CONTINUOUS
 10
122.758838672
 20
121.8058108355
 11
122.6744639939
 21
121.5185768272
  0
LINE
  5
311
100
AcDbEntity
  8
0
100
AcDbLine
 62
7
  6
CONTINUOUS
 10
123.1807139939
 20
121.7100661661
 11
123.011963672
 21
121.2313427518
  0
LINE
  5
312
100
AcDbEntity
  8
0
100
AcDbLine
 62
7
  6
CONTINUOUS
 10
118.208838672
 20
113.2738961096
 11
117.9421718782
 21
112.593045127
  0
LINE
  5
313
100
AcDbEntity
  8
0
100
AcDbLine
 62
7
  6
CONTINUOUS
 10
116.4755054658
 20
111.5717681761
 11
116.208838672
 21
111.0611299391
  0
LINE
  5
314
100
AcDbEntity
  8
0
100
AcDbLine
 62
7
  6
CONTINUOUS
 10
119.008838672
 20
113.103683364
 11
118.4755050844
 21
112.0824064131
  0
LINE
  5
315
100
AcDbEntity
  8
0
100
AcDbLine
 62
7
  6
CONTINUOUS
 10
120.9025889939
 20
124.1994279738
 11
120.733838672
 21
123.9121939655
  0
LINE
  5
316
100
AcDbEntity
  8
0
100
AcDbLine
 62
7
  6
CONTINUOUS
 10
122.6744639939
 20
121.5185768272
 11
122.505713672
 21
121.2313427518
  0
LINE
  5
317
100
AcDbEntity
  8
0
100
AcDbLine
 62
7
  6
CONTINUOUS
 10
120.6494639939
 20
124.5824066515
 11
120.3963389939
 21
124.1994279738
  0
LINE
  5
318
100
AcDbEntity
  8
0
100
AcDbLine
 62
7
  6
CONTINUOUS
 10
123.011963672
 20
121.2313427518
 11
122.758838672
 21
120.8483640406
  0
LINE
  5
319
100
AcDbEntity
  8
0
100
AcDbLine
 62
7
  6
CONTINUOUS
 10
118.961963672
 20
124.1994279738
 11
118.455713672
 21
123.5292150195
  0
LINE
  5
31A
100
AcDbEntity
  8
0
100
AcDbLine
 62
7
  6
CONTINUOUS
 10
112.608838672
 20
113.9547470923
 11
112.0755053466
 21
113.2738961096
  0
LINE
  5
31B
100
AcDbEntity
  8
0
100
AcDbLine
 62
7
  6
CONTINUOUS
 10
120.9025889939
 20
122.5717683251
 11
120.733838672
 21
122.3802789863
  0
LINE
  5
31C
100
AcDbEntity
  8
0
100
AcDbLine
 62
7
  6
CONTINUOUS
 10
88.908838672
 20
92.4310707542
 11
89.4575244706
 21
92.9797565528
  0
LINE
  5
31D
100
AcDbEntity
  8
0
100
AcDbLine
 62
7
  6
CONTINUOUS
 10
113.393213672
 20
122.8590023334
 11
113.0557137525
 21
122.5717683251
  0
LINE
  5
31E
100
AcDbEntity
  8
0
100
AcDbLine
 62
7
  6
CONTINUOUS
 10
140.6188891783
 20
91.8810707542
 11
137.608838672
 21
91.8810707542
  0
LINE
  5
31F
100
AcDbEntity
  8
0
100
AcDbLine
 62
7
  6
CONTINUOUS
 10
103.8804115473
 20
91.8810707542
 11
97.6230522344
 21
91.8810707542
  0
LINE
  5
320
100
AcDbEntity
  8
0
100
AcDbLine
 62
7
  6
CONTINUOUS
 10
147.4088389395
 20
92.6310707238
 11
147.2588389395
 21
92.6310707238
  0
LINE
  5
321
100
AcDbEntity
  8
0
100
AcDbLine
 62
7
  6
CONTINUOUS
 10
145.9088382987
 20
92.6310707013
 11
145.7588382987
 21
92.6310707013
  0
LINE
  5
322
100
AcDbEntity
  8
0
100
AcDbLine
 62
7
  6
CONTINUOUS
 10
144.4088389404
 20
92.6310707519
 11
144.2588389404
 21
92.6310707519
  0
LINE
  5
323
100
AcDbEntity
  8
0
100
AcDbLine
 62
7
  6
CONTINUOUS
 10
142.9088387841
 20
92.631070714
 11
142.7588387841
 21
92.631070714
  0
LINE
  5
324
100
AcDbEntity
  8
0
100
AcDbLine
 62
7
  6
CONTINUOUS
 10
95.8088389736
 20
92.6310707077
 11
95.6588389736
 21
92.6310707077
  0
LINE
  5
325
100
AcDbEntity
  8
0
100
AcDbLine
 62
7
  6
CONTINUOUS
 10
94.3088383703
 20
92.6310707331
 11
94.1588383703
 21
92.6310707331
  0
LINE
  5
326
100
AcDbEntity
  8
0
100
AcDbLine
 62
7
  6
CONTINUOUS
 10
92.8088388641
 20
92.6310707369
 11
92.6588388641
 21
92.6310707369
  0
LINE
  5
327
100
AcDbEntity
  8
0
100
AcDbLine
 62
7
  6
CONTINUOUS
 10
91.3088387871
 20
92.6310707106
 11
91.1588387871
 21
92.6310707106
  0
LINE
  5
328
100
AcDbEntity
  8
0
100
AcDbLine
 62
7
  6
CONTINUOUS
 10
89.8088383155
 20
92.6310707452
 11
89.6588383155
 21
92.6310707452
  0
LINE
  5
329
100
AcDbEntity
  8
GEOM
100
AcDbLine
 62
7
  6
CONTINUOUS
 10
130.8457896827
 20
93.5452696672
 11
135.6053241388
 21
93.5452843166
  0
LINE
  5
32A
100
AcDbEntity
  8
0
100
AcDbLine
 62
7
  6
CONTINUOUS
 10
90.3861885903
 20
93.6310707542
 11
90.5814884912
 21
93.6310707542
  0
LINE
  5
32B
100
AcDbEntity
  8
0
100
AcDbLine
 62
7
  6
CONTINUOUS
 10
91.8861890831
 20
93.6310707542
 11
92.0814885841
 21
93.6310707542
  0
LINE
  5
32C
100
AcDbEntity
  8
0
100
AcDbLine
 62
7
  6
CONTINUOUS
 10
93.3861891437
 20
93.6310707542
 11
93.5814880883
 21
93.6310707542
  0
LINE
  5
32D
100
AcDbEntity
  8
0
100
AcDbLine
 62
7
  6
CONTINUOUS
 10
94.8861886527
 20
93.6310707542
 11
95.0814886757
 21
93.6310707542
  0
LINE
  5
32E
100
AcDbEntity
  8
0
100
AcDbLine
 62
7
  6
CONTINUOUS
 10
143.4861890779
 20
93.6310707542
 11
143.6814886697
 21
93.6310707542
  0
LINE
  5
32F
100
AcDbEntity
  8
0
100
AcDbLine
 62
7
  6
CONTINUOUS
 10
144.986189211
 20
93.6310707542
 11
145.1814879971
 21
93.6310707542
  0
LINE
  5
330
100
AcDbEntity
  8
0
100
AcDbLine
 62
7
  6
CONTINUOUS
 10
146.4861886004
 20
93.6310707542
 11
146.6814886515
 21
93.6310707542
  0
LINE
  5
331
100
AcDbEntity
  8
GEOM
100
AcDbLine
 62
7
  6
CONTINUOUS
 10
130.8457859671
 20
94.1310707542
 11
136.28195958
 21
94.1310707542
  0
LINE
  5
332
100
AcDbEntity
  8
0
100
AcDbLine
 62
7
  6
CONTINUOUS
 10
130.8457859671
 20
94.1310707542
 11
135.6053256639
 21
94.1310707542
  0
LINE
  5
333
100
AcDbEntity
  8
0
100
AcDbLine
 62
7
  6
CONTINUOUS
 10
129.950673085
 20
95.6310707542
 11
126.358838672
 21
95.6310707542
  0
LINE
  5
334
100
AcDbEntity
  8
0
100
AcDbLine
 62
7
  6
CONTINUOUS
 10
142.3599572462
 20
93.3270728718
 11
142.3562107835
 21
93.3284428657
  0
LINE
  5
335
100
AcDbEntity
  8
0
100
AcDbLine
 62
7
  6
CONTINUOUS
 10
119.2755050844
 20
106.6355980899
 11
118.608838672
 21
107.1462363716
  0
LINE
  5
336
100
AcDbEntity
  8
0
100
AcDbLine
 62
7
  6
CONTINUOUS
 10
119.408838672
 20
107.4866619225
 11
119.008838672
 21
107.8270874138
  0
LINE
  5
337
100
AcDbEntity
  8
0
100
AcDbLine
 62
7
  6
CONTINUOUS
 10
115.5421718782
 20
113.103683364
 11
115.1421718782
 21
113.4441088553
  0
LINE
  5
338
100
AcDbEntity
  8
0
100
AcDbLine
 62
7
  6
CONTINUOUS
 10
113.140088672
 20
124.1994279738
 11
112.9713385915
 21
124.3909173127
  0
LINE
  5
339
100
AcDbEntity
  8
0
100
AcDbLine
 62
7
  6
CONTINUOUS
 10
121.9421722596
 20
113.2738961096
 11
121.5421722596
 21
113.7845343466
  0
LINE
  5
33A
100
AcDbEntity
  8
0
100
AcDbLine
 62
7
  6
CONTINUOUS
 10
113.646338672
 20
124.1994279738
 11
113.393213672
 21
124.5824066515
  0
LINE
  5
33B
100
AcDbEntity
  8
0
100
AcDbLine
 62
7
  6
CONTINUOUS
 10
120.9025889939
 20
121.2313427518
 11
120.733838672
 21
121.5185768272
  0
LINE
  5
33C
100
AcDbEntity
  8
0
100
AcDbLine
 62
7
  6
CONTINUOUS
 10
136.7149722818
 20
93.8810707542
 11
136.8418513739
 21
93.6613097204
  0
LINE
  5
33D
100
AcDbEntity
  8
0
100
AcDbLine
 62
7
  6
CONTINUOUS
 10
115.165088672
 20
124.9653853293
 11
117.2744638329
 21
121.1355980824
  0
LINE
  5
33E
100
AcDbEntity
  8
0
100
AcDbLine
 62
7
  6
CONTINUOUS
 10
117.0213388329
 20
120.4653853293
 11
114.911963672
 21
124.3909173127
  0
LINE
  5
33F
100
AcDbEntity
  8
0
100
AcDbLine
 62
7
  6
CONTINUOUS
 10
121.6755050844
 20
112.0824064131
 11
121.1421722596
 21
113.103683364
  0
LINE
  5
340
100
AcDbEntity
  8
0
100
AcDbLine
 62
7
  6
CONTINUOUS
 10
113.490088672
 20
137.1355980824
 11
113.3025886748
 21
137.5185768272
  0
LINE
  5
341
100
AcDbEntity
  8
0
100
AcDbLine
 62
7
  6
CONTINUOUS
 10
122.208838672
 20
112.593045127
 11
121.9421722596
 21
113.2738961096
  0
LINE
  5
342
100
AcDbEntity
  8
0
100
AcDbLine
 62
7
  6
CONTINUOUS
 10
120.3963389939
 20
121.2313427518
 11
120.227588672
 21
121.7100661661
  0
LINE
  5
343
100
AcDbEntity
  8
0
100
AcDbLine
 62
7
  6
CONTINUOUS
 10
123.1807139939
 20
122.1887896474
 11
123.011963672
 21
122.6675129946
  0
LINE
  5
344
100
AcDbEntity
  8
0
100
AcDbLine
 62
7
  6
CONTINUOUS
 10
116.302588672
 20
139.8164490278
 11
116.2088387614
 21
140.1036833043
  0
LINE
  5
345
100
AcDbEntity
  8
0
100
AcDbLine
 62
7
  6
CONTINUOUS
 10
120.733838672
 20
121.5185768272
 11
120.6494639939
 21
121.8058108355
  0
LINE
  5
346
100
AcDbEntity
  8
0
100
AcDbLine
 62
7
  6
CONTINUOUS
 10
122.758838672
 20
122.0930448438
 11
122.6744639939
 21
122.3802789863
  0
LINE
  5
347
100
AcDbEntity
  8
0
100
AcDbLine
 62
7
  6
CONTINUOUS
 10
123.011963672
 20
123.9121939655
 11
122.9275889939
 21
124.1994279738
  0
LINE
  5
348
100
AcDbEntity
  8
0
100
AcDbLine
 62
7
  6
CONTINUOUS
 10
122.3421722596
 20
112.0824064131
 11
122.208838672
 21
112.593045127
  0
LINE
  5
349
100
AcDbEntity
  8
0
100
AcDbLine
 62
7
  6
CONTINUOUS
 10
112.0547367058
 20
159.4310707542
 11
112.1055571137
 21
159.2310707542
  0
LINE
  5
34A
100
AcDbEntity
  8
0
100
AcDbLine
 62
7
  6
CONTINUOUS
 10
116.865088672
 20
139.8164490278
 11
116.7713387614
 21
140.2951726432
  0
LINE
  5
34B
100
AcDbEntity
  8
0
100
AcDbLine
 62
7
  6
CONTINUOUS
 10
122.4755050844
 20
111.2313426848
 11
122.3421722596
 21
112.0824064131
  0
LINE
  5
34C
100
AcDbEntity
  8
0
100
AcDbLine
 62
7
  6
CONTINUOUS
 10
121.808838672
 20
111.0611299391
 11
121.6755050844
 21
112.0824064131
  0
LINE
  5
34D
100
AcDbEntity
  8
0
100
AcDbLine
 62
7
  6
CONTINUOUS
 10
130.4838341654
 20
94.7738683427
 11
130.448770434
 21
95.1746486256
  0
LINE
  5
34E
100
AcDbEntity
  8
0
100
AcDbLine
 62
7
  6
CONTINUOUS
 10
128.7975864793
 20
156.2310707542
 11
128.7975864793
 21
152.8889975199
  0
LINE
  5
34F
100
AcDbEntity
  8
0
100
AcDbLine
 62
7
  6
CONTINUOUS
 10
128.908838672
 20
57.6310707542
 11
128.908838672
 21
95.6310707542
  0
LINE
  5
350
100
AcDbEntity
  8
0
100
AcDbLine
 62
7
  6
CONTINUOUS
 10
129.950673085
 20
95.6310707542
 11
129.950673085
 21
57.6310707542
  0
LINE
  5
351
100
AcDbEntity
  8
GEOM
100
AcDbLine
 62
7
  6
CONTINUOUS
 10
130.448770434
 20
95.1746486256
 11
130.448770434
 21
94.7713884743
  0
LINE
  5
352
100
AcDbEntity
  8
GEOM
100
AcDbLine
 62
7
  6
CONTINUOUS
 10
130.448770434
 20
92.1778772304
 11
130.448770434
 21
86.7385476235
  0
LINE
  5
353
100
AcDbEntity
  8
GEOM
100
AcDbLine
 62
7
  6
CONTINUOUS
 10
130.448770434
 20
80.4772576044
 11
130.448770434
 21
72.7848839041
  0
LINE
  5
354
100
AcDbEntity
  8
GEOM
100
AcDbLine
 62
7
  6
CONTINUOUS
 10
130.448770434
 20
66.5235938849
 11
130.448770434
 21
61.084264278
  0
LINE
  5
355
100
AcDbEntity
  8
GEOM
100
AcDbLine
 62
7
  6
CONTINUOUS
 10
130.448770434
 20
58.4907530341
 11
130.448770434
 21
58.0874928829
  0
LINE
  5
356
100
AcDbEntity
  8
0
100
AcDbLine
 62
7
  6
CONTINUOUS
 10
130.7856889381
 20
159.2310707542
 11
130.7856889381
 21
156.2310707542
  0
LINE
  5
357
100
AcDbEntity
  8
0
100
AcDbLine
 62
7
  6
CONTINUOUS
 10
131.2524791513
 20
159.2310707542
 11
131.2524791513
 21
156.2310707542
  0
LINE
  5
358
100
AcDbEntity
  8
0
100
AcDbLine
 62
7
  6
CONTINUOUS
 10
122.208838672
 20
108.33772577
 11
121.9421722596
 21
107.6568746682
  0
LINE
  5
359
100
AcDbEntity
  8
0
100
AcDbLine
 62
7
  6
CONTINUOUS
 10
121.6755050844
 20
108.848364007
 11
121.1421722596
 21
107.8270874138
  0
LINE
  5
35A
100
AcDbEntity
  8
0
100
AcDbLine
 62
7
  6
CONTINUOUS
 10
89.9367237477
 20
59.8082636253
 11
90.4150067748
 21
60.6364112192
  0
LINE
  5
35B
100
AcDbEntity
  8
0
100
AcDbLine
 62
7
  6
CONTINUOUS
 10
91.3372943507
 20
59.6360973326
 11
91.9150073419
 21
60.6364112329
  0
LINE
  5
35C
100
AcDbEntity
  8
0
100
AcDbLine
 62
7
  6
CONTINUOUS
 10
92.837293712
 20
59.6360973282
 11
93.4150066785
 21
60.6364111884
  0
LINE
  5
35D
100
AcDbEntity
  8
0
100
AcDbLine
 62
7
  6
CONTINUOUS
 10
94.3372940066
 20
59.636097336
 11
94.9150069952
 21
60.6364112318
  0
LINE
  5
35E
100
AcDbEntity
  8
0
100
AcDbLine
 62
7
  6
CONTINUOUS
 10
96.3550384447
 20
60.5325765683
 11
96.4150072927
 21
60.6364112141
  0
LINE
  5
35F
100
AcDbEntity
  8
0
100
AcDbLine
 62
7
  6
CONTINUOUS
 10
118.608838672
 20
113.7845343466
 11
118.208838672
 21
113.2738961096
  0
LINE
  5
360
100
AcDbEntity
  8
0
100
AcDbLine
 62
7
  6
CONTINUOUS
 10
115.5421718782
 20
111.5717681761
 11
111.808838672
 21
107.3164491768
  0
LINE
  5
361
100
AcDbEntity
  8
0
100
AcDbLine
 62
7
  6
CONTINUOUS
 10
116.208838672
 20
111.0611299391
 11
112.8755053705
 21
107.3164491768
  0
LINE
  5
362
100
AcDbEntity
  8
0
100
AcDbLine
 62
7
  6
CONTINUOUS
 10
90.3861885944
 20
93.6310707542
 11
90.3803829684
 21
93.6260441777
  0
LINE
  5
363
100
AcDbEntity
  8
0
100
AcDbLine
 62
7
  6
CONTINUOUS
 10
113.2755053705
 20
113.4441088553
 11
112.8755053705
 21
113.103683364
  0
LINE
  5
364
100
AcDbEntity
  8
0
100
AcDbLine
 62
7
  6
CONTINUOUS
 10
121.1557139939
 20
124.3909173127
 11
120.9025889939
 21
124.1994279738
  0
LINE
  5
365
100
AcDbEntity
  8
0
100
AcDbLine
 62
7
  6
CONTINUOUS
 10
121.0713383501
 20
123.2419810112
 11
120.5650883501
 21
122.8590023334
  0
LINE
  5
366
100
AcDbEntity
  8
0
100
AcDbLine
 62
7
  6
CONTINUOUS
 10
121.1557139939
 20
122.763257664
 11
120.9025889939
 21
122.5717683251
  0
LINE
  5
367
100
AcDbEntity
  8
0
100
AcDbLine
 62
7
  6
CONTINUOUS
 10
122.505713672
 20
121.2313427518
 11
122.252588672
 21
121.039853413
  0
LINE
  5
368
100
AcDbEntity
  8
0
100
AcDbLine
 62
7
  6
CONTINUOUS
 10
121.0713383501
 20
124.8696406598
 11
120.6494639939
 21
124.5824066515
  0
LINE
  5
369
100
AcDbEntity
  8
0
100
AcDbLine
 62
7
  6
CONTINUOUS
 10
122.758838672
 20
120.8483640406
 11
122.3369633501
 21
120.5611300071
  0
LINE
  5
36A
100
AcDbEntity
  8
0
100
AcDbLine
 62
7
  6
CONTINUOUS
 10
112.9713385915
 20
123.1462363418
 11
112.7182135915
 21
123.0504916723
  0
LINE
  5
36B
100
AcDbEntity
  8
0
100
AcDbLine
 62
7
  6
CONTINUOUS
 10
120.0755050844
 20
106.4653853293
 11
119.2755050844
 21
106.6355980899
  0
LINE
  5
36C
100
AcDbEntity
  8
0
100
AcDbLine
 62
7
  6
CONTINUOUS
 10
120.0755050844
 20
107.3164491768
 11
119.408838672
 21
107.4866619225
  0
LINE
  5
36D
100
AcDbEntity
  8
0
100
AcDbLine
 62
7
  6
CONTINUOUS
 10
115.9421718782
 20
113.9547470923
 11
115.408838672
 21
114.2951725836
  0
LINE
  5
36E
100
AcDbEntity
  8
0
100
AcDbLine
 62
7
  6
CONTINUOUS
 10
121.5421722596
 20
113.7845343466
 11
120.8755050844
 21
114.2951725836
  0
LINE
  5
36F
100
AcDbEntity
  8
0
100
AcDbLine
 62
7
  6
CONTINUOUS
 10
121.1421722596
 20
113.103683364
 11
120.7421722596
 21
113.4441088553
  0
LINE
  5
370
100
AcDbEntity
  8
0
100
AcDbLine
 62
7
  6
CONTINUOUS
 10
113.393213672
 20
124.5824066515
 11
113.0557137525
 21
124.8696406598
  0
LINE
  5
371
100
AcDbEntity
  8
0
100
AcDbLine
 62
7
  6
CONTINUOUS
 10
143.6872942865
 20
93.6260441818
 11
143.6814886697
 21
93.6310707542
  0
LINE
  5
372
100
AcDbEntity
  8
0
100
AcDbLine
 62
7
  6
CONTINUOUS
 10
145.1872936224
 20
93.6260441744
 11
145.1814879971
 21
93.6310707542
  0
LINE
  5
373
100
AcDbEntity
  8
0
100
AcDbLine
 62
7
  6
CONTINUOUS
 10
146.6872942792
 20
93.6260441724
 11
146.6814886515
 21
93.6310707542
  0
LINE
  5
374
100
AcDbEntity
  8
0
100
AcDbLine
 62
7
  6
CONTINUOUS
 10
147.7748642569
 20
93.2650451694
 11
148.908838672
 21
92.1310707542
  0
LINE
  5
375
100
AcDbEntity
  8
0
100
AcDbLine
 62
7
  6
CONTINUOUS
 10
122.6744639939
 20
122.3802789863
 11
122.505713672
 21
122.5717683251
  0
LINE
  5
376
100
AcDbEntity
  8
0
100
AcDbLine
 62
7
  6
CONTINUOUS
 10
122.758838672
 20
122.9547470029
 11
123.011963672
 21
122.6675129946
  0
LINE
  5
377
100
AcDbEntity
  8
0
100
AcDbLine
 62
7
  6
CONTINUOUS
 10
120.6494639939
 20
120.8483640406
 11
120.3963389939
 21
121.2313427518
  0
LINE
  5
378
100
AcDbEntity
  8
0
100
AcDbLine
 62
7
  6
CONTINUOUS
 10
122.9275889939
 20
124.1994279738
 11
122.6744639939
 21
124.5824066515
  0
LINE
  5
379
100
AcDbEntity
  8
0
100
AcDbLine
 62
7
  6
CONTINUOUS
 10
114.052588672
 20
137.3270874883
 11
113.8650886497
 21
137.6143214966
  0
LINE
  5
37A
100
AcDbEntity
  8
0
100
AcDbLine
 62
7
  6
CONTINUOUS
 10
122.5900883501
 20
123.9121939655
 11
122.4213389939
 21
124.1994279738
  0
LINE
  5
37B
100
AcDbEntity
  8
0
100
AcDbLine
 62
7
  6
CONTINUOUS
 10
142.7650071079
 20
92.6257302751
 11
142.3599572462
 21
93.3270728718
  0
LINE
  5
37C
100
AcDbEntity
  8
0
100
AcDbLine
 62
7
  6
CONTINUOUS
 10
144.2650072515
 20
92.625730324
 11
143.6872942865
 21
93.6260441818
  0
LINE
  5
37D
100
AcDbEntity
  8
0
100
AcDbLine
 62
7
  6
CONTINUOUS
 10
111.2024995742
 20
159.4310707542
 11
111.2819086626
 21
159.2310707542
  0
LINE
  5
37E
100
AcDbEntity
  8
0
100
AcDbLine
 62
7
  6
CONTINUOUS
 10
120.4713387614
 20
136.4653853293
 11
119.6275887614
 21
138.6675129946
  0
LINE
  5
37F
100
AcDbEntity
  8
0
100
AcDbLine
 62
7
  6
CONTINUOUS
 10
119.8150885826
 20
136.4653853293
 11
119.0650886273
 21
138.4760236557
  0
LINE
  5
380
100
AcDbEntity
  8
0
100
AcDbLine
 62
7
  6
CONTINUOUS
 10
119.8150885826
 20
139.9121939655
 11
119.721338672
 21
140.1994279738
  0
LINE
  5
381
100
AcDbEntity
  8
0
100
AcDbLine
 62
7
  6
CONTINUOUS
 10
120.3775885826
 20
139.9121939655
 11
120.283838672
 21
140.1994279738
  0
LINE
  5
382
100
AcDbEntity
  8
GEOM
100
AcDbLine
 62
7
  6
CONTINUOUS
 10
136.8418513739
 20
93.6613097204
 11
136.8418513739
 21
59.6008317881
  0
LINE
  5
383
100
AcDbEntity
  8
GEOM
100
AcDbLine
 62
7
  6
CONTINUOUS
 10
136.908838672
 20
93.4113097204
 11
136.908838672
 21
59.8508317881
  0
LINE
  5
384
100
AcDbEntity
  8
GEOM
100
AcDbLine
 62
7
  6
CONTINUOUS
 10
137.608838672
 20
61.3810707542
 11
137.608838672
 21
91.8810707542
  0
LINE
  5
385
100
AcDbEntity
  8
0
100
AcDbLine
 62
7
  6
CONTINUOUS
 10
130.4836452411
 20
58.4861137516
 11
130.448770434
 21
58.0874928829
  0
LINE
  5
386
100
AcDbEntity
  8
0
100
AcDbLine
 62
7
  6
CONTINUOUS
 10
111.9161782463
 20
75.1237767918
 11
112.2528761176
 21
75.7845835711
  0
LINE
  5
387
100
AcDbEntity
  8
0
100
AcDbLine
 62
7
  6
CONTINUOUS
 10
112.1630865391
 20
74.5510707542
 11
113.7222344146
 21
77.6110707542
  0
LINE
  5
388
100
AcDbEntity
  8
0
100
AcDbLine
 62
7
  6
CONTINUOUS
 10
112.8364822817
 20
74.5510707542
 11
114.3956301572
 21
77.6110707542
  0
LINE
  5
389
100
AcDbEntity
  8
0
100
AcDbLine
 62
7
  6
CONTINUOUS
 10
121.9421722596
 20
107.6568746682
 11
121.5421722596
 21
107.1462363716
  0
LINE
  5
38A
100
AcDbEntity
  8
0
100
AcDbLine
 62
7
  6
CONTINUOUS
 10
107.3730522344
 20
94.5452843166
 11
105.2946251096
 21
92.4668571919
  0
LINE
  5
38B
100
AcDbEntity
  8
0
100
AcDbLine
 62
7
  6
CONTINUOUS
 10
93.058838672
 20
84.6310707542
 11
93.6361889412
 21
85.1310707542
  0
LINE
  5
38C
100
AcDbEntity
  8
0
100
AcDbLine
 62
7
  6
CONTINUOUS
 10
119.408838672
 20
113.4441088553
 11
119.008838672
 21
113.103683364
  0
LINE
  5
38D
100
AcDbEntity
  8
0
100
AcDbLine
 62
7
  6
CONTINUOUS
 10
119.2755050844
 20
114.2951725836
 11
118.608838672
 21
113.7845343466
  0
LINE
  5
38E
100
AcDbEntity
  8
0
100
AcDbLine
 62
7
  6
CONTINUOUS
 10
113.1421719735
 20
114.2951725836
 11
112.608838672
 21
113.9547470923
  0
LINE
  5
38F
100
AcDbEntity
  8
0
100
AcDbLine
 62
7
  6
CONTINUOUS
 10
121.4088389939
 20
124.4866619821
 11
121.1557139939
 21
124.3909173127
  0
LINE
  5
390
100
AcDbEntity
  8
0
100
AcDbLine
 62
7
  6
CONTINUOUS
 10
121.4088389939
 20
122.8590023334
 11
121.1557139939
 21
122.763257664
  0
LINE
  5
391
100
AcDbEntity
  8
0
100
AcDbLine
 62
7
  6
CONTINUOUS
 10
122.252588672
 20
121.039853413
 11
121.999463672
 21
120.9441087435
  0
LINE
  5
392
100
AcDbEntity
  8
0
100
AcDbLine
 62
7
  6
CONTINUOUS
 10
116.608838672
 20
106.4653853293
 11
111.808838672
 21
106.4653853293
  0
LINE
  5
393
100
AcDbEntity
  8
0
100
AcDbLine
 62
7
  6
CONTINUOUS
 10
116.608838672
 20
107.3164491768
 11
112.8755053705
 21
107.3164491768
  0
LINE
  5
394
100
AcDbEntity
  8
0
100
AcDbLine
 62
7
  6
CONTINUOUS
 10
115.408838672
 20
114.2951725836
 11
114.608838672
 21
114.4653853293
  0
LINE
  5
395
100
AcDbEntity
  8
0
100
AcDbLine
 62
7
  6
CONTINUOUS
 10
115.1421718782
 20
113.4441088553
 11
114.4755052751
 21
113.614321601
  0
LINE
  5
396
100
AcDbEntity
  8
0
100
AcDbLine
 62
7
  6
CONTINUOUS
 10
120.7421722596
 20
113.4441088553
 11
120.0755050844
 21
113.614321601
  0
LINE
  5
397
100
AcDbEntity
  8
0
100
AcDbLine
 62
7
  6
CONTINUOUS
 10
121.0713383501
 20
120.5611300071
 11
120.6494639939
 21
120.8483640406
  0
LINE
  5
398
100
AcDbEntity
  8
0
100
AcDbLine
 62
7
  6
CONTINUOUS
 10
122.758838672
 20
122.9547470029
 11
122.3369633501
 21
123.2419810112
  0
LINE
  5
399
100
AcDbEntity
  8
0
100
AcDbLine
 62
7
  6
CONTINUOUS
 10
121.1557139939
 20
121.039853413
 11
120.9025889939
 21
121.2313427518
  0
LINE
  5
39A
100
AcDbEntity
  8
0
100
AcDbLine
 62
7
  6
CONTINUOUS
 10
122.505713672
 20
122.5717683251
 11
122.252588672
 21
122.763257664
  0
LINE
  5
39B
100
AcDbEntity
  8
0
100
AcDbLine
 62
7
  6
CONTINUOUS
 10
122.4213389939
 20
124.1994279738
 11
122.1682139939
 21
124.3909173127
  0
LINE
  5
39C
100
AcDbEntity
  8
0
100
AcDbLine
 62
7
  6
CONTINUOUS
 10
113.8650886497
 20
136.7526193711
 11
113.490088672
 21
137.1355980824
  0
LINE
  5
39D
100
AcDbEntity
  8
0
100
AcDbLine
 62
7
  6
CONTINUOUS
 10
145.765006619
 20
92.6257302655
 11
145.1872936224
 21
93.6260441744
  0
LINE
  5
39E
100
AcDbEntity
  8
0
100
AcDbLine
 62
7
  6
CONTINUOUS
 10
147.265007262
 20
92.625730286
 11
146.6872942792
 21
93.6260441724
  0
LINE
  5
39F
100
AcDbEntity
  8
0
100
AcDbLine
 62
7
  6
CONTINUOUS
 10
110.908838672
 20
159.4310707542
 11
111.0090633259
 21
159.2310707542
  0
LINE
  5
3A0
100
AcDbEntity
  8
GEOM
100
AcDbLine
 62
7
  6
CONTINUOUS
 10
140.6188891783
 20
61.3810707542
 11
140.6188891783
 21
91.8810707542
  0
LINE
  5
3A1
100
AcDbEntity
  8
GEOM
100
AcDbLine
 62
7
  6
CONTINUOUS
 10
141.1138639252
 20
61.1760455011
 11
141.1138639252
 21
92.0860960074
  0
LINE
  5
3A2
100
AcDbEntity
  8
0
100
AcDbLine
 62
7
  6
CONTINUOUS
 10
141.6588386186
 20
74.9585947565
 11
141.6588386204
 21
84.6310510715
  0
LINE
  5
3A3
100
AcDbEntity
  8
0
100
AcDbLine
 62
7
  6
CONTINUOUS
 10
142.658838672
 20
69.5640123982
 11
142.658838672
 21
60.5156045832
  0
LINE
  5
3A4
100
AcDbEntity
  8
0
100
AcDbLine
 62
7
  6
CONTINUOUS
 10
96.3405281861
 20
60.5127602708
 11
96.3550384447
 21
60.5325765683
  0
LINE
  5
3A5
100
AcDbEntity
  8
0
100
AcDbLine
 62
7
  6
CONTINUOUS
 10
121.1421722596
 20
107.8270874138
 11
120.7421722596
 21
107.4866619225
  0
LINE
  5
3A6
100
AcDbEntity
  8
0
100
AcDbLine
 62
7
  6
CONTINUOUS
 10
121.5421722596
 20
107.1462363716
 11
120.8755050844
 21
106.6355980899
  0
LINE
  5
3A7
100
AcDbEntity
  8
0
100
AcDbLine
 62
7
  6
CONTINUOUS
 10
120.8755050844
 20
106.6355980899
 11
120.0755050844
 21
106.4653853293
  0
LINE
  5
3A8
100
AcDbEntity
  8
0
100
AcDbLine
 62
7
  6
CONTINUOUS
 10
112.608838672
 20
112.593045127
 11
111.9421720093
 21
112.593045127
  0
LINE
  5
3A9
100
AcDbEntity
  8
0
100
AcDbLine
 62
7
  6
CONTINUOUS
 10
120.8755050844
 20
114.2951725836
 11
120.0755050844
 21
114.4653853293
  0
LINE
  5
3AA
100
AcDbEntity
  8
0
100
AcDbLine
 62
7
  6
CONTINUOUS
 10
121.4088389939
 20
120.9441087435
 11
121.1557139939
 21
121.039853413
  0
LINE
  5
3AB
100
AcDbEntity
  8
0
100
AcDbLine
 62
7
  6
CONTINUOUS
 10
112.9713385915
 20
124.3909173127
 11
112.7182135915
 21
124.4866619821
  0
LINE
  5
3AC
100
AcDbEntity
  8
0
100
AcDbLine
 62
7
  6
CONTINUOUS
 10
122.252588672
 20
122.763257664
 11
121.999463672
 21
122.8590023334
  0
LINE
  5
3AD
100
AcDbEntity
  8
0
100
AcDbLine
 62
7
  6
CONTINUOUS
 10
122.6744639939
 20
124.5824066515
 11
122.252588672
 21
124.8696406598
  0
LINE
  5
3AE
100
AcDbEntity
  8
0
100
AcDbLine
 62
7
  6
CONTINUOUS
 10
107.158838672
 20
147.3810707542
 11
107.2916813845
 21
147.2482280418
  0
LINE
  5
3AF
100
AcDbEntity
  8
0
100
AcDbLine
 62
7
  6
CONTINUOUS
 10
116.7713387614
 20
140.2951726432
 11
116.3963385826
 21
140.678151321
  0
LINE
  5
3B0
100
AcDbEntity
  8
0
100
AcDbLine
 62
7
  6
CONTINUOUS
 10
119.721338672
 20
140.1994279738
 11
119.5338385826
 21
140.3909173127
  0
LINE
  5
3B1
100
AcDbEntity
  8
0
100
AcDbLine
 62
7
  6
CONTINUOUS
 10
120.283838672
 20
140.1994279738
 11
120.002588672
 21
140.5824066515
  0
LINE
  5
3B2
100
AcDbEntity
  8
0
100
AcDbLine
 62
7
  6
CONTINUOUS
 10
147.408838672
 20
59.6310707549
 11
147.408838672
 21
59.7075267298
  0
LINE
  5
3B3
100
AcDbEntity
  8
0
100
AcDbLine
 62
7
  6
CONTINUOUS
 10
148.908838672
 20
92.1310707542
 11
148.908838672
 21
61.1310707542
  0
LINE
  5
3B4
100
AcDbEntity
  8
0
100
AcDbLine
 62
7
  6
CONTINUOUS
 10
120.7421722596
 20
107.4866619225
 11
120.0755050844
 21
107.3164491768
  0
LINE
  5
3B5
100
AcDbEntity
  8
0
100
AcDbLine
 62
7
  6
CONTINUOUS
 10
114.4755052751
 20
113.614321601
 11
113.9421720689
 21
113.614321601
  0
LINE
  5
3B6
100
AcDbEntity
  8
0
100
AcDbLine
 62
7
  6
CONTINUOUS
 10
114.608838672
 20
114.4653853293
 11
114.0755052751
 21
114.4653853293
  0
LINE
  5
3B7
100
AcDbEntity
  8
0
100
AcDbLine
 62
7
  6
CONTINUOUS
 10
121.493213672
 20
120.4653853293
 11
121.0713383501
 21
120.5611300071
  0
LINE
  5
3B8
100
AcDbEntity
  8
0
100
AcDbLine
 62
7
  6
CONTINUOUS
 10
113.0557137525
 20
124.8696406598
 11
112.633838672
 21
124.9653853293
  0
LINE
  5
3B9
100
AcDbEntity
  8
0
100
AcDbLine
 62
7
  6
CONTINUOUS
 10
121.9150889939
 20
123.3377256806
 11
122.3369633501
 21
123.2419810112
  0
LINE
  5
3BA
100
AcDbEntity
  8
0
100
AcDbLine
 62
7
  6
CONTINUOUS
 10
122.252588672
 20
124.8696406598
 11
121.8307133501
 21
124.9653853293
  0
LINE
  5
3BB
100
AcDbEntity
  8
0
100
AcDbLine
 62
7
  6
CONTINUOUS
 10
122.1682139939
 20
124.3909173127
 11
121.9150889939
 21
124.4866619821
  0
LINE
  5
3BC
100
AcDbEntity
  8
0
100
AcDbLine
 62
7
  6
CONTINUOUS
 10
114.2400886944
 20
136.5611300071
 11
113.8650886497
 21
136.7526193711
  0
LINE
  5
3BD
100
AcDbEntity
  8
0
100
AcDbLine
 62
7
  6
CONTINUOUS
 10
103.158838672
 20
142.2867331869
 11
108.2851639876
 21
139.327047886
  0
LINE
  5
3BE
100
AcDbEntity
  8
0
100
AcDbLine
 62
7
  6
CONTINUOUS
 10
103.408838672
 20
142.7197458888
 11
108.3758145891
 21
139.8520610061
  0
LINE
  5
3BF
100
AcDbEntity
  8
0
100
AcDbLine
 62
7
  6
CONTINUOUS
 10
114.333838672
 20
137.1355980824
 11
114.052588672
 21
137.3270874883
  0
LINE
  5
3C0
100
AcDbEntity
  8
0
100
AcDbLine
 62
7
  6
CONTINUOUS
 10
116.2088387614
 20
140.1036833043
 11
115.9275887614
 21
140.2951726432
  0
LINE
  5
3C1
100
AcDbEntity
  8
0
100
AcDbLine
 62
7
  6
CONTINUOUS
 10
120.002588672
 20
140.5824066515
 11
119.6275887614
 21
140.8696406598
  0
LINE
  5
3C2
100
AcDbEntity
  8
0
100
AcDbLine
 62
7
  6
CONTINUOUS
 10
119.408838672
 20
149.2310707542
 11
112.881233069
 21
156.2310707542
  0
LINE
  5
3C3
100
AcDbEntity
  8
0
100
AcDbLine
 62
7
  6
CONTINUOUS
 10
114.4282254172
 20
155.2801245643
 11
113.541453749
 21
156.2310707542
  0
LINE
  5
3C4
100
AcDbEntity
  8
0
100
AcDbLine
 62
7
  6
CONTINUOUS
 10
151.408838672
 20
174.5677457962
 11
151.408838672
 21
176.8943957123
  0
LINE
  5
3C5
100
AcDbEntity
  8
0
100
AcDbLine
 62
7
  6
CONTINUOUS
 10
151.408838672
 20
177.2310707542
 11
151.408838672
 21
177.4310707542
  0
LINE
  5
3C6
100
AcDbEntity
  8
0
100
AcDbLine
 62
7
  6
CONTINUOUS
 10
152.708838672
 20
172.7310707542
 11
152.708838672
 21
178.7310707542
  0
LINE
  5
3C7
100
AcDbEntity
  8
GEOM
100
AcDbLine
 62
7
  6
CONTINUOUS
 10
152.908838672
 20
178.7310707542
 11
152.908838672
 21
178.7810707542
  0
LINE
  5
3C8
100
AcDbEntity
  8
GEOM
100
AcDbLine
 62
7
  6
CONTINUOUS
 10
154.0616354173
 20
178.7310707542
 11
154.0616354173
 21
178.7810707542
  0
LINE
  5
3C9
100
AcDbEntity
  8
GEOM
100
AcDbLine
 62
7
  6
CONTINUOUS
 10
154.908838672
 20
178.7310707542
 11
154.908838672
 21
178.7810707542
  0
LINE
  5
3CA
100
AcDbEntity
  8
0
100
AcDbLine
 62
7
  6
CONTINUOUS
 10
96.9159454532
 20
61.0881775354
 11
96.4588387022
 21
60.6310707844
  0
LINE
  5
3CB
100
AcDbEntity
  8
0
100
AcDbLine
 62
7
  6
CONTINUOUS
 10
96.3405380864
 20
60.5127701687
 11
95.5712742525
 21
59.7435063347
  0
LINE
  5
3CC
100
AcDbEntity
  8
0
100
AcDbLine
 62
7
  6
CONTINUOUS
 10
120.0755050844
 20
113.614321601
 11
119.408838672
 21
113.4441088553
  0
LINE
  5
3CD
100
AcDbEntity
  8
0
100
AcDbLine
 62
7
  6
CONTINUOUS
 10
113.9421720689
 20
113.614321601
 11
113.2755053705
 21
113.4441088553
  0
LINE
  5
3CE
100
AcDbEntity
  8
0
100
AcDbLine
 62
7
  6
CONTINUOUS
 10
120.0755050844
 20
114.4653853293
 11
119.2755050844
 21
114.2951725836
  0
LINE
  5
3CF
100
AcDbEntity
  8
0
100
AcDbLine
 62
7
  6
CONTINUOUS
 10
114.0755052751
 20
114.4653853293
 11
113.1421719735
 21
114.2951725836
  0
LINE
  5
3D0
100
AcDbEntity
  8
0
100
AcDbLine
 62
7
  6
CONTINUOUS
 10
121.9150889939
 20
120.4653853293
 11
121.493213672
 21
120.4653853293
  0
LINE
  5
3D1
100
AcDbEntity
  8
0
100
AcDbLine
 62
7
  6
CONTINUOUS
 10
119.468213672
 20
120.4653853293
 11
118.961963672
 21
120.4653853293
  0
LINE
  5
3D2
100
AcDbEntity
  8
0
100
AcDbLine
 62
7
  6
CONTINUOUS
 10
117.7807138329
 20
120.4653853293
 11
117.0213388329
 21
120.4653853293
  0
LINE
  5
3D3
100
AcDbEntity
  8
0
100
AcDbLine
 62
7
  6
CONTINUOUS
 10
114.911963672
 20
120.4653853293
 11
114.405713672
 21
120.4653853293
  0
LINE
  5
3D4
100
AcDbEntity
  8
0
100
AcDbLine
 62
7
  6
CONTINUOUS
 10
111.115088672
 20
120.4653853293
 11
110.608838672
 21
120.4653853293
  0
LINE
  5
3D5
100
AcDbEntity
  8
0
100
AcDbLine
 62
7
  6
CONTINUOUS
 10
121.999463672
 20
120.9441087435
 11
121.4088389939
 21
120.9441087435
  0
LINE
  5
3D6
100
AcDbEntity
  8
0
100
AcDbLine
 62
7
  6
CONTINUOUS
 10
112.633838672
 20
122.4760236557
 11
111.115088672
 21
122.4760236557
  0
LINE
  5
3D7
100
AcDbEntity
  8
0
100
AcDbLine
 62
7
  6
CONTINUOUS
 10
121.999463672
 20
122.8590023334
 11
121.4088389939
 21
122.8590023334
  0
LINE
  5
3D8
100
AcDbEntity
  8
0
100
AcDbLine
 62
7
  6
CONTINUOUS
 10
112.7182135915
 20
123.0504916723
 11
111.115088672
 21
123.0504916723
  0
LINE
  5
3D9
100
AcDbEntity
  8
0
100
AcDbLine
 62
7
  6
CONTINUOUS
 10
121.9150889939
 20
123.3377256806
 11
121.493213672
 21
123.3377256806
  0
LINE
  5
3DA
100
AcDbEntity
  8
0
100
AcDbLine
 62
7
  6
CONTINUOUS
 10
123.011963672
 20
123.9121939655
 11
122.5900883501
 21
123.9121939655
  0
LINE
  5
3DB
100
AcDbEntity
  8
0
100
AcDbLine
 62
7
  6
CONTINUOUS
 10
121.9150889939
 20
124.4866619821
 11
121.4088389939
 21
124.4866619821
  0
LINE
  5
3DC
100
AcDbEntity
  8
0
100
AcDbLine
 62
7
  6
CONTINUOUS
 10
112.7182135915
 20
124.4866619821
 11
111.115088672
 21
124.4866619821
  0
LINE
  5
3DD
100
AcDbEntity
  8
0
100
AcDbLine
 62
7
  6
CONTINUOUS
 10
116.3963385826
 20
140.678151321
 11
116.021338672
 21
140.8696406598
  0
LINE
  5
3DE
100
AcDbEntity
  8
GEOM
100
AcDbLine
 62
7
  6
CONTINUOUS
 10
155.5995484412
 20
178.7310707542
 11
155.5995484412
 21
178.7810707542
  0
LINE
  5
3DF
100
AcDbEntity
  8
GEOM
100
AcDbLine
 62
7
  6
CONTINUOUS
 10
156.5518761862
 20
178.7310707542
 11
156.5518761862
 21
178.7810707542
  0
LINE
  5
3E0
100
AcDbEntity
  8
GEOM
100
AcDbLine
 62
7
  6
CONTINUOUS
 10
157.120378953
 20
178.7310707542
 11
157.120378953
 21
178.7810707542
  0
LINE
  5
3E1
100
AcDbEntity
  8
GEOM
100
AcDbLine
 62
7
  6
CONTINUOUS
 10
157.1812951313
 20
178.7310707542
 11
157.1812951313
 21
178.7810707542
  0
LINE
  5
3E2
100
AcDbEntity
  8
GEOM
100
AcDbLine
 62
7
  6
CONTINUOUS
 10
158.5372227026
 20
178.7310707542
 11
158.5372227026
 21
178.7810707542
  0
LINE
  5
3E3
100
AcDbEntity
  8
GEOM
100
AcDbLine
 62
7
  6
CONTINUOUS
 10
158.5980424183
 20
178.7310707542
 11
158.5980424183
 21
178.7810707542
  0
LINE
  5
3E4
100
AcDbEntity
  8
GEOM
100
AcDbLine
 62
7
  6
CONTINUOUS
 10
159.1772043105
 20
178.7310707542
 11
159.1772043105
 21
178.7810707542
  0
LINE
  5
3E5
100
AcDbEntity
  8
GEOM
100
AcDbLine
 62
7
  6
CONTINUOUS
 10
160.1090337374
 20
178.7310707542
 11
160.1090337374
 21
178.7810707542
  0
LINE
  5
3E6
100
AcDbEntity
  8
0
100
AcDbLine
 62
7
  6
CONTINUOUS
 10
143.4803834494
 20
93.6260441717
 11
142.9299828551
 21
92.6730209872
  0
LINE
  5
3E7
100
AcDbEntity
  8
0
100
AcDbLine
 62
7
  6
CONTINUOUS
 10
142.9299828551
 20
92.6730209872
 11
142.9026704603
 21
92.6257302751
  0
LINE
  5
3E8
100
AcDbEntity
  8
0
100
AcDbLine
 62
7
  6
CONTINUOUS
 10
144.9803835943
 20
93.6260441819
 11
144.4026706292
 21
92.6257303238
  0
LINE
  5
3E9
100
AcDbEntity
  8
0
100
AcDbLine
 62
7
  6
CONTINUOUS
 10
146.4803829749
 20
93.6260441744
 11
145.9026699784
 21
92.6257302655
  0
LINE
  5
3EA
100
AcDbEntity
  8
0
100
AcDbLine
 62
7
  6
CONTINUOUS
 10
147.7711035283
 20
93.2636699686
 11
147.4026706168
 21
92.6257302859
  0
LINE
  5
3EB
100
AcDbEntity
  8
0
100
AcDbLine
 62
7
  6
CONTINUOUS
 10
122.3369633501
 20
120.5611300071
 11
121.9150889939
 21
120.4653853293
  0
LINE
  5
3EC
100
AcDbEntity
  8
0
100
AcDbLine
 62
7
  6
CONTINUOUS
 10
121.493213672
 20
123.3377256806
 11
121.0713383501
 21
123.2419810112
  0
LINE
  5
3ED
100
AcDbEntity
  8
0
100
AcDbLine
 62
7
  6
CONTINUOUS
 10
121.8307133501
 20
124.9653853293
 11
121.493213672
 21
124.9653853293
  0
LINE
  5
3EE
100
AcDbEntity
  8
0
100
AcDbLine
 62
7
  6
CONTINUOUS
 10
119.468213672
 20
124.9653853293
 11
118.961963672
 21
124.9653853293
  0
LINE
  5
3EF
100
AcDbEntity
  8
0
100
AcDbLine
 62
7
  6
CONTINUOUS
 10
117.7807138329
 20
124.9653853293
 11
117.2744638329
 21
124.9653853293
  0
LINE
  5
3F0
100
AcDbEntity
  8
0
100
AcDbLine
 62
7
  6
CONTINUOUS
 10
115.165088672
 20
124.9653853293
 11
114.405713672
 21
124.9653853293
  0
LINE
  5
3F1
100
AcDbEntity
  8
0
100
AcDbLine
 62
7
  6
CONTINUOUS
 10
112.633838672
 20
124.9653853293
 11
110.608838672
 21
124.9653853293
  0
LINE
  5
3F2
100
AcDbEntity
  8
0
100
AcDbLine
 62
7
  6
CONTINUOUS
 10
114.7088387167
 20
136.4653853293
 11
114.2400886944
 21
136.5611300071
  0
LINE
  5
3F3
100
AcDbEntity
  8
0
100
AcDbLine
 62
7
  6
CONTINUOUS
 10
114.7088387167
 20
137.039853413
 11
114.333838672
 21
137.1355980824
  0
LINE
  5
3F4
100
AcDbEntity
  8
0
100
AcDbLine
 62
7
  6
CONTINUOUS
 10
119.5338385826
 20
140.3909173127
 11
119.2525885826
 21
140.4866619821
  0
LINE
  5
3F5
100
AcDbEntity
  8
0
100
AcDbLine
 62
7
  6
CONTINUOUS
 10
108.9192458359
 20
151.0173023632
 11
109.5663311922
 21
150.6799737365
  0
LINE
  5
3F6
100
AcDbEntity
  8
0
100
AcDbLine
 62
7
  6
CONTINUOUS
 10
109.3286312068
 20
152.1398980238
 11
109.5664177885
 21
152.0159291955
  0
LWPOLYLINE
  5
3F7
100
AcDbEntity
  8
0
100
AcDbPolyline
 62
7
  6
CONTINUOUS
 90
17
 70
0
 10
109.5664177885
 20
152.0159291955
 10
109.5666933978
 20
152.0157824896
 10
109.569301136
 20
152.0142517496
 10
109.5732867893
 20
152.0115017114
 10
109.5796453171
 20
152.0061555182
 10
109.5882628545
 20
151.9967842042
 10
109.5971735278
 20
151.9833655358
 10
109.604356506
 20
151.9667633883
 10
109.608519673
 20
151.9464223683
 10
109.6074923189
 20
151.9239128883
 10
109.6016715171
 20
151.9041287077
 10
109.5934060046
 20
151.8884907686
 10
109.583941392
 20
151.876314854
 10
109.575346978
 20
151.8682435673
 10
109.5696409352
 20
151.8641068528
 10
109.5668112251
 20
151.862424515
 10
109.5663826927
 20
151.862195624
  0
LWPOLYLINE
  5
3F8
100
AcDbEntity
  8
0
100
AcDbPolyline
 62
7
  6
CONTINUOUS
 90
7
 70
0
 10
109.5663023236
 20
150.6799887972
 10
109.5689130927
 20
150.6784933854
 10
109.572769538
 20
150.6758840376
 10
109.5791223046
 20
150.6706404397
 10
109.5878941875
 20
150.6612443398
 10
109.5970040172
 20
150.6476726721
 10
109.6042377479
 20
150.6310707542
  0
LINE
  5
3F9
100
AcDbEntity
  8
0
100
AcDbLine
 62
7
  6
CONTINUOUS
 10
122.6151777698
 20
159.4310707542
 11
122.8068168894
 21
159.2310707542
  0
LINE
  5
3FA
100
AcDbEntity
  8
GEOM
100
AcDbLine
 62
7
  6
CONTINUOUS
 10
160.8338060354
 20
178.7310707542
 11
160.8338060354
 21
178.7810707542
  0
LINE
  5
3FB
100
AcDbEntity
  8
GEOM
100
AcDbLine
 62
7
  6
CONTINUOUS
 10
161.4701944087
 20
178.7310707542
 11
161.4701944087
 21
178.7810707542
  0
LINE
  5
3FC
100
AcDbEntity
  8
GEOM
100
AcDbLine
 62
7
  6
CONTINUOUS
 10
162.1043159092
 20
178.7310707542
 11
162.1043159092
 21
178.7810707542
  0
LINE
  5
3FD
100
AcDbEntity
  8
GEOM
100
AcDbLine
 62
7
  6
CONTINUOUS
 10
162.7822073478
 20
178.7310707542
 11
162.7822073478
 21
178.7810707542
  0
LINE
  5
3FE
100
AcDbEntity
  8
GEOM
100
AcDbLine
 62
7
  6
CONTINUOUS
 10
163.5104523021
 20
178.7310707542
 11
163.5104523021
 21
178.7810707542
  0
LINE
  5
3FF
100
AcDbEntity
  8
GEOM
100
AcDbLine
 62
7
  6
CONTINUOUS
 10
164.9164440009
 20
178.7310707542
 11
164.9164440009
 21
178.7810707542
  0
LINE
  5
400
100
AcDbEntity
  8
GEOM
100
AcDbLine
 62
7
  6
CONTINUOUS
 10
165.8651061643
 20
178.7310707542
 11
165.8651061643
 21
178.7810707542
  0
LINE
  5
401
100
AcDbEntity
  8
0
100
AcDbLine
 62
7
  6
CONTINUOUS
 10
142.3562107835
 20
93.3284428657
 11
141.1138639252
 21
92.0860960074
  0
LINE
  5
402
100
AcDbEntity
  8
0
100
AcDbLine
 62
7
  6
CONTINUOUS
 10
143.4861890779
 20
93.6310707542
 11
143.4803834494
 21
93.6260441717
  0
LINE
  5
403
100
AcDbEntity
  8
0
100
AcDbLine
 62
7
  6
CONTINUOUS
 10
113.0557137525
 20
122.5717683251
 11
112.633838672
 21
122.4760236557
  0
LINE
  5
404
100
AcDbEntity
  8
0
100
AcDbLine
 62
7
  6
CONTINUOUS
 10
121.493213672
 20
124.9653853293
 11
121.0713383501
 21
124.8696406598
  0
LINE
  5
405
100
AcDbEntity
  8
0
100
AcDbLine
 62
7
  6
CONTINUOUS
 10
116.021338672
 20
140.8696406598
 11
115.5525885826
 21
140.9653853293
  0
LINE
  5
406
100
AcDbEntity
  8
0
100
AcDbLine
 62
7
  6
CONTINUOUS
 10
119.6275887614
 20
140.8696406598
 11
119.158838672
 21
140.9653853293
  0
LINE
  5
407
100
AcDbEntity
  8
0
100
AcDbLine
 62
7
  6
CONTINUOUS
 10
115.9275887614
 20
140.2951726432
 11
115.5525885826
 21
140.3909173127
  0
LINE
  5
408
100
AcDbEntity
  8
0
100
AcDbLine
 62
7
  6
CONTINUOUS
 10
110.908838672
 20
159.4310707542
 11
111.2518022363
 21
159.2310707542
  0
LINE
  5
409
100
AcDbEntity
  8
GEOM
100
AcDbLine
 62
7
  6
CONTINUOUS
 10
166.4754255001
 20
178.7310707542
 11
166.4754255001
 21
178.7810707542
  0
LINE
  5
40A
100
AcDbEntity
  8
GEOM
100
AcDbLine
 62
7
  6
CONTINUOUS
 10
167.110535743
 20
178.7310707542
 11
167.110535743
 21
178.7810707542
  0
LINE
  5
40B
100
AcDbEntity
  8
GEOM
100
AcDbLine
 62
7
  6
CONTINUOUS
 10
167.9391501091
 20
178.7310707542
 11
167.9391501091
 21
178.7810707542
  0
LINE
  5
40C
100
AcDbEntity
  8
GEOM
100
AcDbLine
 62
7
  6
CONTINUOUS
 10
168.4946786463
 20
178.7310707542
 11
168.4946786463
 21
178.7810707542
  0
LINE
  5
40D
100
AcDbEntity
  8
GEOM
100
AcDbLine
 62
7
  6
CONTINUOUS
 10
169.066171756
 20
178.7310707542
 11
169.066171756
 21
178.7810707542
  0
LINE
  5
40E
100
AcDbEntity
  8
GEOM
100
AcDbLine
 62
7
  6
CONTINUOUS
 10
169.7569409615
 20
178.7310707542
 11
169.7569409615
 21
178.7810707542
  0
LINE
  5
40F
100
AcDbEntity
  8
GEOM
100
AcDbLine
 62
7
  6
CONTINUOUS
 10
170.3828872504
 20
178.7310707542
 11
170.3828872504
 21
178.7810707542
  0
LINE
  5
410
100
AcDbEntity
  8
GEOM
100
AcDbLine
 62
7
  6
CONTINUOUS
 10
171.0122097329
 20
178.7310707542
 11
171.0122097329
 21
178.7810707542
  0
LINE
  5
411
100
AcDbEntity
  8
GEOM
100
AcDbLine
 62
7
  6
CONTINUOUS
 10
171.7303743378
 20
178.7310707542
 11
171.7303743378
 21
178.7810707542
  0
LINE
  5
412
100
AcDbEntity
  8
0
100
AcDbLine
 62
7
  6
CONTINUOUS
 10
136.7149722818
 20
59.3810707542
 11
136.8418513739
 21
59.6008317881
  0
LINE
  5
413
100
AcDbEntity
  8
0
100
AcDbLine
 62
7
  6
CONTINUOUS
 10
141.8845857805
 20
60.410589856
 11
142.0150067474
 21
60.6364112458
  0
LINE
  5
414
100
AcDbEntity
  8
0
100
AcDbLine
 62
7
  6
CONTINUOUS
 10
120.4713387614
 20
136.4653853293
 11
119.8150885826
 21
136.4653853293
  0
LINE
  5
415
100
AcDbEntity
  8
0
100
AcDbLine
 62
7
  6
CONTINUOUS
 10
117.471338672
 20
136.4653853293
 11
116.908838672
 21
136.4653853293
  0
LINE
  5
416
100
AcDbEntity
  8
0
100
AcDbLine
 62
7
  6
CONTINUOUS
 10
115.5525885826
 20
136.4653853293
 11
114.7088387167
 21
136.4653853293
  0
LINE
  5
417
100
AcDbEntity
  8
0
100
AcDbLine
 62
7
  6
CONTINUOUS
 10
115.5525885826
 20
137.039853413
 11
114.7088387167
 21
137.039853413
  0
LINE
  5
418
100
AcDbEntity
  8
0
100
AcDbLine
 62
7
  6
CONTINUOUS
 10
116.865088672
 20
137.6143214966
 11
116.302588672
 21
137.6143214966
  0
LINE
  5
419
100
AcDbEntity
  8
0
100
AcDbLine
 62
7
  6
CONTINUOUS
 10
119.0650886273
 20
138.4760236557
 11
117.471338672
 21
138.4760236557
  0
LINE
  5
41A
100
AcDbEntity
  8
0
100
AcDbLine
 62
7
  6
CONTINUOUS
 10
119.2525885826
 20
139.0504916723
 11
117.471338672
 21
139.0504916723
  0
LINE
  5
41B
100
AcDbEntity
  8
0
100
AcDbLine
 62
7
  6
CONTINUOUS
 10
116.865088672
 20
139.8164490278
 11
116.302588672
 21
139.8164490278
  0
LINE
  5
41C
100
AcDbEntity
  8
0
100
AcDbLine
 62
7
  6
CONTINUOUS
 10
108.3758145891
 20
139.8520610061
 11
108.5664966915
 21
139.8520610061
  0
LINE
  5
41D
100
AcDbEntity
  8
0
100
AcDbLine
 62
7
  6
CONTINUOUS
 10
115.5525885826
 20
140.3909173127
 11
114.7088387167
 21
140.3909173127
  0
LINE
  5
41E
100
AcDbEntity
  8
0
100
AcDbLine
 62
7
  6
CONTINUOUS
 10
119.2525885826
 20
140.4866619821
 11
117.471338672
 21
140.4866619821
  0
LINE
  5
41F
100
AcDbEntity
  8
0
100
AcDbLine
 62
7
  6
CONTINUOUS
 10
119.158838672
 20
140.9653853293
 11
116.908838672
 21
140.9653853293
  0
LINE
  5
420
100
AcDbEntity
  8
0
100
AcDbLine
 62
7
  6
CONTINUOUS
 10
115.5525885826
 20
140.9653853293
 11
114.7088387167
 21
140.9653853293
  0
LINE
  5
421
100
AcDbEntity
  8
GEOM
100
AcDbLine
 62
7
  6
CONTINUOUS
 10
172.6827503141
 20
178.7310707542
 11
172.6827503141
 21
178.7810707542
  0
LINE
  5
422
100
AcDbEntity
  8
GEOM
100
AcDbLine
 62
7
  6
CONTINUOUS
 10
173.2513013122
 20
178.7310707542
 11
173.2513013122
 21
178.7810707542
  0
LINE
  5
423
100
AcDbEntity
  8
GEOM
100
AcDbLine
 62
7
  6
CONTINUOUS
 10
173.3121692593
 20
178.7310707542
 11
173.3121692593
 21
178.7810707542
  0
LINE
  5
424
100
AcDbEntity
  8
GEOM
100
AcDbLine
 62
7
  6
CONTINUOUS
 10
174.6681450619
 20
178.7310707542
 11
174.6681450619
 21
178.7810707542
  0
LINE
  5
425
100
AcDbEntity
  8
GEOM
100
AcDbLine
 62
7
  6
CONTINUOUS
 10
174.7290130089
 20
178.7310707542
 11
174.7290130089
 21
178.7810707542
  0
LINE
  5
426
100
AcDbEntity
  8
GEOM
100
AcDbLine
 62
7
  6
CONTINUOUS
 10
175.3080784384
 20
178.7310707542
 11
175.3080784384
 21
178.7810707542
  0
LINE
  5
427
100
AcDbEntity
  8
GEOM
100
AcDbLine
 62
7
  6
CONTINUOUS
 10
176.208838672
 20
178.7310707542
 11
176.208838672
 21
178.8310707542
  0
LINE
  5
428
100
AcDbEntity
  8
GEOM
100
AcDbLine
 62
7
  6
CONTINUOUS
 10
176.4067826764
 20
178.7310707542
 11
176.4067826764
 21
178.8310707542
  0
LINE
  5
429
100
AcDbEntity
  8
GEOM
100
AcDbLine
 62
7
  6
CONTINUOUS
 10
176.7904267092
 20
178.7310707542
 11
176.7904267092
 21
178.8310707542
  0
LINE
  5
42A
100
AcDbEntity
  8
GEOM
100
AcDbLine
 62
7
  6
CONTINUOUS
 10
177.2288930286
 20
178.7310707542
 11
177.2288930286
 21
178.8310707542
  0
LINE
  5
42B
100
AcDbEntity
  8
GEOM
100
AcDbLine
 62
7
  6
CONTINUOUS
 10
177.3505878274
 20
178.7310707542
 11
177.3505878274
 21
178.8310707542
  0
LINE
  5
42C
100
AcDbEntity
  8
GEOM
100
AcDbLine
 62
7
  6
CONTINUOUS
 10
177.4225402435
 20
178.7310707542
 11
177.4225402435
 21
178.7810707542
  0
LINE
  5
42D
100
AcDbEntity
  8
GEOM
100
AcDbLine
 62
7
  6
CONTINUOUS
 10
177.5781214387
 20
178.7310707542
 11
177.5781214387
 21
178.8310707542
  0
LINE
  5
42E
100
AcDbEntity
  8
GEOM
100
AcDbLine
 62
7
  6
CONTINUOUS
 10
177.7485163911
 20
178.7310707542
 11
177.7485163911
 21
178.8310707542
  0
LINE
  5
42F
100
AcDbEntity
  8
0
100
AcDbLine
 62
7
  6
CONTINUOUS
 10
142.9372943991
 20
59.6360973339
 11
142.9692723292
 21
59.6914683031
  0
LINE
  5
430
100
AcDbEntity
  8
0
100
AcDbLine
 62
7
  6
CONTINUOUS
 10
142.9692723292
 20
59.6914683031
 11
143.4917534077
 21
60.5961475663
  0
LINE
  5
431
100
AcDbEntity
  8
0
100
AcDbLine
 62
7
  6
CONTINUOUS
 10
143.4917534077
 20
60.5961475663
 11
143.5150073746
 21
60.6364112085
  0
LINE
  5
432
100
AcDbEntity
  8
0
100
AcDbLine
 62
7
  6
CONTINUOUS
 10
144.4372937084
 20
59.6360973269
 11
144.4692716301
 21
59.6914682814
  0
LINE
  5
433
100
AcDbEntity
  8
0
100
AcDbLine
 62
7
  6
CONTINUOUS
 10
144.4692716301
 20
59.6914682814
 11
144.9917527213
 21
60.5961475664
  0
LINE
  5
434
100
AcDbEntity
  8
0
100
AcDbLine
 62
7
  6
CONTINUOUS
 10
144.9917527213
 20
60.5961475664
 11
145.0150066898
 21
60.6364112116
  0
LINE
  5
435
100
AcDbEntity
  8
0
100
AcDbLine
 62
7
  6
CONTINUOUS
 10
145.937293914
 20
59.6360973371
 11
145.9692718476
 21
59.6914683121
  0
LINE
  5
436
100
AcDbEntity
  8
0
100
AcDbLine
 62
7
  6
CONTINUOUS
 10
145.9692718476
 20
59.6914683121
 11
146.4917529395
 21
60.5961475966
  0
LINE
  5
437
100
AcDbEntity
  8
0
100
AcDbLine
 62
7
  6
CONTINUOUS
 10
146.4917529395
 20
60.5961475966
 11
146.5150069084
 21
60.6364112423
  0
LINE
  5
438
100
AcDbEntity
  8
0
100
AcDbLine
 62
7
  6
CONTINUOUS
 10
147.4762203204
 20
59.7034989641
 11
147.9917534148
 21
60.5961475508
  0
LINE
  5
439
100
AcDbEntity
  8
0
100
AcDbLine
 62
7
  6
CONTINUOUS
 10
147.9917534148
 20
60.5961475508
 11
148.0150073837
 21
60.6364111964
  0
LINE
  5
43A
100
AcDbEntity
  8
GEOM
100
AcDbLine
 62
7
  6
CONTINUOUS
 10
130.3236367858
 20
82.8962830366
 11
130.8457859662
 21
83.0513809744
  0
LINE
  5
43B
100
AcDbEntity
  8
0
100
AcDbLine
 62
7
  6
CONTINUOUS
 10
115.9275887614
 20
137.1355980824
 11
115.5525885826
 21
137.039853413
  0
LINE
  5
43C
100
AcDbEntity
  8
0
100
AcDbLine
 62
7
  6
CONTINUOUS
 10
116.021338672
 20
136.5611300071
 11
115.5525885826
 21
136.4653853293
  0
LINE
  5
43D
100
AcDbEntity
  8
0
100
AcDbLine
 62
7
  6
CONTINUOUS
 10
114.7088387167
 20
140.9653853293
 11
114.2400886944
 21
140.8696406598
  0
LINE
  5
43E
100
AcDbEntity
  8
0
100
AcDbLine
 62
7
  6
CONTINUOUS
 10
119.408838672
 20
142.2310707542
 11
124.408838672
 21
142.2310707542
  0
LINE
  5
43F
100
AcDbEntity
  8
0
100
AcDbLine
 62
7
  6
CONTINUOUS
 10
125.658838672
 20
142.4653853293
 11
124.508698856
 21
142.4653853293
  0
LINE
  5
440
100
AcDbEntity
  8
0
100
AcDbLine
 62
7
  6
CONTINUOUS
 10
108.3758145891
 20
142.4653853293
 11
119.408838672
 21
142.4653853293
  0
LINE
  5
441
100
AcDbEntity
  8
0
100
AcDbLine
 62
7
  6
CONTINUOUS
 10
103.408838672
 20
142.7197458888
 11
102.908838672
 21
142.7197458888
  0
LINE
  5
442
100
AcDbEntity
  8
0
100
AcDbLine
 62
7
  6
CONTINUOUS
 10
108.4493134952
 20
142.7482280418
 11
119.408838672
 21
142.7482280418
  0
LINE
  5
443
100
AcDbEntity
  8
0
100
AcDbLine
 62
7
  6
CONTINUOUS
 10
124.6292407613
 20
142.7482280418
 11
125.7759959595
 21
142.7482280418
  0
LINE
  5
444
100
AcDbEntity
  8
0
100
AcDbLine
 62
7
  6
CONTINUOUS
 10
126.2916813845
 20
143.2639134667
 11
124.8490155722
 21
143.2639134667
  0
LINE
  5
445
100
AcDbEntity
  8
0
100
AcDbLine
 62
7
  6
CONTINUOUS
 10
119.408838672
 20
143.2639134667
 11
107.910915484
 21
143.2639134667
  0
LINE
  5
446
100
AcDbEntity
  8
0
100
AcDbLine
 62
7
  6
CONTINUOUS
 10
107.5921869129
 20
143.5467561792
 11
119.408838672
 21
143.5467561792
  0
LINE
  5
447
100
AcDbEntity
  8
0
100
AcDbLine
 62
7
  6
CONTINUOUS
 10
124.9695574775
 20
143.5467561792
 11
126.408838672
 21
143.5467561792
  0
LINE
  5
448
100
AcDbEntity
  8
0
100
AcDbLine
 62
7
  6
CONTINUOUS
 10
102.908838672
 20
145.9310707542
 11
107.7842828255
 21
145.9310707542
  0
LINE
  5
449
100
AcDbEntity
  8
0
100
AcDbLine
 62
7
  6
CONTINUOUS
 10
107.4172634603
 20
146.4310707542
 11
103.408838672
 21
146.4310707542
  0
LINE
  5
44A
100
AcDbEntity
  8
0
100
AcDbLine
 62
7
  6
CONTINUOUS
 10
107.408838672
 20
146.6310707542
 11
107.612966042
 21
146.6310707542
  0
LINE
  5
44B
100
AcDbEntity
  8
0
100
AcDbLine
 62
7
  6
CONTINUOUS
 10
119.408838672
 20
146.9653853293
 11
107.408838672
 21
146.9653853293
  0
LINE
  5
44C
100
AcDbEntity
  8
0
100
AcDbLine
 62
7
  6
CONTINUOUS
 10
119.408838672
 20
147.2482280403
 11
107.2916813845
 21
147.2482280418
  0
LINE
  5
44D
100
AcDbEntity
  8
0
100
AcDbLine
 62
7
  6
CONTINUOUS
 10
121.5276408255
 20
161.2285057027
 11
122.608838672
 21
160.604275835
  0
LINE
  5
44E
100
AcDbEntity
  8
0
100
AcDbLine
 62
7
  6
CONTINUOUS
 10
121.5276408255
 20
164.0738051643
 11
120.908838672
 21
164.4310707542
  0
LINE
  5
44F
100
AcDbEntity
  8
GEOM
100
AcDbLine
 62
7
  6
CONTINUOUS
 10
178.0495138141
 20
178.7310707542
 11
178.0495138141
 21
178.8310707542
  0
LINE
  5
450
100
AcDbEntity
  8
GEOM
100
AcDbLine
 62
7
  6
CONTINUOUS
 10
178.3803541741
 20
178.7310707542
 11
178.3803541741
 21
178.8310707542
  0
LINE
  5
451
100
AcDbEntity
  8
GEOM
100
AcDbLine
 62
7
  6
CONTINUOUS
 10
178.5178452568
 20
178.7310707542
 11
178.5178452568
 21
178.8310707542
  0
LINE
  5
452
100
AcDbEntity
  8
GEOM
100
AcDbLine
 62
7
  6
CONTINUOUS
 10
178.7028410787
 20
178.7310707542
 11
178.7028410787
 21
178.7810707542
  0
LINE
  5
453
100
AcDbEntity
  8
GEOM
100
AcDbLine
 62
7
  6
CONTINUOUS
 10
178.703178698
 20
178.7310707542
 11
178.703178698
 21
178.7810707542
  0
LINE
  5
454
100
AcDbEntity
  8
GEOM
100
AcDbLine
 62
7
  6
CONTINUOUS
 10
179.3392108703
 20
178.7310707542
 11
179.3392108703
 21
178.8310707542
  0
LINE
  5
455
100
AcDbEntity
  8
GEOM
100
AcDbLine
 62
7
  6
CONTINUOUS
 10
179.5300125758
 20
178.7310707542
 11
179.5300125758
 21
178.8310707542
  0
LINE
  5
456
100
AcDbEntity
  8
GEOM
100
AcDbLine
 62
7
  6
CONTINUOUS
 10
179.9626322452
 20
178.7310707542
 11
179.9626322452
 21
178.8310707542
  0
LINE
  5
457
100
AcDbEntity
  8
GEOM
100
AcDbLine
 62
7
  6
CONTINUOUS
 10
180.1411898633
 20
178.7310707542
 11
180.1411898633
 21
178.8310707542
  0
LINE
  5
458
100
AcDbEntity
  8
GEOM
100
AcDbLine
 62
7
  6
CONTINUOUS
 10
180.5758505112
 20
178.7310707542
 11
180.5758505112
 21
178.8310707542
  0
LINE
  5
459
100
AcDbEntity
  8
GEOM
100
AcDbLine
 62
7
  6
CONTINUOUS
 10
180.7666522167
 20
178.7310707542
 11
180.7666522167
 21
178.8310707542
  0
LINE
  5
45A
100
AcDbEntity
  8
GEOM
100
AcDbLine
 62
7
  6
CONTINUOUS
 10
181.0003076934
 20
178.7310707542
 11
181.0003076934
 21
178.8310707542
  0
LINE
  5
45B
100
AcDbEntity
  8
GEOM
100
AcDbLine
 62
7
  6
CONTINUOUS
 10
181.0959866272
 20
178.7310707542
 11
181.0959866272
 21
178.8310707542
  0
LINE
  5
45C
100
AcDbEntity
  8
GEOM
100
AcDbLine
 62
7
  6
CONTINUOUS
 10
181.3706876844
 20
178.7310707542
 11
181.3706876844
 21
178.8310707542
  0
LINE
  5
45D
100
AcDbEntity
  8
GEOM
100
AcDbLine
 62
7
  6
CONTINUOUS
 10
181.5727128097
 20
178.7310707542
 11
181.5727128097
 21
178.8310707542
  0
LINE
  5
45E
100
AcDbEntity
  8
GEOM
100
AcDbLine
 62
7
  6
CONTINUOUS
 10
181.7696363808
 20
178.7310707542
 11
181.7696363808
 21
178.8310707542
  0
LINE
  5
45F
100
AcDbEntity
  8
GEOM
100
AcDbLine
 62
7
  6
CONTINUOUS
 10
181.8063682866
 20
178.7310707542
 11
181.8063682866
 21
178.8310707542
  0
LINE
  5
460
100
AcDbEntity
  8
GEOM
100
AcDbLine
 62
7
  6
CONTINUOUS
 10
181.998190303
 20
178.7310707542
 11
181.998190303
 21
178.8310707542
  0
LINE
  5
461
100
AcDbEntity
  8
GEOM
100
AcDbLine
 62
7
  6
CONTINUOUS
 10
182.1022641551
 20
178.7310707542
 11
182.1022641551
 21
178.8310707542
  0
LINE
  5
462
100
AcDbEntity
  8
GEOM
100
AcDbLine
 62
7
  6
CONTINUOUS
 10
182.3246962119
 20
178.7310707542
 11
182.3246962119
 21
178.8310707542
  0
LINE
  5
463
100
AcDbEntity
  8
GEOM
100
AcDbLine
 62
7
  6
CONTINUOUS
 10
182.6093683038
 20
178.7310707542
 11
182.6093683038
 21
178.8310707542
  0
LINE
  5
464
100
AcDbEntity
  8
GEOM
100
AcDbLine
 62
7
  6
CONTINUOUS
 10
182.6685470495
 20
178.7310707542
 11
182.6685470495
 21
178.8310707542
  0
LINE
  5
465
100
AcDbEntity
  8
GEOM
100
AcDbLine
 62
7
  6
CONTINUOUS
 10
182.8909791063
 20
178.7310707542
 11
182.8909791063
 21
178.8310707542
  0
LINE
  5
466
100
AcDbEntity
  8
GEOM
100
AcDbLine
 62
7
  6
CONTINUOUS
 10
183.1164717392
 20
178.7310707542
 11
183.1164717392
 21
178.8310707542
  0
LINE
  5
467
100
AcDbEntity
  8
0
100
AcDbLine
 62
7
  6
CONTINUOUS
 10
147.4624159651
 20
59.6846480522
 11
147.4762203204
 21
59.7034989641
  0
LINE
  5
468
100
AcDbEntity
  8
0
100
AcDbLine
 62
7
  6
CONTINUOUS
 10
114.7088387167
 20
140.3909173127
 11
114.333838672
 21
140.2951726432
  0
LINE
  5
469
100
AcDbEntity
  8
0
100
AcDbLine
 62
7
  6
CONTINUOUS
 10
107.158838672
 20
147.3810707542
 11
119.408838672
 21
147.3810707542
  0
LINE
  5
46A
100
AcDbEntity
  8
0
100
AcDbLine
 62
7
  6
CONTINUOUS
 10
126.6036656373
 20
147.3810707542
 11
126.658838672
 21
147.3810707542
  0
LINE
  5
46B
100
AcDbEntity
  8
0
100
AcDbLine
 62
7
  6
CONTINUOUS
 10
103.408838672
 20
149.2310707542
 11
106.408838672
 21
149.2310707542
  0
LINE
  5
46C
100
AcDbEntity
  8
0
100
AcDbLine
 62
7
  6
CONTINUOUS
 10
118.3830720773
 20
150.3310707542
 11
107.158838672
 21
150.3310707542
  0
LINE
  5
46D
100
AcDbEntity
  8
0
100
AcDbLine
 62
7
  6
CONTINUOUS
 10
118.1033175514
 20
150.6310707542
 11
107.458838672
 21
150.6310707542
  0
LINE
  5
46E
100
AcDbEntity
  8
0
100
AcDbLine
 62
7
  6
CONTINUOUS
 10
112.7281324735
 20
151.7310707542
 11
117.0775509567
 21
151.7310707542
  0
LINE
  5
46F
100
AcDbEntity
  8
0
100
AcDbLine
 62
7
  6
CONTINUOUS
 10
109.6089029463
 20
152.4310707542
 11
116.4247903964
 21
152.4310707542
  0
LINE
  5
470
100
AcDbEntity
  8
0
100
AcDbLine
 62
7
  6
CONTINUOUS
 10
111.2024995742
 20
159.4310707542
 11
112.0464941591
 21
159.2310707542
  0
LINE
  5
471
100
AcDbEntity
  8
0
100
AcDbLine
 62
7
  6
CONTINUOUS
 10
121.7629406383
 20
159.4310707542
 11
122.4704234694
 21
159.2310707542
  0
LINE
  5
472
100
AcDbEntity
  8
GEOM
100
AcDbLine
 62
7
  6
CONTINUOUS
 10
183.7990729298
 20
178.7310707542
 11
183.7990729298
 21
178.8310707542
  0
LINE
  5
473
100
AcDbEntity
  8
GEOM
100
AcDbLine
 62
7
  6
CONTINUOUS
 10
183.9466441974
 20
178.7310707542
 11
183.9466441974
 21
178.8310707542
  0
LINE
  5
474
100
AcDbEntity
  8
GEOM
100
AcDbLine
 62
7
  6
CONTINUOUS
 10
184.2867901014
 20
178.7310707542
 11
184.2867901014
 21
178.8310707542
  0
LINE
  5
475
100
AcDbEntity
  8
GEOM
100
AcDbLine
 62
7
  6
CONTINUOUS
 10
184.5581979398
 20
178.7310707542
 11
184.5581979398
 21
178.8310707542
  0
LINE
  5
476
100
AcDbEntity
  8
GEOM
100
AcDbLine
 62
7
  6
CONTINUOUS
 10
184.7199715672
 20
178.7310707542
 11
184.7199715672
 21
178.8310707542
  0
LINE
  5
477
100
AcDbEntity
  8
GEOM
100
AcDbLine
 62
7
  6
CONTINUOUS
 10
184.7745079863
 20
178.7310707542
 11
184.7745079863
 21
178.8310707542
  0
LINE
  5
478
100
AcDbEntity
  8
GEOM
100
AcDbLine
 62
7
  6
CONTINUOUS
 10
185.0027700593
 20
178.7310707542
 11
185.0027700593
 21
178.7810707542
  0
LINE
  5
479
100
AcDbEntity
  8
GEOM
100
AcDbLine
 62
7
  6
CONTINUOUS
 10
185.0642819893
 20
178.7310707542
 11
185.0642819893
 21
178.8310707542
  0
LINE
  5
47A
100
AcDbEntity
  8
GEOM
100
AcDbLine
 62
7
  6
CONTINUOUS
 10
185.2734496477
 20
178.7310707542
 11
185.2734496477
 21
178.8310707542
  0
LINE
  5
47B
100
AcDbEntity
  8
GEOM
100
AcDbLine
 62
7
  6
CONTINUOUS
 10
185.6826018097
 20
178.7310707542
 11
185.6826018097
 21
178.8310707542
  0
LINE
  5
47C
100
AcDbEntity
  8
GEOM
100
AcDbLine
 62
7
  6
CONTINUOUS
 10
185.8756665902
 20
178.7310707542
 11
185.8756665902
 21
178.8310707542
  0
LINE
  5
47D
100
AcDbEntity
  8
GEOM
100
AcDbLine
 62
7
  6
CONTINUOUS
 10
186.0499201548
 20
178.7310707542
 11
186.0499201548
 21
178.8310707542
  0
LINE
  5
47E
100
AcDbEntity
  8
GEOM
100
AcDbLine
 62
7
  6
CONTINUOUS
 10
186.233579684
 20
178.7310707542
 11
186.233579684
 21
178.8310707542
  0
LINE
  5
47F
100
AcDbEntity
  8
GEOM
100
AcDbLine
 62
7
  6
CONTINUOUS
 10
186.7039519268
 20
178.7310707542
 11
186.7039519268
 21
178.8310707542
  0
LINE
  5
480
100
AcDbEntity
  8
GEOM
100
AcDbLine
 62
7
  6
CONTINUOUS
 10
186.8515231944
 20
178.7310707542
 11
186.8515231944
 21
178.8310707542
  0
LINE
  5
481
100
AcDbEntity
  8
GEOM
100
AcDbLine
 62
7
  6
CONTINUOUS
 10
187.1916698117
 20
178.7310707542
 11
187.1916698117
 21
178.8310707542
  0
LINE
  5
482
100
AcDbEntity
  8
GEOM
100
AcDbLine
 62
7
  6
CONTINUOUS
 10
187.4630773597
 20
178.7310707542
 11
187.4630773597
 21
178.8310707542
  0
LINE
  5
483
100
AcDbEntity
  8
GEOM
100
AcDbLine
 62
7
  6
CONTINUOUS
 10
187.6248505642
 20
178.7310707542
 11
187.6248505642
 21
178.8310707542
  0
LINE
  5
484
100
AcDbEntity
  8
GEOM
100
AcDbLine
 62
7
  6
CONTINUOUS
 10
187.6793869833
 20
178.7310707542
 11
187.6793869833
 21
178.8310707542
  0
LINE
  5
485
100
AcDbEntity
  8
GEOM
100
AcDbLine
 62
7
  6
CONTINUOUS
 10
187.9007990858
 20
178.7310707542
 11
187.9007990858
 21
178.8310707542
  0
LINE
  5
486
100
AcDbEntity
  8
GEOM
100
AcDbLine
 62
7
  6
CONTINUOUS
 10
187.9905876737
 20
178.7310707542
 11
187.9905876737
 21
178.8310707542
  0
LINE
  5
487
100
AcDbEntity
  8
GEOM
100
AcDbLine
 62
7
  6
CONTINUOUS
 10
188.2171004591
 20
178.7310707542
 11
188.2171004591
 21
178.8310707542
  0
LINE
  5
488
100
AcDbEntity
  8
GEOM
100
AcDbLine
 62
7
  6
CONTINUOUS
 10
188.2211817027
 20
178.7310707542
 11
188.2211817027
 21
178.8310707542
  0
LINE
  5
489
100
AcDbEntity
  8
GEOM
100
AcDbLine
 62
7
  6
CONTINUOUS
 10
188.3732119505
 20
178.7310707542
 11
188.3732119505
 21
178.8310707542
  0
LINE
  5
48A
100
AcDbEntity
  8
GEOM
100
AcDbLine
 62
7
  6
CONTINUOUS
 10
188.8680709418
 20
178.7310707542
 11
188.8680709418
 21
178.8310707542
  0
LINE
  5
48B
100
AcDbEntity
  8
GEOM
100
AcDbLine
 62
7
  6
CONTINUOUS
 10
188.9581140229
 20
178.7310707542
 11
188.9581140229
 21
178.8310707542
  0
LINE
  5
48C
100
AcDbEntity
  8
0
100
AcDbLine
 62
7
  6
CONTINUOUS
 10
110.8777642393
 20
154.9980580523
 11
110.408838672
 21
154.9980580523
  0
LINE
  5
48D
100
AcDbEntity
  8
0
100
AcDbLine
 62
7
  6
CONTINUOUS
 10
113.6272451379
 20
155.4310707542
 11
110.408838672
 21
155.4310707542
  0
LINE
  5
48E
100
AcDbEntity
  8
0
100
AcDbLine
 62
7
  6
CONTINUOUS
 10
112.508838672
 20
155.8310707542
 11
113.2542391035
 21
155.8310707542
  0
LINE
  5
48F
100
AcDbEntity
  8
0
100
AcDbLine
 62
7
  6
CONTINUOUS
 10
104.6257206802
 20
156.2310707542
 11
113.541453749
 21
156.2310707542
  0
LINE
  5
490
100
AcDbEntity
  8
0
100
AcDbLine
 62
7
  6
CONTINUOUS
 10
114.4282254172
 20
156.2310707542
 11
128.7975864793
 21
156.2310707542
  0
LINE
  5
491
100
AcDbEntity
  8
0
100
AcDbLine
 62
7
  6
CONTINUOUS
 10
130.3330426194
 20
156.2310707542
 11
135.408838672
 21
156.2310707542
  0
LINE
  5
492
100
AcDbEntity
  8
0
100
AcDbLine
 62
7
  6
CONTINUOUS
 10
115.0547367058
 20
159.4310707542
 11
116.754394677
 21
159.2310707542
  0
LINE
  5
493
100
AcDbEntity
  8
0
100
AcDbLine
 62
7
  6
CONTINUOUS
 10
116.908838672
 20
159.4310707542
 11
118.5845292058
 21
159.2310707542
  0
LINE
  5
494
100
AcDbEntity
  8
0
100
AcDbLine
 62
7
  6
CONTINUOUS
 10
113.3821271582
 20
159.4310707542
 11
114.9393782025
 21
159.2310707542
  0
LINE
  5
495
100
AcDbEntity
  8
0
100
AcDbLine
 62
7
  6
CONTINUOUS
 10
118.7629406383
 20
159.4310707542
 11
120.2506354699
 21
159.2310707542
  0
LINE
  5
496
100
AcDbEntity
  8
0
100
AcDbLine
 62
7
  6
CONTINUOUS
 10
112.0547367058
 20
159.4310707542
 11
113.3171462409
 21
159.2310707542
  0
LINE
  5
497
100
AcDbEntity
  8
0
100
AcDbLine
 62
7
  6
CONTINUOUS
 10
120.4355501858
 20
159.4310707542
 11
121.5896233797
 21
159.2310707542
  0
LINE
  5
498
100
AcDbEntity
  8
GEOM
100
AcDbLine
 62
7
  6
CONTINUOUS
 10
189.1843737416
 20
178.7310707542
 11
189.1843737416
 21
178.8310707542
  0
LINE
  5
499
100
AcDbEntity
  8
GEOM
100
AcDbLine
 62
7
  6
CONTINUOUS
 10
189.4147140422
 20
178.7310707542
 11
189.4147140422
 21
178.8310707542
  0
LINE
  5
49A
100
AcDbEntity
  8
GEOM
100
AcDbLine
 62
7
  6
CONTINUOUS
 10
189.5088390286
 20
178.7310707542
 11
189.5088390286
 21
178.8310707542
  0
LINE
  5
49B
100
AcDbEntity
  8
GEOM
100
AcDbLine
 62
7
  6
CONTINUOUS
 10
189.5575445807
 20
178.7310707542
 11
189.5575445807
 21
178.7810707542
  0
LINE
  5
49C
100
AcDbEntity
  8
GEOM
100
AcDbLine
 62
7
  6
CONTINUOUS
 10
189.6628818203
 20
178.7310707542
 11
189.6628818203
 21
178.7810707542
  0
LINE
  5
49D
100
AcDbEntity
  8
GEOM
100
AcDbLine
 62
7
  6
CONTINUOUS
 10
189.6629782829
 20
178.7310707542
 11
189.6629782829
 21
178.7810707542
  0
LINE
  5
49E
100
AcDbEntity
  8
GEOM
100
AcDbLine
 62
7
  6
CONTINUOUS
 10
189.7050360086
 20
178.7310707542
 11
189.7050360086
 21
178.7810707542
  0
LINE
  5
49F
100
AcDbEntity
  8
GEOM
100
AcDbLine
 62
7
  6
CONTINUOUS
 10
189.8828167161
 20
178.7310707542
 11
189.8828167161
 21
178.7810707542
  0
LINE
  5
4A0
100
AcDbEntity
  8
GEOM
100
AcDbLine
 62
7
  6
CONTINUOUS
 10
189.8831061041
 20
178.7310707542
 11
189.8831061041
 21
178.7810707542
  0
LINE
  5
4A1
100
AcDbEntity
  8
GEOM
100
AcDbLine
 62
7
  6
CONTINUOUS
 10
189.9238133523
 20
178.7310707542
 11
189.9238133523
 21
178.7810707542
  0
LINE
  5
4A2
100
AcDbEntity
  8
GEOM
100
AcDbLine
 62
7
  6
CONTINUOUS
 10
189.9427200364
 20
178.7310707542
 11
189.9427200364
 21
178.7810707542
  0
LINE
  5
4A3
100
AcDbEntity
  8
GEOM
100
AcDbLine
 62
7
  6
CONTINUOUS
 10
189.9834272846
 20
178.7310707542
 11
189.9834272846
 21
178.7810707542
  0
LINE
  5
4A4
100
AcDbEntity
  8
GEOM
100
AcDbLine
 62
7
  6
CONTINUOUS
 10
189.9835237473
 20
178.7310707542
 11
189.9835237473
 21
178.7810707542
  0
LINE
  5
4A5
100
AcDbEntity
  8
GEOM
100
AcDbLine
 62
7
  6
CONTINUOUS
 10
190.1626549321
 20
178.7310707542
 11
190.1626549321
 21
178.7810707542
  0
LINE
  5
4A6
100
AcDbEntity
  8
GEOM
100
AcDbLine
 62
7
  6
CONTINUOUS
 10
190.2032657177
 20
178.7310707542
 11
190.2032657177
 21
178.7810707542
  0
LINE
  5
4A7
100
AcDbEntity
  8
GEOM
100
AcDbLine
 62
7
  6
CONTINUOUS
 10
190.3675416508
 20
178.7310707542
 11
190.3675416508
 21
178.7810707542
  0
LINE
  5
4A8
100
AcDbEntity
  8
GEOM
100
AcDbLine
 62
7
  6
CONTINUOUS
 10
190.3677345762
 20
178.7310707542
 11
190.3677345762
 21
178.7810707542
  0
LINE
  5
4A9
100
AcDbEntity
  8
GEOM
100
AcDbLine
 62
7
  6
CONTINUOUS
 10
190.4086347498
 20
178.7310707542
 11
190.4086347498
 21
178.7810707542
  0
LINE
  5
4AA
100
AcDbEntity
  8
GEOM
100
AcDbLine
 62
7
  6
CONTINUOUS
 10
190.4275414338
 20
178.7310707542
 11
190.4275414338
 21
178.7810707542
  0
LINE
  5
4AB
100
AcDbEntity
  8
GEOM
100
AcDbLine
 62
7
  6
CONTINUOUS
 10
190.4680571402
 20
178.7310707542
 11
190.4680571402
 21
178.7810707542
  0
LINE
  5
4AC
100
AcDbEntity
  8
GEOM
100
AcDbLine
 62
7
  6
CONTINUOUS
 10
190.6040681265
 20
178.7310707542
 11
190.6040681265
 21
178.7810707542
  0
LINE
  5
4AD
100
AcDbEntity
  8
GEOM
100
AcDbLine
 62
7
  6
CONTINUOUS
 10
190.6473798669
 20
178.7310707542
 11
190.6473798669
 21
178.7810707542
  0
LINE
  5
4AE
100
AcDbEntity
  8
GEOM
100
AcDbLine
 62
7
  6
CONTINUOUS
 10
190.6609811039
 20
178.7310707542
 11
190.6609811039
 21
178.7810707542
  0
LINE
  5
4AF
100
AcDbEntity
  8
GEOM
100
AcDbLine
 62
7
  6
CONTINUOUS
 10
190.7041963816
 20
178.7310707542
 11
190.7041963816
 21
178.7810707542
  0
LINE
  5
4B0
100
AcDbEntity
  8
GEOM
100
AcDbLine
 62
7
  6
CONTINUOUS
 10
190.8399193634
 20
178.7310707542
 11
190.8399193634
 21
178.7810707542
  0
LINE
  5
4B1
100
AcDbEntity
  8
GEOM
100
AcDbLine
 62
7
  6
CONTINUOUS
 10
190.8403052141
 20
178.7310707542
 11
190.8403052141
 21
178.7810707542
  0
LINE
  5
4B2
100
AcDbEntity
  8
GEOM
100
AcDbLine
 62
7
  6
CONTINUOUS
 10
190.8809159997
 20
178.7310707542
 11
190.8809159997
 21
178.7810707542
  0
LINE
  5
4B3
100
AcDbEntity
  8
GEOM
100
AcDbLine
 62
7
  6
CONTINUOUS
 10
190.900015609
 20
178.7310707542
 11
190.900015609
 21
178.7810707542
  0
LINE
  5
4B4
100
AcDbEntity
  8
GEOM
100
AcDbLine
 62
7
  6
CONTINUOUS
 10
190.9406263946
 20
178.7310707542
 11
190.9406263946
 21
178.7810707542
  0
LINE
  5
4B5
100
AcDbEntity
  8
GEOM
100
AcDbLine
 62
7
  6
CONTINUOUS
 10
191.6074183301
 20
178.7310707542
 11
191.6074183301
 21
178.7810707542
  0
LINE
  5
4B6
100
AcDbEntity
  8
0
100
AcDbLine
 62
7
  6
CONTINUOUS
 10
147.408838672
 20
59.6310707542
 11
147.4470666598
 21
59.669298742
  0
LINE
  5
4B7
100
AcDbEntity
  8
0
100
AcDbLine
 62
7
  6
CONTINUOUS
 10
148.2503452771
 20
60.4725773594
 11
148.908838672
 21
61.1310707542
  0
LINE
  5
4B8
100
AcDbEntity
  8
0
100
AcDbLine
 62
7
  6
CONTINUOUS
 10
142.9314887715
 20
59.6310707542
 11
142.9372943991
 21
59.6360973339
  0
LINE
  5
4B9
100
AcDbEntity
  8
0
100
AcDbLine
 62
7
  6
CONTINUOUS
 10
106.408838672
 20
159.2310707542
 11
135.408838672
 21
159.2310707542
  0
LINE
  5
4BA
100
AcDbEntity
  8
0
100
AcDbLine
 62
7
  6
CONTINUOUS
 10
122.908838672
 20
159.4310707542
 11
110.9088386807
 21
159.4310707542
  0
LINE
  5
4BB
100
AcDbEntity
  8
0
100
AcDbLine
 62
7
  6
CONTINUOUS
 10
110.908838672
 20
160.0846605927
 11
122.908838672
 21
160.0846605927
  0
LINE
  5
4BC
100
AcDbEntity
  8
0
100
AcDbLine
 62
7
  6
CONTINUOUS
 10
111.208838672
 20
160.604275835
 11
122.608838672
 21
160.604275835
  0
LINE
  5
4BD
100
AcDbEntity
  8
0
100
AcDbLine
 62
7
  6
CONTINUOUS
 10
198.908838672
 20
172.7310707542
 11
198.908838672
 21
178.7310707542
  0
LINE
  5
4BE
100
AcDbEntity
  8
GEOM
100
AcDbLine
 62
7
  6
CONTINUOUS
 10
199.2239198337
 20
178.7310707542
 11
199.2239198337
 21
178.7810707542
  0
LINE
  5
4BF
100
AcDbEntity
  8
GEOM
100
AcDbLine
 62
7
  6
CONTINUOUS
 10
199.3240687595
 20
178.7310707542
 11
199.3240687595
 21
178.7810707542
  0
LINE
  5
4C0
100
AcDbEntity
  8
GEOM
100
AcDbLine
 62
7
  6
CONTINUOUS
 10
199.4898708699
 20
178.7310707542
 11
199.4898708699
 21
178.7810707542
  0
LINE
  5
4C1
100
AcDbEntity
  8
GEOM
100
AcDbLine
 62
7
  6
CONTINUOUS
 10
199.5605607842
 20
178.7310707542
 11
199.5605607842
 21
178.7810707542
  0
LINE
  5
4C2
100
AcDbEntity
  8
GEOM
100
AcDbLine
 62
7
  6
CONTINUOUS
 10
199.5891412963
 20
178.7310707542
 11
199.5891412963
 21
178.7810707542
  0
LINE
  5
4C3
100
AcDbEntity
  8
GEOM
100
AcDbLine
 62
7
  6
CONTINUOUS
 10
199.7115455389
 20
178.7310707542
 11
199.7115455389
 21
178.7810707542
  0
LINE
  5
4C4
100
AcDbEntity
  8
0
100
AcDbLine
 62
7
  6
CONTINUOUS
 10
112.9088857478
 20
164.4310707542
 11
120.9087915962
 21
164.4310707542
  0
LINE
  5
4C5
100
AcDbEntity
  8
0
100
AcDbLine
 62
7
  6
CONTINUOUS
 10
152.708838672
 20
172.7310707542
 11
205.908838672
 21
172.7310707542
  0
LINE
  5
4C6
100
AcDbEntity
  8
0
100
AcDbLine
 62
7
  6
CONTINUOUS
 10
151.408838672
 20
175.2310707542
 11
208.408838672
 21
175.2310707542
  0
LINE
  5
4C7
100
AcDbEntity
  8
0
100
AcDbLine
 62
7
  6
CONTINUOUS
 10
208.408838672
 20
175.2310707542
 11
208.408838672
 21
176.2310707542
  0
LINE
  5
4C8
100
AcDbEntity
  8
0
100
AcDbLine
 62
7
  6
CONTINUOUS
 10
151.408838672
 20
176.2310707542
 11
208.408838672
 21
176.2310707542
  0
LINE
  5
4C9
100
AcDbEntity
  8
0
100
AcDbLine
 62
7
  6
CONTINUOUS
 10
151.408838672
 20
177.2310707542
 11
151.426609149
 21
177.2310707542
  0
LINE
  5
4CA
100
AcDbEntity
  8
0
100
AcDbLine
 62
7
  6
CONTINUOUS
 10
152.708838672
 20
178.7310707542
 11
205.908838672
 21
178.7310707542
  0
LINE
  5
4CB
100
AcDbEntity
  8
GEOM
100
AcDbLine
 62
7
  6
CONTINUOUS
 10
152.908838672
 20
178.7810707542
 11
154.908838672
 21
178.7810707542
  0
LINE
  5
4CC
100
AcDbEntity
  8
GEOM
100
AcDbLine
 62
7
  6
CONTINUOUS
 10
155.5995484412
 20
178.7810707542
 11
160.1090337374
 21
178.7810707542
  0
LINE
  5
4CD
100
AcDbEntity
  8
GEOM
100
AcDbLine
 62
7
  6
CONTINUOUS
 10
160.8338060354
 20
178.7810707542
 11
164.9164440009
 21
178.7810707542
  0
LINE
  5
4CE
100
AcDbEntity
  8
GEOM
100
AcDbLine
 62
7
  6
CONTINUOUS
 10
165.8651061643
 20
178.7810707542
 11
171.0122097329
 21
178.7810707542
  0
LINE
  5
4CF
100
AcDbEntity
  8
GEOM
100
AcDbLine
 62
7
  6
CONTINUOUS
 10
171.7303743378
 20
178.7810707542
 11
176.208838672
 21
178.7810707542
  0
LINE
  5
4D0
100
AcDbEntity
  8
GEOM
100
AcDbLine
 62
7
  6
CONTINUOUS
 10
177.3505878274
 20
178.7810707542
 11
177.5781214387
 21
178.7810707542
  0
LINE
  5
4D1
100
AcDbEntity
  8
GEOM
100
AcDbLine
 62
7
  6
CONTINUOUS
 10
178.5178452568
 20
178.7810707542
 11
179.3392108703
 21
178.7810707542
  0
LINE
  5
4D2
100
AcDbEntity
  8
GEOM
100
AcDbLine
 62
7
  6
CONTINUOUS
 10
180.7666522167
 20
178.7810707542
 11
181.0003076934
 21
178.7810707542
  0
LINE
  5
4D3
100
AcDbEntity
  8
GEOM
100
AcDbLine
 62
7
  6
CONTINUOUS
 10
181.998190303
 20
178.7810707542
 11
182.1022641551
 21
178.7810707542
  0
LINE
  5
4D4
100
AcDbEntity
  8
GEOM
100
AcDbLine
 62
7
  6
CONTINUOUS
 10
183.1164717392
 20
178.7810707542
 11
183.7990729298
 21
178.7810707542
  0
LINE
  5
4D5
100
AcDbEntity
  8
GEOM
100
AcDbLine
 62
7
  6
CONTINUOUS
 10
185.0027700593
 20
178.7810707542
 11
185.0642819893
 21
178.7810707542
  0
LINE
  5
4D6
100
AcDbEntity
  8
GEOM
100
AcDbLine
 62
7
  6
CONTINUOUS
 10
185.2734496477
 20
178.7810707542
 11
185.6826018097
 21
178.7810707542
  0
LINE
  5
4D7
100
AcDbEntity
  8
GEOM
100
AcDbLine
 62
7
  6
CONTINUOUS
 10
186.233579684
 20
178.7810707542
 11
186.7039519268
 21
178.7810707542
  0
LINE
  5
4D8
100
AcDbEntity
  8
GEOM
100
AcDbLine
 62
7
  6
CONTINUOUS
 10
187.6793869833
 20
178.7810707542
 11
187.9007990858
 21
178.7810707542
  0
LINE
  5
4D9
100
AcDbEntity
  8
GEOM
100
AcDbLine
 62
7
  6
CONTINUOUS
 10
189.5088390286
 20
178.7810707542
 11
189.5575445807
 21
178.7810707542
  0
LINE
  5
4DA
100
AcDbEntity
  8
GEOM
100
AcDbLine
 62
7
  6
CONTINUOUS
 10
189.6628818203
 20
178.7810707542
 11
190.2032657177
 21
178.7810707542
  0
LINE
  5
4DB
100
AcDbEntity
  8
GEOM
100
AcDbLine
 62
7
  6
CONTINUOUS
 10
190.3675416508
 20
178.7810707542
 11
190.9406263946
 21
178.7810707542
  0
LINE
  5
4DC
100
AcDbEntity
  8
GEOM
100
AcDbLine
 62
7
  6
CONTINUOUS
 10
191.6074183301
 20
178.7810707542
 11
199.7115455389
 21
178.7810707542
  0
LINE
  5
4DD
100
AcDbEntity
  8
GEOM
100
AcDbLine
 62
7
  6
CONTINUOUS
 10
176.208838672
 20
178.8310707542
 11
177.3505878274
 21
178.8310707542
  0
LINE
  5
4DE
100
AcDbEntity
  8
GEOM
100
AcDbLine
 62
7
  6
CONTINUOUS
 10
177.5781214387
 20
178.8310707542
 11
178.5178452568
 21
178.8310707542
  0
LINE
  5
4DF
100
AcDbEntity
  8
GEOM
100
AcDbLine
 62
7
  6
CONTINUOUS
 10
179.3392108703
 20
178.8310707542
 11
180.7666522167
 21
178.8310707542
  0
LINE
  5
4E0
100
AcDbEntity
  8
GEOM
100
AcDbLine
 62
7
  6
CONTINUOUS
 10
181.0003076934
 20
178.8310707542
 11
181.998190303
 21
178.8310707542
  0
LINE
  5
4E1
100
AcDbEntity
  8
GEOM
100
AcDbLine
 62
7
  6
CONTINUOUS
 10
182.1022641551
 20
178.8310707542
 11
183.1164717392
 21
178.8310707542
  0
LINE
  5
4E2
100
AcDbEntity
  8
GEOM
100
AcDbLine
 62
7
  6
CONTINUOUS
 10
183.7990729298
 20
178.8310707542
 11
184.7745079863
 21
178.8310707542
  0
LINE
  5
4E3
100
AcDbEntity
  8
GEOM
100
AcDbLine
 62
7
  6
CONTINUOUS
 10
185.0642819893
 20
178.8310707542
 11
185.2734496477
 21
178.8310707542
  0
LINE
  5
4E4
100
AcDbEntity
  8
GEOM
100
AcDbLine
 62
7
  6
CONTINUOUS
 10
185.6826018097
 20
178.8310707542
 11
186.233579684
 21
178.8310707542
  0
LINE
  5
4E5
100
AcDbEntity
  8
GEOM
100
AcDbLine
 62
7
  6
CONTINUOUS
 10
186.7039519268
 20
178.8310707542
 11
187.6793869833
 21
178.8310707542
  0
LINE
  5
4E6
100
AcDbEntity
  8
GEOM
100
AcDbLine
 62
7
  6
CONTINUOUS
 10
187.9007990858
 20
178.8310707542
 11
189.5088390286
 21
178.8310707542
  0
ARC
  5
4E7
100
AcDbEntity
  8
GEOM
100
AcDbCircle
 62
7
  6
CONTINUOUS
 10
-79.1759226788
 20
76.6310707542
 40
210.3574260751
100
AcDbArc
 50
358.9488951934
 51
1.0511048066
  0
ARC
  5
4E8
100
AcDbEntity
  8
GEOM
100
AcDbCircle
 62
7
  6
CONTINUOUS
 10
-78.4960170123
 20
76.6310707542
 40
208.9801841187
100
AcDbArc
 50
358.9454372553
 51
1.0545627447
  0
ARC
  5
4E9
100
AcDbEntity
  8
GEOM
100
AcDbCircle
 62
7
  6
CONTINUOUS
 10
25.9937866887
 20
89.005439425
 40
105.1877166557
100
AcDbArc
 50
358.5135571968
 51
1.4864428032
  0
ARC
  5
4EA
100
AcDbEntity
  8
GEOM
100
AcDbCircle
 62
7
  6
CONTINUOUS
 10
25.9941154623
 20
64.2567020835
 40
105.1873879927
100
AcDbArc
 50
358.5135525513
 51
1.4864474487
  0
ARC
  5
4EB
100
AcDbEntity
  8
GEOM
100
AcDbCircle
 62
7
  6
CONTINUOUS
 10
25.9850827804
 20
89.458212427
 40
104.4990842775
100
AcDbArc
 50
358.5086672055
 51
1.4913327945
  0
ARC
  5
4EC
100
AcDbEntity
  8
GEOM
100
AcDbCircle
 62
7
  6
CONTINUOUS
 10
25.985413798
 20
63.8039290815
 40
104.498753372
100
AcDbArc
 50
358.508662482
 51
1.491337518
  0
ARC
  5
4ED
100
AcDbEntity
  8
0
100
AcDbCircle
 62
7
  6
CONTINUOUS
 10
61.6426675121
 20
165.3584084287
 40
55.5831179998
100
AcDbArc
 50
353.6709999501
 51
353.8783855052
  0
ARC
  5
4EE
100
AcDbEntity
  8
0
100
AcDbCircle
 62
7
  6
CONTINUOUS
 10
106.408838672
 20
156.2310707542
 40
3.0
100
AcDbArc
 50
90.0
 51
180.0
  0
ARC
  5
4EF
100
AcDbEntity
  8
0
100
AcDbCircle
 62
7
  6
CONTINUOUS
 10
108.7872657967
 20
60.1310707542
 40
2.0
100
AcDbArc
 50
225.0
 51
270.0
  0
ARC
  5
4F0
100
AcDbEntity
  8
0
100
AcDbCircle
 62
7
  6
CONTINUOUS
 10
108.7872657967
 20
93.1310707542
 40
2.0
100
AcDbArc
 50
119.4727819111
 51
135.0
  0
ARC
  5
4F1
100
AcDbEntity
  8
0
100
AcDbCircle
 62
7
  6
CONTINUOUS
 10
103.8804115473
 20
59.3810707542
 40
2.0
100
AcDbArc
 50
45.0
 51
90.0
  0
ARC
  5
4F2
100
AcDbEntity
  8
0
100
AcDbCircle
 62
7
  6
CONTINUOUS
 10
103.8804115473
 20
93.8810707542
 40
2.0
100
AcDbArc
 50
270.0
 51
315.0
  0
ARC
  5
4F3
100
AcDbEntity
  8
0
100
AcDbCircle
 62
7
  6
CONTINUOUS
 10
118.5956301572
 20
74.7110707542
 40
1.92
100
AcDbArc
 50
90.0
 51
180.0
  0
ARC
  5
4F4
100
AcDbEntity
  8
0
100
AcDbCircle
 62
7
  6
CONTINUOUS
 10
117.786770187
 20
75.8594041923
 40
1.26
100
AcDbArc
 50
113.932912137
 51
151.8672102448
  0
ARC
  5
4F5
100
AcDbEntity
  8
0
100
AcDbCircle
 62
7
  6
CONTINUOUS
 10
97.6230522344
 20
60.3810707542
 40
1.0
100
AcDbArc
 50
90.0
 51
135.0
  0
ARC
  5
4F6
100
AcDbEntity
  8
0
100
AcDbCircle
 62
7
  6
CONTINUOUS
 10
97.6230522344
 20
92.8810707542
 40
1.0
100
AcDbArc
 50
225.0
 51
270.0
  0
ARC
  5
4F7
100
AcDbEntity
  8
0
100
AcDbCircle
 62
7
  6
CONTINUOUS
 10
111.508838672
 20
160.0846605927
 40
0.6
100
AcDbArc
 50
120.0
 51
180.0
  0
ARC
  5
4F8
100
AcDbEntity
  8
0
100
AcDbCircle
 62
7
  6
CONTINUOUS
 10
106.908838672
 20
155.7310707542
 40
0.5
100
AcDbArc
 50
90.0
 51
180.0
  0
ARC
  5
4F9
100
AcDbEntity
  8
0
100
AcDbCircle
 62
7
  6
CONTINUOUS
 10
103.408838672
 20
145.9310707542
 40
0.5
100
AcDbArc
 50
90.0
 51
180.0
  0
ARC
  5
4FA
100
AcDbEntity
  8
0
100
AcDbCircle
 62
7
  6
CONTINUOUS
 10
103.408838672
 20
142.7197458888
 40
0.5
100
AcDbArc
 50
180.0
 51
240.0
  0
ARC
  5
4FB
100
AcDbEntity
  8
0
100
AcDbCircle
 62
7
  6
CONTINUOUS
 10
107.008838672
 20
146.9653853293
 40
0.4
100
AcDbArc
 50
0.0
 51
45.0000000003
  0
ARC
  5
4FC
100
AcDbEntity
  8
0
100
AcDbCircle
 62
7
  6
CONTINUOUS
 10
108.1665790777
 20
142.4653935548
 40
0.3999176138
100
AcDbArc
 50
359.9988215406
 51
45.0101376855
  0
ARC
  5
4FD
100
AcDbEntity
  8
0
100
AcDbCircle
 62
7
  6
CONTINUOUS
 10
107.208838672
 20
146.6310707542
 40
0.2
100
AcDbArc
 50
270.0
 51
360.0
  0
ARC
  5
4FE
100
AcDbEntity
  8
0
100
AcDbCircle
 62
7
  6
CONTINUOUS
 10
107.9588387644
 20
139.2845117338
 40
0.1999999979
100
AcDbArc
 50
0.0000152995
 51
60.0000293414
  0
ARC
  5
4FF
100
AcDbEntity
  8
0
100
AcDbCircle
 62
7
  6
CONTINUOUS
 10
119.2056301572
 20
74.5510707542
 40
1.93
100
AcDbArc
 50
79.551762668
 51
180.0
  0
ARC
  5
500
100
AcDbEntity
  8
GEOM
100
AcDbCircle
 62
7
  6
CONTINUOUS
 10
131.1467858123
 20
58.4267588921
 40
0.7043121895
100
AcDbArc
 50
90.0552439315
 51
106.9693222429
  0
ARC
  5
501
100
AcDbEntity
  8
GEOM
100
AcDbCircle
 62
7
  6
CONTINUOUS
 10
131.1467858109
 20
94.8353826088
 40
0.7043121819
100
AcDbArc
 50
253.0306886865
 51
269.944756179
  0
ARC
  5
502
100
AcDbEntity
  8
GEOM
100
AcDbCircle
 62
7
  6
CONTINUOUS
 10
140.6188891783
 20
60.6810707542
 40
0.7
100
AcDbArc
 50
44.9999999997
 51
90.0
  0
ARC
  5
503
100
AcDbEntity
  8
GEOM
100
AcDbCircle
 62
7
  6
CONTINUOUS
 10
140.6188891783
 20
92.5810707542
 40
0.7
100
AcDbArc
 50
270.0
 51
315.0000000004
  0
ARC
  5
504
100
AcDbEntity
  8
GEOM
100
AcDbCircle
 62
7
  6
CONTINUOUS
 10
137.608838672
 20
60.6810707542
 40
0.7
100
AcDbArc
 50
90.0
 51
180.0
  0
ARC
  5
505
100
AcDbEntity
  8
GEOM
100
AcDbCircle
 62
7
  6
CONTINUOUS
 10
137.608838672
 20
92.5810707542
 40
0.7
100
AcDbArc
 50
180.0
 51
270.0
  0
ARC
  5
506
100
AcDbEntity
  8
0
100
AcDbCircle
 62
7
  6
CONTINUOUS
 10
122.6987881657
 20
58.3310707542
 40
0.7
100
AcDbArc
 50
225.0
 51
270.0
  0
ARC
  5
507
100
AcDbEntity
  8
0
100
AcDbCircle
 62
7
  6
CONTINUOUS
 10
121.6188891783
 20
57.4310707542
 40
0.7
100
AcDbArc
 50
45.0
 51
90.0
  0
ARC
  5
508
100
AcDbEntity
  8
GEOM
100
AcDbCircle
 62
7
  6
CONTINUOUS
 10
131.1815034556
 20
94.8310707542
 40
0.6999999997
100
AcDbArc
 50
184.9999999999
 51
259.6754736736
  0
ARC
  5
509
100
AcDbEntity
  8
GEOM
100
AcDbCircle
 62
7
  6
CONTINUOUS
 10
131.1815033992
 20
58.4310707542
 40
0.6999999991
100
AcDbArc
 50
100.3245064823
 51
175.0000000001
  0
ARC
  5
50A
100
AcDbEntity
  8
0
100
AcDbCircle
 62
7
  6
CONTINUOUS
 10
126.3588375001
 20
96.3310700702
 40
0.6999999143
100
AcDbArc
 50
179.999938818
 51
270.0000879158
  0
ARC
  5
50B
100
AcDbEntity
  8
GEOM
100
AcDbCircle
 62
7
  6
CONTINUOUS
 10
131.146201771
 20
94.8310235745
 40
0.6999745684
100
AcDbArc
 50
184.8872891298
 51
252.9722763314
  0
ARC
  5
50C
100
AcDbEntity
  8
GEOM
100
AcDbCircle
 62
7
  6
CONTINUOUS
 10
131.1462017712
 20
58.4311179361
 40
0.6999745675
100
AcDbArc
 50
107.0277348087
 51
175.1127110451
  0
ARC
  5
50D
100
AcDbEntity
  8
GEOM
100
AcDbCircle
 62
7
  6
CONTINUOUS
 10
136.408838672
 20
93.4113097204
 40
0.5
100
AcDbArc
 50
0.0
 51
29.9999999999
  0
ARC
  5
50E
100
AcDbEntity
  8
GEOM
100
AcDbCircle
 62
7
  6
CONTINUOUS
 10
136.408838672
 20
59.8508317881
 40
0.5
100
AcDbArc
 50
330.0000000001
 51
360.0
  0
ARC
  5
50F
100
AcDbEntity
  8
GEOM
100
AcDbCircle
 62
7
  6
CONTINUOUS
 10
136.28195958
 20
59.6310707542
 40
0.5
100
AcDbArc
 50
270.0000000005
 51
329.9999999998
  0
ARC
  5
510
100
AcDbEntity
  8
GEOM
100
AcDbCircle
 62
7
  6
CONTINUOUS
 10
136.28195958
 20
93.6310707542
 40
0.5
100
AcDbArc
 50
30.0000000002
 51
89.9999999995
  0
ARC
  5
511
100
AcDbEntity
  8
0
100
AcDbCircle
 62
7
  6
CONTINUOUS
 10
129.950673085
 20
95.1310707542
 40
0.5
100
AcDbArc
 50
5.0
 51
90.0
  0
ARC
  5
512
100
AcDbEntity
  8
0
100
AcDbCircle
 62
7
  6
CONTINUOUS
 10
129.950673085
 20
58.1310707542
 40
0.5
100
AcDbArc
 50
270.0
 51
355.0
  0
ARC
  5
513
100
AcDbEntity
  8
0
100
AcDbCircle
 62
7
  6
CONTINUOUS
 10
147.4286205745
 20
59.7184359547
 40
0.047769484
100
AcDbArc
 50
310.6302617182
 51
315.0291626646
  0
ARC
  5
514
100
AcDbEntity
  8
0
100
AcDbCircle
 62
7
  6
CONTINUOUS
 10
152.844170324
 20
173.2310707542
 40
4.0
100
AcDbArc
 50
111.0331393818
 51
140.0
  0
ARC
  5
515
100
AcDbEntity
  8
0
100
AcDbCircle
 62
7
  6
CONTINUOUS
 10
135.408838672
 20
160.2310707542
 40
4.0
100
AcDbArc
 50
270.0
 51
320.0
  0
ARC
  5
516
100
AcDbEntity
  8
0
100
AcDbCircle
 62
7
  6
CONTINUOUS
 10
155.2641901168
 20
176.8953843308
 40
3.8553515715
100
AcDbArc
 50
179.0238597861
 51
180.0146922186
  0
ARC
  5
517
100
AcDbEntity
  8
0
100
AcDbCircle
 62
7
  6
CONTINUOUS
 10
152.708838672
 20
174.0310707542
 40
1.3
100
AcDbArc
 50
212.8904173777
 51
270.0
  0
ARC
  5
518
100
AcDbEntity
  8
0
100
AcDbCircle
 62
7
  6
CONTINUOUS
 10
152.708838672
 20
177.4310707542
 40
1.3
100
AcDbArc
 50
90.0
 51
180.0
  0
ARC
  5
519
100
AcDbEntity
  8
0
100
AcDbCircle
 62
7
  6
CONTINUOUS
 10
135.408838672
 20
160.2310707542
 40
1.0
100
AcDbArc
 50
270.0
 51
320.0
  0
ARC
  5
51A
100
AcDbEntity
  8
0
100
AcDbCircle
 62
7
  6
CONTINUOUS
 10
122.308838672
 20
160.0846605927
 40
0.6
100
AcDbArc
 50
0.0
 51
60.0
  0
ARC
  5
51B
100
AcDbEntity
  8
0
100
AcDbCircle
 62
7
  6
CONTINUOUS
 10
126.008838672
 20
143.5467561792
 40
0.4
100
AcDbArc
 50
315.0
 51
360.0
  0
ARC
  5
51C
100
AcDbEntity
  8
0
100
AcDbCircle
 62
7
  6
CONTINUOUS
 10
126.058838672
 20
142.4653853293
 40
0.4
100
AcDbArc
 50
135.0
 51
180.0
  0
ARC
  5
51D
100
AcDbEntity
  8
0
100
AcDbCircle
 62
7
  6
CONTINUOUS
 10
205.908838672
 20
176.2310707542
 40
2.5
100
AcDbArc
 50
0.0
 51
90.0
  0
ARC
  5
51E
100
AcDbEntity
  8
0
100
AcDbCircle
 62
7
  6
CONTINUOUS
 10
205.908838672
 20
175.2310707542
 40
2.5
100
AcDbArc
 50
270.0
 51
360.0
  0
ARC
  5
51F
100
AcDbEntity
  8
0
100
AcDbCircle
 62
7
  6
CONTINUOUS
 10
316.5190307187
 20
360.5209601217
 40
301.1942397574
100
AcDbArc
 50
226.1634648661
 51
226.3052846656
  0
ARC
  5
520
100
AcDbEntity
  8
0
100
AcDbCircle
 62
7
  6
CONTINUOUS
 10
307.6477168333
 20
351.5295358443
 40
288.7602475791
100
AcDbArc
 50
226.1975293717
 51
226.3455562094
  0
SPLINE
  5
521
100
AcDbEntity
  8
0
100
AcDbSpline
 62
7
  6
CONTINUOUS
 70
0
 71
3
 72
9
 73
5
 74
0
 42
0.0000001
 43
0.0000001
 44
0.0000000001
 40
0.0
 40
0.0
 40
0.0
 40
0.0
 40
0.6125308691
 40
1.0
 40
1.0
 40
1.0
 40
1.0
 10
108.9192567206
 20
151.5248401593
 30
0.0
 10
108.9164452102
 20
151.5233752853
 30
0.0
 10
108.9119227373
 20
151.5208643648
 30
0.0
 10
108.908838672
 20
151.5159985765
 30
0.0
 10
108.908838672
 20
151.5139931727
 30
0.0
  0
SPLINE
  5
522
100
AcDbEntity
  8
0
100
AcDbSpline
 62
7
  6
CONTINUOUS
 70
0
 71
3
 72
9
 73
5
 74
0
 42
0.0000001
 43
0.0000001
 44
0.0000000001
 40
0.0
 40
0.0
 40
0.0
 40
0.0
 40
0.6125594554
 40
1.0
 40
1.0
 40
1.0
 40
1.0
 10
108.9192592895
 20
151.0173023718
 30
0.0
 10
108.9164472167
 20
151.0187672851
 30
0.0
 10
108.9119241168
 20
151.0212779311
 30
0.0
 10
108.908838672
 20
151.0261438902
 30
0.0
 10
108.908838672
 20
151.0281493793
 30
0.0
  0
SPLINE
  5
523
100
AcDbEntity
  8
0
100
AcDbSpline
 62
7
  6
CONTINUOUS
 70
0
 71
3
 72
11
 73
7
 74
0
 42
0.0000001
 43
0.0000001
 44
0.0000000001
 40
0.0
 40
0.0
 40
0.0
 40
0.0
 40
0.2223587434
 40
0.4107524459
 40
0.653632425
 40
1.0
 40
1.0
 40
1.0
 40
1.0
 10
109.3251878941
 20
152.1474137094
 30
0.0
 10
109.3246627505
 20
152.1468887719
 30
0.0
 10
109.3237501983
 20
152.1457234127
 30
0.0
 10
109.3240233318
 20
152.1433641932
 30
0.0
 10
109.3259270431
 20
152.1414463618
 30
0.0
 10
109.3276057241
 20
152.1404326002
 30
0.0
 10
109.3286313931
 20
152.1398980219
 30
0.0
  0
SPLINE
  5
524
100
AcDbEntity
  8
0
100
AcDbSpline
 62
7
  6
CONTINUOUS
 70
0
 71
3
 72
22
 73
18
 74
0
 42
0.0000001
 43
0.0000001
 44
0.0000000001
 40
0.0
 40
0.0
 40
0.0
 40
0.0
 40
0.2081488317
 40
0.3971846255
 40
0.56432789
 40
0.6389147871
 40
0.7071402348
 40
0.7687551802
 40
0.8235383289
 40
0.8712914475
 40
0.9118454221
 40
0.9450623461
 40
0.970837704
 40
0.9809187144
 40
0.9891262643
 40
0.9954730655
 40
1.0
 40
1.0
 40
1.0
 40
1.0
 10
112.7281324735
 20
151.7310707542
 30
0.0
 10
112.4633937966
 20
151.7228176742
 30
0.0
 10
111.9582424354
 20
151.7065200751
 30
0.0
 10
111.2405906114
 20
151.6810722704
 30
0.0
 10
110.6928786708
 20
151.6591956302
 30
0.0
 10
110.298863273
 20
151.6414177863
 30
0.0
 10
110.0390461911
 20
151.628608952
 30
0.0
 10
109.8044618138
 20
151.6158180947
 30
0.0
 10
109.5959691353
 20
151.6030538168
 30
0.0
 10
109.414331552
 20
151.5903233493
 30
0.0
 10
109.2602052212
 20
151.5776612273
 30
0.0
 10
109.1341577746
 20
151.5650719527
 30
0.0
 10
109.0469274048
 20
151.5540486967
 30
0.0
 10
108.9916169086
 20
151.5448251383
 30
0.0
 10
108.9608855945
 20
151.5385359031
 30
0.0
 10
108.9374218265
 20
151.5323077068
 30
0.0
 10
108.9243653639
 20
151.5275019025
 30
0.0
 10
108.9192567206
 20
151.5248401593
 30
0.0
  0
SPLINE
  5
525
100
AcDbEntity
  8
0
100
AcDbSpline
 62
7
  6
CONTINUOUS
 70
0
 71
3
 72
9
 73
5
 74
0
 42
0.0000001
 43
0.0000001
 44
0.0000000001
 40
0.0
 40
0.0
 40
0.0
 40
0.0
 40
0.515503341
 40
1.0
 40
1.0
 40
1.0
 40
1.0
 10
116.8531794003
 20
151.9717656369
 30
0.0
 10
116.1443040639
 20
151.9312634674
 30
0.0
 10
114.7691295617
 20
151.8538104825
 30
0.0
 10
113.3941410571
 20
151.7729537988
 30
0.0
 10
112.7281324735
 20
151.7310707542
 30
0.0
  0
SPLINE
  5
526
100
AcDbEntity
  8
0
100
AcDbSpline
 62
7
  6
CONTINUOUS
 70
0
 71
3
 72
23
 73
19
 74
0
 42
0.0000001
 43
0.0000001
 44
0.0000000001
 40
0.0
 40
0.0
 40
0.0
 40
0.0
 40
0.0040163796
 40
0.010151414
 40
0.0184368317
 40
0.0288750686
 40
0.041451885
 40
0.056143385
 40
0.0917571901
 40
0.1354240873
 40
0.1867797503
 40
0.2453882331
 40
0.3107489243
 40
0.3823061209
 40
0.4594473641
 40
0.6278005882
 40
0.810060206
 40
1.0
 40
1.0
 40
1.0
 40
1.0
 10
109.5663839206
 20
151.8621956173
 30
0.0
 10
109.5748230012
 20
151.8665869785
 30
0.0
 10
109.5979487421
 20
151.8738986455
 30
0.0
 10
109.6405273746
 20
151.8833189173
 30
0.0
 10
109.6986934983
 20
151.8928231806
 30
0.0
 10
109.7721931006
 20
151.9024752604
 30
0.0
 10
109.8609881387
 20
151.9121717413
 30
0.0
 10
110.0092840637
 20
151.9260640483
 30
0.0
 10
110.2312469081
 20
151.9428923346
 30
0.0
 10
110.5400739437
 20
151.9622104933
 30
0.0
 10
110.9034538213
 20
151.9816096421
 30
0.0
 10
111.318276103
 20
152.0010797098
 30
0.0
 10
111.7809932521
 20
152.0205899816
 30
0.0
 10
112.2876412569
 20
152.0401303392
 30
0.0
 10
113.0381348372
 20
152.0669985973
 30
0.0
 10
114.0507849367
 20
152.0999890301
 30
0.0
 10
115.330563437
 20
152.1386394415
 30
0.0
 10
116.2117902016
 20
152.1642070643
 30
0.0
 10
116.6614964824
 20
152.1772173673
 30
0.0
  0
SPLINE
  5
527
100
AcDbEntity
  8
0
100
AcDbSpline
 62
7
  6
CONTINUOUS
 70
0
 71
3
 72
23
 73
19
 74
0
 42
0.0000001
 43
0.0000001
 44
0.0000000001
 40
0.0
 40
0.0
 40
0.0
 40
0.0
 40
0.1815618573
 40
0.3585928895
 40
0.5245445977
 40
0.6014263443
 40
0.6732814299
 40
0.7394452157
 40
0.7993063369
 40
0.8523104137
 40
0.8979688253
 40
0.9358643619
 40
0.9517900781
 40
0.9656537796
 40
0.97742364
 40
0.9870784345
 40
0.9946045087
 40
1.0
 40
1.0
 40
1.0
 40
1.0
 10
117.4092924051
 20
151.3754598675
 30
0.0
 10
116.8965286211
 20
151.3618044244
 30
0.0
 10
115.8837925931
 20
151.3349966376
 30
0.0
 10
114.4024027136
 20
151.2948079208
 30
0.0
 10
113.2167004563
 20
151.2605959578
 30
0.0
 10
112.3280834179
 20
151.2327435559
 30
0.0
 10
111.7212898242
 20
151.2124066567
 30
0.0
 10
111.1626105086
 20
151.1920975935
 30
0.0
 10
110.6572257942
 20
151.1718251548
 30
0.0
 10
110.2098206937
 20
151.15161461
 30
0.0
 10
109.8245420036
 20
151.1314784962
 30
0.0
 10
109.544028949
 20
151.1139770896
 30
0.0
 10
109.353345749
 20
151.0995956022
 30
0.0
 10
109.2363657691
 20
151.0894764271
 30
0.0
 10
109.1371787979
 20
151.0793961638
 30
0.0
 10
109.0559822639
 20
151.0694067295
 30
0.0
 10
108.9929768903
 20
151.059507018
 30
0.0
 10
108.9572007556
 20
151.0519198626
 30
0.0
 10
108.9425604315
 20
151.0476751377
 30
0.0
  0
SPLINE
  5
528
100
AcDbEntity
  8
0
100
AcDbSpline
 62
7
  6
CONTINUOUS
 70
0
 71
3
 72
11
 73
7
 74
0
 42
0.0000001
 43
0.0000001
 44
0.0000000001
 40
0.0
 40
0.0
 40
0.0
 40
0.0
 40
0.3839111952
 40
0.6710274143
 40
0.8685845236
 40
1.0
 40
1.0
 40
1.0
 40
1.0
 10
108.9425604315
 20
151.0476751377
 30
0.0
 10
108.9375882336
 20
151.0462335294
 30
0.0
 10
108.9289484227
 20
151.0434996731
 30
0.0
 10
108.9182198352
 20
151.0387219525
 30
0.0
 10
108.9112054692
 20
151.0341753022
 30
0.0
 10
108.908838672
 20
151.0299214912
 30
0.0
 10
108.908838672
 20
151.0281493793
 30
0.0
  0
SPLINE
  5
529
100
AcDbEntity
  8
0
100
AcDbSpline
 62
7
  6
CONTINUOUS
 70
0
 71
3
 72
12
 73
8
 74
0
 42
0.0000001
 43
0.0000001
 44
0.0000000001
 40
0.0
 40
0.0
 40
0.0
 40
0.0
 40
0.0852062897
 40
0.1866091833
 40
0.4293196693
 40
0.7081194259
 40
1.0
 40
1.0
 40
1.0
 40
1.0
 10
110.635078373
 20
150.631070909
 30
0.0
 10
110.8405088604
 20
150.6424566447
 30
0.0
 10
111.2905881439
 20
150.6643300024
 30
0.0
 10
112.3263838347
 20
150.7069640357
 30
0.0
 10
113.8296772292
 20
150.7577181837
 30
0.0
 10
115.7928751792
 20
150.8164218124
 30
0.0
 10
117.1703214831
 20
150.8558335591
 30
0.0
 10
117.8748195229
 20
150.8763818076
 30
0.0
  0
SPLINE
  5
52A
100
AcDbEntity
  8
0
100
AcDbSpline
 62
7
  6
CONTINUOUS
 70
0
 71
3
 72
35
 73
31
 74
0
 42
0.0000001
 43
0.0000001
 44
0.0000000001
 40
0.0
 40
0.0
 40
0.0
 40
0.0
 40
0.001238662
 40
0.0020288999
 40
0.002794926
 40
0.0033267567
 40
0.0039912318
 40
0.0057587327
 40
0.0081439623
 40
0.0111626267
 40
0.014821437
 40
0.0191219481
 40
0.0240631389
 40
0.0358587878
 40
0.0501858481
 40
0.0670053388
 40
0.0862704072
 40
0.1079285055
 40
0.131914597
 40
0.158160946
 40
0.1865909447
 40
0.2171200853
 40
0.2841175389
 40
0.3583676093
 40
0.4389991512
 40
0.5250661914
 40
0.6155584514
 40
0.7094124948
 40
0.8055256357
 40
1.0
 40
1.0
 40
1.0
 40
1.0
 10
109.566309322
 20
150.6799887913
 30
0.0
 10
109.5633106383
 20
150.6815538607
 30
0.0
 10
109.5585069898
 20
150.6842209736
 30
0.0
 10
109.553791614
 20
150.6913898404
 30
0.0
 10
109.5568665055
 20
150.6971168043
 30
0.0
 10
109.5609781654
 20
150.7004648377
 30
0.0
 10
109.5679260866
 20
150.7047139316
 30
0.0
 10
109.5801721654
 20
150.7096341337
 30
0.0
 10
109.5989408548
 20
150.715259659
 30
0.0
 10
109.6230507272
 20
150.7209003753
 30
0.0
 10
109.6524891818
 20
150.7265865762
 30
0.0
 10
109.6872569844
 20
150.732290208
 30
0.0
 10
109.7441329664
 20
150.7404026561
 30
0.0
 10
109.8283956129
 20
150.7502877519
 30
0.0
 10
109.9451149617
 20
150.7616417401
 30
0.0
 10
110.0823101461
 20
150.7730376079
 30
0.0
 10
110.2395807318
 20
150.7844682999
 30
0.0
 10
110.4164661117
 20
150.7959176151
 30
0.0
 10
110.6124504538
 20
150.8073842072
 30
0.0
 10
110.8269555956
 20
150.8188607951
 30
0.0
 10
111.059351444
 20
150.8303461183
 30
0.0
 10
111.4029500654
 20
150.846163557
 30
0.0
 10
111.8716320518
 20
150.8657101471
 30
0.0
 10
112.4771092221
 20
150.8885514213
 30
0.0
 10
113.1346943259
 20
150.9114241577
 30
0.0
 10
113.8366575472
 20
150.9343211303
 30
0.0
 10
114.5747463589
 20
150.9572338362
 30
0.0
 10
115.3402813359
 20
150.9801574696
 30
0.0
 10
116.3896647282
 20
151.0108505566
 30
0.0
 10
117.1828728706
 20
151.0336497623
 30
0.0
 10
117.7137184827
 20
151.0490915876
 30
0.0
  0
SPLINE
  5
52B
100
AcDbEntity
  8
0
100
AcDbSpline
 62
7
  6
CONTINUOUS
 70
0
 71
3
 72
30
 73
26
 74
0
 42
0.0000001
 43
0.0000001
 44
0.0000000001
 40
0.0
 40
0.0
 40
0.0
 40
0.0
 40
0.1953474076
 40
0.2902483628
 40
0.3821419465
 40
0.470199528
 40
0.5536321708
 40
0.6316934647
 40
0.7036930893
 40
0.7689974506
 40
0.827034104
 40
0.8773028928
 40
0.8993868315
 40
0.9193741165
 40
0.9372205677
 40
0.952891874
 40
0.9663566523
 40
0.9775865831
 40
0.9865646753
 40
0.990205733
 40
0.9932802389
 40
0.9957887209
 40
0.9977350845
 40
0.9991291109
 40
1.0
 40
1.0
 40
1.0
 40
1.0
 10
116.4917938255
 20
152.3591547547
 30
0.0
 10
116.0248378003
 20
152.3502924402
 30
0.0
 10
115.3310320385
 20
152.3371054048
 30
0.0
 10
114.4175755486
 20
152.3192023551
 30
0.0
 10
113.7605880857
 20
152.3059318186
 30
0.0
 10
113.1310244418
 20
152.2926908836
 30
0.0
 10
112.534538242
 20
152.2794816341
 30
0.0
 10
111.976452842
 20
152.2663066385
 30
0.0
 10
111.46172085
 20
152.2531702091
 30
0.0
 10
110.9948796769
 20
152.2400807387
 30
0.0
 10
110.5800141651
 20
152.2270430304
 30
0.0
 10
110.2684772532
 20
152.2158124315
 30
0.0
 10
110.0478971593
 20
152.2066888017
 30
0.0
 10
109.9047932861
 20
152.200158968
 30
0.0
 10
109.7770375722
 20
152.1936451838
 30
0.0
 10
109.6648977992
 20
152.1871515952
 30
0.0
 10
109.56860405
 20
152.1806908823
 30
0.0
 10
109.4883541057
 20
152.1742635503
 30
0.0
 10
109.4316031351
 20
152.1686536004
 30
0.0
 10
109.3943703245
 20
152.1640148587
 30
0.0
 10
109.3725455918
 20
152.1607989933
 30
0.0
 10
109.3548388472
 20
152.1576064854
 30
0.0
 10
109.3411707154
 20
152.1544586463
 30
0.0
 10
109.3316452008
 20
152.15137405
 30
0.0
 10
109.3266604764
 20
152.1488857139
 30
0.0
 10
109.3251878941
 20
152.1474137094
 30
0.0
  0
SPLINE
  5
52C
100
AcDbEntity
  8
0
100
AcDbSpline
 62
7
  6
CONTINUOUS
 70
0
 71
3
 72
36
 73
32
 74
0
 42
0.0000001
 43
0.0000001
 44
0.0000000001
 40
0.0
 40
0.0
 40
0.0
 40
0.0
 40
0.0013407166
 40
0.0022283821
 40
0.0026022343
 40
0.0030077657
 40
0.003497032
 40
0.0041007818
 40
0.0057086128
 40
0.0078971467
 40
0.0106885487
 40
0.0140913934
 40
0.0181091058
 40
0.0227427559
 40
0.0338560839
 40
0.0474181401
 40
0.0633993402
 40
0.0817663051
 40
0.1024782526
 40
0.1254843334
 40
0.1507322244
 40
0.1781623694
 40
0.2077072563
 40
0.2728597504
 40
0.3455643173
 40
0.4251246578
 40
0.5107773522
 40
0.6016972008
 40
0.6970118096
 40
0.7958057508
 40
1.0
 40
1.0
 40
1.0
 40
1.0
 10
109.5662688133
 20
152.0160070406
 30
0.0
 10
109.5635049485
 20
152.017452009
 30
0.0
 10
109.5590505025
 20
152.0200593422
 30
0.0
 10
109.5550025388
 20
152.0251543166
 30
0.0
 10
109.5549727797
 20
152.0291724499
 30
0.0
 10
109.5562289311
 20
152.0319173967
 30
0.0
 10
109.5585663273
 20
152.0345450212
 30
0.0
 10
109.563587727
 20
152.0383621866
 30
0.0
 10
109.5728579847
 20
152.0428632234
 30
0.0
 10
109.5873236189
 20
152.0479330581
 30
0.0
 10
109.6061609559
 20
152.0530377966
 30
0.0
 10
109.6293570224
 20
152.0581773888
 30
0.0
 10
109.6569235222
 20
152.0633367652
 30
0.0
 10
109.7023121807
 20
152.0706868233
 30
0.0
 10
109.7699141013
 20
152.0796333173
 30
0.0
 10
109.863934934
 20
152.0899018497
 30
0.0
 10
109.9749106064
 20
152.1002107585
 30
0.0
 10
110.1025762148
 20
152.110551052
 30
0.0
 10
110.2466288853
 20
152.1209094264
 30
0.0
 10
110.4067236922
 20
152.1312837722
 30
0.0
 10
110.5824755078
 20
152.1416675953
 30
0.0
 10
110.7734617732
 20
152.1520592287
 30
0.0
 10
111.0571952606
 20
152.1663955341
 30
0.0
 10
111.4462073331
 20
152.184110383
 30
0.0
 10
111.9515453638
 20
152.2047845043
 30
0.0
 10
112.5046063525
 20
152.225487945
 30
0.0
 10
113.1000663797
 20
152.2462144487
 30
0.0
 10
113.7321944208
 20
152.2669570683
 30
0.0
 10
114.3949070124
 20
152.2877115257
 30
0.0
 10
115.3210221737
 20
152.3157021538
 30
0.0
 10
116.0255396988
 20
152.3362052841
 30
0.0
 10
116.5003403654
 20
152.3499550853
 30
0.0
  0
SPLINE
  5
52D
100
AcDbEntity
  8
0
100
AcDbSpline
 62
7
  6
CONTINUOUS
 70
0
 71
3
 72
10
 73
6
 74
0
 42
0.0000001
 43
0.0000001
 44
0.0000000001
 40
0.0
 40
0.0
 40
0.0
 40
0.0
 40
0.2491711728
 40
0.4987559585
 40
1.0
 40
1.0
 40
1.0
 40
1.0
 10
113.627568952
 20
155.4310126608
 30
0.0
 10
113.3956803946
 20
155.4301512231
 30
0.0
 10
112.9313511804
 20
155.4091758415
 30
0.0
 10
112.0072480084
 20
155.2929902112
 30
0.0
 10
111.3251472252
 20
155.1301669835
 30
0.0
 10
110.8777642393
 20
154.9980580523
 30
0.0
  0
SPLINE
  5
52E
100
AcDbEntity
  8
0
100
AcDbSpline
 62
7
  6
CONTINUOUS
 70
0
 71
3
 72
10
 73
6
 74
0
 42
0.0000001
 43
0.0000001
 44
0.0000000001
 40
0.0
 40
0.0
 40
0.0
 40
0.0
 40
0.2500490219
 40
0.5000997455
 40
1.0
 40
1.0
 40
1.0
 40
1.0
 10
116.908838672
 20
161.5857712926
 30
0.0
 10
116.7134878251
 20
161.5857712926
 30
0.0
 10
116.3225777754
 20
161.5690999046
 30
0.0
 10
115.5467055614
 20
161.4722366089
 30
0.0
 10
114.97466318
 20
161.3368239989
 30
0.0
 10
114.5994375952
 20
161.2285057027
 30
0.0
  0
SPLINE
  5
52F
100
AcDbEntity
  8
0
100
AcDbSpline
 62
7
  6
CONTINUOUS
 70
0
 71
3
 72
11
 73
7
 74
0
 42
0.0000001
 43
0.0000001
 44
0.0000000001
 40
0.0
 40
0.0
 40
0.0
 40
0.0
 40
0.2616429466
 40
0.5144970929
 40
0.7595947853
 40
1.0
 40
1.0
 40
1.0
 40
1.0
 10
119.2182397488
 20
164.0738051643
 30
0.0
 10
119.3105448659
 20
164.1270975485
 30
0.0
 10
119.4962441336
 20
164.2249667433
 30
0.0
 10
119.7841816802
 20
164.3402422633
 30
0.0
 10
120.0768622067
 20
164.4139965426
 30
0.0
 10
120.2750070756
 20
164.4310707543
 30
0.0
 10
120.3729402875
 20
164.4310707542
 30
0.0
  0
SPLINE
  5
530
100
AcDbEntity
  8
0
100
AcDbSpline
 62
7
  6
CONTINUOUS
 70
0
 71
3
 72
11
 73
7
 74
0
 42
0.0000001
 43
0.0000001
 44
0.0000000001
 40
0.0
 40
0.0
 40
0.0
 40
0.0
 40
0.2404052601
 40
0.485503008
 40
0.7383572234
 40
1.0
 40
1.0
 40
1.0
 40
1.0
 10
120.3729402875
 20
164.4310707542
 30
0.0
 10
120.4708735178
 20
164.4310707542
 30
0.0
 10
120.6690184309
 20
164.413996553
 30
0.0
 10
120.9616990091
 20
164.3402421966
 30
0.0
 10
121.2496365447
 20
164.2249667046
 30
0.0
 10
121.4353357685
 20
164.1270975138
 30
0.0
 10
121.5276408255
 20
164.0738051643
 30
0.0
  0
SPLINE
  5
531
100
AcDbEntity
  8
0
100
AcDbSpline
 62
7
  6
CONTINUOUS
 70
0
 71
3
 72
15
 73
11
 74
0
 42
0.0000001
 43
0.0000001
 44
0.0000000001
 40
0.0
 40
0.0
 40
0.0
 40
0.0
 40
0.1308200724
 40
0.2572467341
 40
0.3797970183
 40
0.5000000228
 40
0.620203024
 40
0.7427533002
 40
0.8691799394
 40
1.0
 40
1.0
 40
1.0
 40
1.0
 10
121.5276408255
 20
161.2285057027
 30
0.0
 10
121.4353367785
 20
161.2817974691
 30
0.0
 10
121.2496347723
 20
161.3796657421
 30
0.0
 10
120.9617165603
 20
161.4949427457
 30
0.0
 10
120.6689703218
 20
161.5686942096
 30
0.0
 10
120.3729402349
 20
161.5942165393
 30
0.0
 10
120.0769101584
 20
161.5686941769
 30
0.0
 10
119.7841639498
 20
161.4949427121
 30
0.0
 10
119.4962457679
 20
161.3796657263
 30
0.0
 10
119.3105437874
 20
161.2817974643
 30
0.0
 10
119.2182397488
 20
161.2285057027
 30
0.0
  0
SPLINE
  5
532
100
AcDbEntity
  8
0
100
AcDbSpline
 62
7
  6
CONTINUOUS
 70
0
 71
3
 72
11
 73
7
 74
0
 42
0.0000001
 43
0.0000001
 44
0.0000000001
 40
0.0
 40
0.0
 40
0.0
 40
0.0
 40
0.2404053342
 40
0.4855030662
 40
0.7383571529
 40
1.0
 40
1.0
 40
1.0
 40
1.0
 10
113.4447370564
 20
164.4310707542
 30
0.0
 10
113.5426703173
 20
164.4310707543
 30
0.0
 10
113.7408152556
 20
164.4139965589
 30
0.0
 10
114.0334958069
 20
164.3402422031
 30
0.0
 10
114.3214333074
 20
164.2249667042
 30
0.0
 10
114.507132513
 20
164.1270975284
 30
0.0
 10
114.5994375952
 20
164.0738051643
 30
0.0
  0
SPLINE
  5
533
100
AcDbEntity
  8
0
100
AcDbSpline
 62
7
  6
CONTINUOUS
 70
0
 71
3
 72
15
 73
11
 74
0
 42
0.0000001
 43
0.0000001
 44
0.0000000001
 40
0.0
 40
0.0
 40
0.0
 40
0.0
 40
0.1308200724
 40
0.2572467341
 40
0.3797970183
 40
0.5000000228
 40
0.620203024
 40
0.7427533002
 40
0.8691799394
 40
1.0
 40
1.0
 40
1.0
 40
1.0
 10
114.5994375952
 20
161.2285057027
 30
0.0
 10
114.5071335482
 20
161.2817974691
 30
0.0
 10
114.3214315421
 20
161.3796657421
 30
0.0
 10
114.03351333
 20
161.4949427457
 30
0.0
 10
113.7407670915
 20
161.5686942096
 30
0.0
 10
113.4447370046
 20
161.5942165393
 30
0.0
 10
113.1487069281
 20
161.5686941769
 30
0.0
 10
112.8559607195
 20
161.4949427121
 30
0.0
 10
112.5680425376
 20
161.3796657263
 30
0.0
 10
112.3823405571
 20
161.2817974643
 30
0.0
 10
112.2900365185
 20
161.2285057027
 30
0.0
  0
LINE
  5
534
100
AcDbEntity
  8
0
100
AcDbLine
 62
7
  6
CONTINUOUS
 10
116.115577031
 20
159.2310707542
 11
116.1233441074
 21
159.3053269298
  0
SPLINE
  5
535
100
AcDbEntity
  8
0
100
AcDbSpline
 62
7
  6
CONTINUOUS
 70
0
 71
3
 72
11
 73
7
 74
0
 42
0.0000001
 43
0.0000001
 44
0.0000000001
 40
0.0
 40
0.0
 40
0.0
 40
0.0
 40
0.2616427032
 40
0.5144968934
 40
0.7595946658
 40
1.0
 40
1.0
 40
1.0
 40
1.0
 10
112.2900365185
 20
164.0738051643
 30
0.0
 10
112.3823415497
 20
164.1270974989
 30
0.0
 10
112.5680407353
 20
164.224966677
 30
0.0
 10
112.8559782409
 20
164.3402421602
 30
0.0
 10
113.1486588401
 20
164.413996561
 30
0.0
 10
113.3468037959
 20
164.4310707542
 30
0.0
 10
113.4447370564
 20
164.4310707542
 30
0.0
  0
SPLINE
  5
536
100
AcDbEntity
  8
0
100
AcDbSpline
 62
7
  6
CONTINUOUS
 70
0
 71
3
 72
9
 73
5
 74
0
 42
0.0000001
 43
0.0000001
 44
0.0000000001
 40
0.0
 40
0.0
 40
0.0
 40
0.0
 40
0.2530239619
 40
1.0
 40
1.0
 40
1.0
 40
1.0
 10
116.908838672
 20
159.4310707542
 30
0.0
 10
116.9686491582
 20
159.4139380959
 30
0.0
 10
117.2052906737
 20
159.3471347941
 30
0.0
 10
117.442418654
 20
159.2820454059
 30
0.0
 10
117.6188770338
 20
159.2310707542
 30
0.0
  0
SPLINE
  5
537
100
AcDbEntity
  8
0
100
AcDbSpline
 62
7
  6
CONTINUOUS
 70
0
 71
3
 72
10
 73
6
 74
0
 42
0.0000001
 43
0.0000001
 44
0.0000000001
 40
0.0
 40
0.0
 40
0.0
 40
0.0
 40
0.4999011814
 40
0.7499517172
 40
1.0
 40
1.0
 40
1.0
 40
1.0
 10
114.5994375952
 20
164.0738051643
 30
0.0
 10
114.9746638738
 20
164.1821236608
 30
0.0
 10
115.5467068289
 20
164.3175364481
 30
0.0
 10
116.3225790914
 20
164.4143992711
 30
0.0
 10
116.7134884033
 20
164.4310707542
 30
0.0
 10
116.9088386718
 20
164.4310707542
 30
0.0
  0
SPLINE
  5
538
100
AcDbEntity
  8
0
100
AcDbSpline
 62
7
  6
CONTINUOUS
 70
0
 71
3
 72
10
 73
6
 74
0
 42
0.0000001
 43
0.0000001
 44
0.0000000001
 40
0.0
 40
0.0
 40
0.0
 40
0.0
 40
0.2500483041
 40
0.5000988454
 40
1.0
 40
1.0
 40
1.0
 40
1.0
 10
116.9088386718
 20
164.4310707542
 30
0.0
 10
117.1041889571
 20
164.4310707542
 30
0.0
 10
117.4950982904
 20
164.4143992741
 30
0.0
 10
118.2709705516
 20
164.3175364369
 30
0.0
 10
118.8430134902
 20
164.182123655
 30
0.0
 10
119.2182397488
 20
164.0738051643
 30
0.0
  0
SPLINE
  5
539
100
AcDbEntity
  8
0
100
AcDbSpline
 62
7
  6
CONTINUOUS
 70
0
 71
3
 72
10
 73
6
 74
0
 42
0.0000001
 43
0.0000001
 44
0.0000000001
 40
0.0
 40
0.0
 40
0.0
 40
0.0
 40
0.4999007856
 40
0.7499513904
 40
1.0
 40
1.0
 40
1.0
 40
1.0
 10
119.2182397488
 20
161.2285057027
 30
0.0
 10
118.8430137665
 20
161.3368241136
 30
0.0
 10
118.2709710623
 20
161.4722368071
 30
0.0
 10
117.4950988241
 20
161.5690998612
 30
0.0
 10
117.1041891962
 20
161.5857712926
 30
0.0
 10
116.908838672
 20
161.5857712926
 30
0.0
  0
SPLINE
  5
53A
100
AcDbEntity
  8
0
100
AcDbSpline
 62
7
  6
CONTINUOUS
 70
0
 71
3
 72
8
 73
4
 74
0
 42
0.0000001
 43
0.0000001
 44
0.0000000001
 40
0.0
 40
0.0
 40
0.0
 40
0.0
 40
1.0
 40
1.0
 40
1.0
 40
1.0
 10
151.408838672
 20
174.5677457962
 30
0.0
 10
151.408838672
 20
174.4553645632
 30
0.0
 10
151.4134250447
 20
174.3426759554
 30
0.0
 10
151.426609149
 20
174.2310707542
 30
0.0
  0
SPLINE
  5
53B
100
AcDbEntity
  8
0
100
AcDbSpline
 62
7
  6
CONTINUOUS
 70
0
 71
3
 72
8
 73
4
 74
0
 42
0.0000001
 43
0.0000001
 44
0.0000000001
 40
0.0
 40
0.0
 40
0.0
 40
0.0
 40
1.0
 40
1.0
 40
1.0
 40
1.0
 10
151.426609149
 20
177.2310707542
 30
0.0
 10
151.416029035
 20
177.1415086778
 30
0.0
 10
151.4109575923
 20
177.05123559
 30
0.0
 10
151.4093980485
 20
176.961064241
 30
0.0
  0
SPLINE
  5
53C
100
AcDbEntity
  8
GEOM
100
AcDbSpline
 62
7
  6
CONTINUOUS
 70
0
 71
3
 72
10
 73
6
 74
0
 42
0.0000001
 43
0.0000001
 44
0.0000000001
 40
0.0
 40
0.0
 40
0.0
 40
0.0
 40
0.2151236135
 40
0.4594543454
 40
1.0
 40
1.0
 40
1.0
 40
1.0
 10
135.6053256638
 20
84.4655945334
 30
0.0
 10
135.5838088525
 20
84.3660440665
 30
0.0
 10
135.5532470104
 20
84.1500327227
 30
0.0
 10
135.5345792866
 20
83.6765251099
 30
0.0
 10
135.5666597899
 20
83.3043619484
 30
0.0
 10
135.6053254395
 20
83.051380971
 30
0.0
  0
SPLINE
  5
53D
100
AcDbEntity
  8
GEOM
100
AcDbSpline
 62
7
  6
CONTINUOUS
 70
0
 71
3
 72
13
 73
9
 74
0
 42
0.0000001
 43
0.0000001
 44
0.0000000001
 40
0.0
 40
0.0
 40
0.0
 40
0.0
 40
0.2199506792
 40
0.3387030764
 40
0.4630513406
 40
0.5926601781
 40
0.7264419823
 40
1.0
 40
1.0
 40
1.0
 40
1.0
 10
130.8457900301
 20
84.4655945334
 30
0.0
 10
130.7922197865
 20
84.3711682574
 30
0.0
 10
130.7182484135
 20
84.2198260081
 30
0.0
 10
130.65801134
 20
83.998413504
 30
0.0
 10
130.6419987015
 20
83.8140817745
 30
0.0
 10
130.659325621
 20
83.622585545
 30
0.0
 10
130.7224978646
 20
83.3645446329
 30
0.0
 10
130.7955166998
 20
83.176696396
 30
0.0
 10
130.8457896043
 20
83.051380971
 30
0.0
  0
SPLINE
  5
53E
100
AcDbEntity
  8
GEOM
100
AcDbSpline
 62
7
  6
CONTINUOUS
 70
0
 71
3
 72
11
 73
7
 74
0
 42
0.0000001
 43
0.0000001
 44
0.0000000001
 40
0.0
 40
0.0
 40
0.0
 40
0.0
 40
0.2500254281
 40
0.5000206129
 40
0.7500025763
 40
1.0
 40
1.0
 40
1.0
 40
1.0
 10
135.6053241388
 20
83.051380971
 30
0.0
 10
135.8206718281
 20
81.995646676
 30
0.0
 10
136.1620179553
 20
79.8642956236
 30
0.0
 10
136.3419231066
 20
76.6308601072
 30
0.0
 10
136.1619925773
 20
73.3975468642
 30
0.0
 10
135.8206512481
 20
71.2663758616
 30
0.0
 10
135.6053241388
 20
70.2107605374
 30
0.0
  0
SPLINE
  5
53F
100
AcDbEntity
  8
GEOM
100
AcDbSpline
 62
7
  6
CONTINUOUS
 70
0
 71
3
 72
9
 73
5
 74
0
 42
0.0000001
 43
0.0000001
 44
0.0000000001
 40
0.0
 40
0.0
 40
0.0
 40
0.0
 40
0.5023429712
 40
1.0
 40
1.0
 40
1.0
 40
1.0
 10
136.0383368407
 20
93.8649474726
 30
0.0
 10
135.9976475157
 20
93.9434164856
 30
0.0
 10
135.8722895017
 20
94.0807165952
 30
0.0
 10
135.6928923141
 20
94.131070483
 30
0.0
 10
135.6053256262
 20
94.1310707542
 30
0.0
  0
SPLINE
  5
540
100
AcDbEntity
  8
GEOM
100
AcDbSpline
 62
7
  6
CONTINUOUS
 70
0
 71
3
 72
11
 73
7
 74
0
 42
0.0000001
 43
0.0000001
 44
0.0000000001
 40
0.0
 40
0.0
 40
0.0
 40
0.0
 40
0.2171090137
 40
0.4571512793
 40
0.7201695163
 40
1.0
 40
1.0
 40
1.0
 40
1.0
 10
136.0383368407
 20
93.4195634469
 30
0.0
 10
136.016818807
 20
93.44580283
 30
0.0
 10
135.9607677163
 20
93.4925813833
 30
0.0
 10
135.8558653375
 20
93.536709392
 30
0.0
 10
135.7339850357
 20
93.5557848988
 30
0.0
 10
135.6486137524
 20
93.5515283001
 30
0.0
 10
135.6053241388
 20
93.5452843166
 30
0.0
  0
SPLINE
  5
541
100
AcDbEntity
  8
GEOM
100
AcDbSpline
 62
7
  6
CONTINUOUS
 70
0
 71
3
 72
9
 73
5
 74
0
 42
0.0000001
 43
0.0000001
 44
0.0000000001
 40
0.0
 40
0.0
 40
0.0
 40
0.0
 40
0.2311348784
 40
1.0
 40
1.0
 40
1.0
 40
1.0
 10
136.0383368407
 20
84.214960249
 30
0.0
 10
136.0166826572
 20
84.2476121923
 30
0.0
 10
135.9030285505
 20
84.3753081363
 30
0.0
 10
135.7343211909
 20
84.4469876637
 30
0.0
 10
135.6053256262
 20
84.4655943219
 30
0.0
  0
SPLINE
  5
542
100
AcDbEntity
  8
GEOM
100
AcDbSpline
 62
7
  6
CONTINUOUS
 70
0
 71
3
 72
9
 73
5
 74
0
 42
0.0000001
 43
0.0000001
 44
0.0000000001
 40
0.0
 40
0.0
 40
0.0
 40
0.0
 40
0.2311352167
 40
1.0
 40
1.0
 40
1.0
 40
1.0
 10
136.0383368407
 20
69.0471812595
 30
0.0
 10
136.0166826524
 20
69.0145291035
 30
0.0
 10
135.9030284683
 20
68.886832489
 30
0.0
 10
135.7343201544
 20
68.8151529595
 30
0.0
 10
135.6053241388
 20
68.7965469751
 30
0.0
  0
SPLINE
  5
543
100
AcDbEntity
  8
GEOM
100
AcDbSpline
 62
7
  6
CONTINUOUS
 70
0
 71
3
 72
11
 73
7
 74
0
 42
0.0000001
 43
0.0000001
 44
0.0000000001
 40
0.0
 40
0.0
 40
0.0
 40
0.0
 40
0.2171094689
 40
0.4571517518
 40
0.7201697741
 40
1.0
 40
1.0
 40
1.0
 40
1.0
 10
136.0383368407
 20
59.8425780615
 30
0.0
 10
136.0168188589
 20
59.8163386656
 30
0.0
 10
135.9607679894
 20
59.7695600545
 30
0.0
 10
135.8558659388
 20
59.7254319415
 30
0.0
 10
135.7339860544
 20
59.7063563891
 30
0.0
 10
135.6486150751
 20
59.7106129864
 30
0.0
 10
135.6053256261
 20
59.7168569803
 30
0.0
  0
SPLINE
  5
544
100
AcDbEntity
  8
GEOM
100
AcDbSpline
 62
7
  6
CONTINUOUS
 70
0
 71
3
 72
9
 73
5
 74
0
 42
0.0000001
 43
0.0000001
 44
0.0000000001
 40
0.0
 40
0.0
 40
0.0
 40
0.0
 40
0.502342823
 40
1.0
 40
1.0
 40
1.0
 40
1.0
 10
136.0383368407
 20
59.3971940358
 30
0.0
 10
135.997647474
 20
59.3187247971
 30
0.0
 10
135.8722889818
 20
59.1814242969
 30
0.0
 10
135.6928910962
 20
59.1310707542
 30
0.0
 10
135.6053241388
 20
59.1310707542
 30
0.0
  0
SPLINE
  5
545
100
AcDbEntity
  8
GEOM
100
AcDbSpline
 62
7
  6
CONTINUOUS
 70
0
 71
3
 72
10
 73
6
 74
0
 42
0.0000001
 43
0.0000001
 44
0.0000000001
 40
0.0
 40
0.0
 40
0.0
 40
0.0
 40
0.5000193091
 40
0.7500454016
 40
1.0
 40
1.0
 40
1.0
 40
1.0
 10
131.1461067227
 20
72.7722298148
 30
0.0
 10
131.1382880843
 20
72.3413630339
 30
0.0
 10
131.1106508928
 20
71.6944513171
 30
0.0
 10
130.999863639
 20
70.8392839938
 30
0.0
 10
130.9071240398
 20
70.4172648321
 30
0.0
 10
130.8457859671
 20
70.2107605374
 30
0.0
  0
SPLINE
  5
546
100
AcDbEntity
  8
GEOM
100
AcDbSpline
 62
7
  6
CONTINUOUS
 70
0
 71
3
 72
10
 73
6
 74
0
 42
0.0000001
 43
0.0000001
 44
0.0000000001
 40
0.0
 40
0.0
 40
0.0
 40
0.0
 40
0.2499849436
 40
0.5000074658
 40
1.0
 40
1.0
 40
1.0
 40
1.0
 10
130.8457859671
 20
83.051380971
 30
0.0
 10
130.9071239165
 20
82.8448493145
 30
0.0
 10
130.9998861828
 20
82.4228118672
 30
0.0
 10
131.1106447797
 20
81.5676394618
 30
0.0
 10
131.1382886898
 20
80.9207554891
 30
0.0
 10
131.1461067227
 20
80.4899116937
 30
0.0
  0
SPLINE
  5
547
100
AcDbEntity
  8
GEOM
100
AcDbSpline
 62
7
  6
CONTINUOUS
 70
0
 71
3
 72
10
 73
6
 74
0
 42
0.0000001
 43
0.0000001
 44
0.0000000001
 40
0.0
 40
0.0
 40
0.0
 40
0.0
 40
0.5405638066
 40
0.7848824072
 40
1.0
 40
1.0
 40
1.0
 40
1.0
 10
135.6053256638
 20
70.2107605374
 30
0.0
 10
135.5666591562
 20
69.9577710018
 30
0.0
 10
135.5345786482
 20
69.5856048559
 30
0.0
 10
135.5532479324
 20
69.1120973575
 30
0.0
 10
135.5838089021
 20
68.8960945831
 30
0.0
 10
135.6053254395
 20
68.7965469751
 30
0.0
  0
SPLINE
  5
548
100
AcDbEntity
  8
GEOM
100
AcDbSpline
 62
7
  6
CONTINUOUS
 70
0
 71
3
 72
14
 73
10
 74
0
 42
0.0000001
 43
0.0000001
 44
0.0000000001
 40
0.0
 40
0.0
 40
0.0
 40
0.0
 40
0.1373382085
 40
0.2735826181
 40
0.4073041811
 40
0.5368934153
 40
0.6612616587
 40
0.7799855685
 40
1.0
 40
1.0
 40
1.0
 40
1.0
 10
130.8457859671
 20
70.2107605374
 30
0.0
 10
130.8205478489
 20
70.1478395328
 30
0.0
 10
130.7711446483
 20
70.0221357662
 30
0.0
 10
130.7061886217
 20
69.8317191369
 30
0.0
 10
130.6596056341
 20
69.6396150045
 30
0.0
 10
130.6416120328
 20
69.4481779195
 30
0.0
 10
130.6581518987
 20
69.2638683681
 30
0.0
 10
130.718102486
 20
69.0423650721
 30
0.0
 10
130.7921974482
 20
68.8910104878
 30
0.0
 10
130.8457859671
 20
68.7965469751
 30
0.0
  0
SPLINE
  5
549
100
AcDbEntity
  8
GEOM
100
AcDbSpline
 62
7
  6
CONTINUOUS
 70
0
 71
3
 72
13
 73
9
 74
0
 42
0.0000001
 43
0.0000001
 44
0.0000000001
 40
0.0
 40
0.0
 40
0.0
 40
0.0
 40
0.251237888
 40
0.3758107234
 40
0.5000205446
 40
0.6242262699
 40
0.7487901343
 40
1.0
 40
1.0
 40
1.0
 40
1.0
 10
135.6053241388
 20
68.7965469751
 30
0.0
 10
135.8190204905
 20
68.0557544059
 30
0.0
 10
136.0755485403
 20
66.9268992779
 30
0.0
 10
136.2521436498
 20
65.4014690998
 30
0.0
 10
136.2968391429
 20
64.2565241421
 30
0.0
 10
136.2521279055
 20
63.1116073083
 30
0.0
 10
136.0755184922
 20
61.5863056659
 30
0.0
 10
135.8190000777
 20
60.457566148
 30
0.0
 10
135.6053241388
 20
59.7168571919
 30
0.0
  0
SPLINE
  5
54A
100
AcDbEntity
  8
GEOM
100
AcDbSpline
 62
7
  6
CONTINUOUS
 70
0
 71
3
 72
10
 73
6
 74
0
 42
0.0000001
 43
0.0000001
 44
0.0000000001
 40
0.0
 40
0.0
 40
0.0
 40
0.0
 40
0.496209573
 40
0.7461711784
 40
1.0
 40
1.0
 40
1.0
 40
1.0
 10
131.1461067227
 20
61.5280894877
 30
0.0
 10
131.1382781675
 20
61.2230345779
 30
0.0
 10
131.110336925
 20
60.7635102655
 30
0.0
 10
130.9991809739
 20
60.1579437536
 30
0.0
 10
130.9062438772
 20
59.8607829177
 30
0.0
 10
130.8457896783
 20
59.7168669275
 30
0.0
  0
SPLINE
  5
54B
100
AcDbEntity
  8
GEOM
100
AcDbSpline
 62
7
  6
CONTINUOUS
 70
0
 71
3
 72
10
 73
6
 74
0
 42
0.0000001
 43
0.0000001
 44
0.0000000001
 40
0.0
 40
0.0
 40
0.0
 40
0.0
 40
0.2538740346
 40
0.5038257035
 40
1.0
 40
1.0
 40
1.0
 40
1.0
 10
130.8457859671
 20
68.7965469751
 30
0.0
 10
130.9062389849
 20
68.6525992882
 30
0.0
 10
130.9992005442
 20
68.3554229307
 30
0.0
 10
131.1103443128
 20
67.749848139
 30
0.0
 10
131.1382787182
 20
67.2903497816
 30
0.0
 10
131.1461067227
 20
66.9853146793
 30
0.0
  0
SPLINE
  5
54C
100
AcDbEntity
  8
GEOM
100
AcDbSpline
 62
7
  6
CONTINUOUS
 70
0
 71
3
 72
16
 73
12
 74
0
 42
0.0000001
 43
0.0000001
 44
0.0000000001
 40
0.0
 40
0.0
 40
0.0
 40
0.0
 40
0.2167802056
 40
0.4090120694
 40
0.5741747192
 40
0.7108728038
 40
0.8185559389
 40
0.8981423903
 40
0.9539531066
 40
0.9769661273
 40
1.0
 40
1.0
 40
1.0
 40
1.0
 10
135.6053256638
 20
59.7168571919
 30
0.0
 10
135.5959098238
 20
59.6732960851
 30
0.0
 10
135.5792564742
 20
59.5908573747
 30
0.0
 10
135.5599384188
 20
59.4743784255
 30
0.0
 10
135.5480062687
 20
59.3734444631
 30
0.0
 10
135.5434201315
 20
59.2893225277
 30
0.0
 10
135.5463272511
 20
59.2225393957
 30
0.0
 10
135.5560089907
 20
59.1734355756
 30
0.0
 10
135.572659395
 20
59.1436570533
 30
0.0
 10
135.5910012997
 20
59.1325862088
 30
0.0
 10
135.6005899826
 20
59.131071531
 30
0.0
 10
135.6053254395
 20
59.1310707542
 30
0.0
  0
SPLINE
  5
54D
100
AcDbEntity
  8
GEOM
100
AcDbSpline
 62
7
  6
CONTINUOUS
 70
0
 71
3
 72
16
 73
12
 74
0
 42
0.0000001
 43
0.0000001
 44
0.0000000001
 40
0.0
 40
0.0
 40
0.0
 40
0.0
 40
0.194023198
 40
0.3681350437
 40
0.5157913097
 40
0.5781754516
 40
0.6329494411
 40
0.7251799726
 40
0.8112091958
 40
0.902607059
 40
1.0
 40
1.0
 40
1.0
 40
1.0
 10
130.8457911477
 20
59.7168669275
 30
0.0
 10
130.8215562547
 20
59.6741474973
 30
0.0
 10
130.7746157418
 20
59.5936200606
 30
0.0
 10
130.71045064
 20
59.4799816631
 30
0.0
 10
130.6689838539
 20
59.3915694344
 30
0.0
 10
130.6508938459
 20
59.3267840822
 30
0.0
 10
130.64439634
 20
59.2740509977
 30
0.0
 10
130.6572726975
 20
59.2133614137
 30
0.0
 10
130.7075363441
 20
59.1629409525
 30
0.0
 10
130.7731063984
 20
59.1365331298
 30
0.0
 10
130.821131952
 20
59.1310713882
 30
0.0
 10
130.8457859671
 20
59.1310707542
 30
0.0
  0
SPLINE
  5
54E
100
AcDbEntity
  8
0
100
AcDbSpline
 62
7
  6
CONTINUOUS
 70
0
 71
3
 72
9
 73
5
 74
0
 42
0.0000001
 43
0.0000001
 44
0.0000000001
 40
0.0
 40
0.0
 40
0.0
 40
0.0
 40
0.3243637675
 40
1.0
 40
1.0
 40
1.0
 40
1.0
 10
143.4861890779
 20
93.6310707542
 30
0.0
 10
143.4886699324
 20
93.6310707542
 30
0.0
 10
143.4941844955
 20
93.6235199985
 30
0.0
 10
143.4960806086
 20
93.6167890271
 30
0.0
 10
143.4975439748
 20
93.611833042
 30
0.0
  0
SPLINE
  5
54F
100
AcDbEntity
  8
0
100
AcDbSpline
 62
7
  6
CONTINUOUS
 70
0
 71
3
 72
44
 73
40
 74
0
 42
0.0000001
 43
0.0000001
 44
0.0000000001
 40
0.0
 40
0.0
 40
0.0
 40
0.0
 40
0.001747427
 40
0.0046266238
 40
0.0086397053
 40
0.0137786487
 40
0.020032807
 40
0.0273896697
 40
0.0453389222
 40
0.0674643213
 40
0.0935622843
 40
0.123393516
 40
0.1566851783
 40
0.1931302009
 40
0.2323937322
 40
0.3179123058
 40
0.4101022886
 40
0.5055840478
 40
0.6008531716
 40
0.692412293
 40
0.7357426327
 40
0.7769042201
 40
0.8155175744
 40
0.8512283152
 40
0.8837089851
 40
0.9126602072
 40
0.9378165518
 40
0.9488986288
 40
0.9589481367
 40
0.9679418553
 40
0.9758604807
 40
0.9826851627
 40
0.9884005335
 40
0.9929954559
 40
0.9964599652
 40
0.9977667461
 40
0.9987904045
 40
0.9995327875
 40
1.0
 40
1.0
 40
1.0
 40
1.0
 10
143.4975439748
 20
93.611833042
 30
0.0
 10
143.5031504459
 20
93.5928455962
 30
0.0
 10
143.5113134492
 20
93.5408314843
 30
0.0
 10
143.5223381284
 20
93.4436799108
 30
0.0
 10
143.533221757
 20
93.3077319408
 30
0.0
 10
143.5444592898
 20
93.1335664408
 30
0.0
 10
143.555708443
 20
92.9214203651
 30
0.0
 10
143.5718941375
 20
92.5642192593
 30
0.0
 10
143.5914601039
 20
92.0271784403
 30
0.0
 10
143.613907966
 20
91.2777958829
 30
0.0
 10
143.6364570015
 20
90.3937434636
 30
0.0
 10
143.6590943426
 20
89.3831482108
 30
0.0
 10
143.6817786988
 20
88.2552982768
 30
0.0
 10
143.7045008616
 20
87.0205643074
 30
0.0
 10
143.7357228116
 20
85.1941715559
 30
0.0
 10
143.7740361972
 20
82.7362346831
 30
0.0
 10
143.8189485961
 20
79.6413889379
 30
0.0
 10
143.8639104953
 20
76.436061693
 30
0.0
 10
143.9088747719
 20
73.2378827556
 30
0.0
 10
143.9469498172
 20
70.6305266059
 30
0.0
 10
143.9778834048
 20
68.6361561574
 30
0.0
 10
144.0006429353
 20
67.241592544
 30
0.0
 10
144.0233827976
 20
65.9333686815
 30
0.0
 10
144.0460969143
 20
64.7235126653
 30
0.0
 10
144.0687702185
 20
63.6231459262
 30
0.0
 10
144.0913935515
 20
62.6423847317
 30
0.0
 10
144.1109032127
 20
61.9040591544
 30
0.0
 10
144.1267680229
 20
61.37986899
 30
0.0
 10
144.1381457192
 20
61.0387465161
 30
0.0
 10
144.1495070363
 20
60.7334866995
 30
0.0
 10
144.1608380955
 20
60.4647895508
 30
0.0
 10
144.1721328455
 20
60.2332730347
 30
0.0
 10
144.1833481841
 20
60.0394545014
 30
0.0
 10
144.1944995067
 20
59.8837932535
 30
0.0
 10
144.2042611505
 20
59.7780898026
 30
0.0
 10
144.2125478763
 20
59.7129728589
 30
0.0
 10
144.2180560138
 20
59.6785483061
 30
0.0
 10
144.2235245691
 20
59.6539097836
 30
0.0
 10
144.2277551139
 20
59.6406969886
 30
0.0
 10
144.2303958539
 20
59.6361093452
 30
0.0
  0
SPLINE
  5
550
100
AcDbEntity
  8
GEOM
100
AcDbSpline
 62
7
  6
CONTINUOUS
 70
0
 71
3
 72
10
 73
6
 74
0
 42
0.0000001
 43
0.0000001
 44
0.0000000001
 40
0.0
 40
0.0
 40
0.0
 40
0.0
 40
0.50133999
 40
0.751028051
 40
1.0
 40
1.0
 40
1.0
 40
1.0
 10
130.448770434
 20
72.7848839041
 30
0.0
 10
130.4456193581
 20
72.3798871016
 30
0.0
 10
130.4348446951
 20
71.77306345
 30
0.0
 10
130.3896089666
 20
70.9664038021
 30
0.0
 10
130.3506200766
 20
70.5651727611
 30
0.0
 10
130.3236356462
 20
70.3658583685
 30
0.0
  0
SPLINE
  5
551
100
AcDbEntity
  8
GEOM
100
AcDbSpline
 62
7
  6
CONTINUOUS
 70
0
 71
3
 72
10
 73
6
 74
0
 42
0.0000001
 43
0.0000001
 44
0.0000000001
 40
0.0
 40
0.0
 40
0.0
 40
0.0
 40
0.5203776508
 40
0.7664144077
 40
1.0
 40
1.0
 40
1.0
 40
1.0
 10
130.3236356462
 20
70.3658583685
 30
0.0
 10
130.2800004628
 20
70.0442360813
 30
0.0
 10
130.222486412
 20
69.5669957162
 30
0.0
 10
130.2579845679
 20
68.9428960418
 30
0.0
 10
130.3004359649
 20
68.6466234878
 30
0.0
 10
130.3236367859
 20
68.5027911687
 30
0.0
  0
SPLINE
  5
552
100
AcDbEntity
  8
GEOM
100
AcDbSpline
 62
7
  6
CONTINUOUS
 70
0
 71
3
 72
10
 73
6
 74
0
 42
0.0000001
 43
0.0000001
 44
0.0000000001
 40
0.0
 40
0.0
 40
0.0
 40
0.0
 40
0.2550183671
 40
0.5066771006
 40
1.0
 40
1.0
 40
1.0
 40
1.0
 10
130.3236367859
 20
68.5027911687
 30
0.0
 10
130.3503721924
 20
68.3362162304
 30
0.0
 10
130.389273969
 20
68.0029801808
 30
0.0
 10
130.4343422813
 20
67.3428790552
 30
0.0
 10
130.4455677262
 20
66.8499348154
 30
0.0
 10
130.448770434
 20
66.5235938849
 30
0.0
  0
SPLINE
  5
553
100
AcDbEntity
  8
0
100
AcDbSpline
 62
7
  6
CONTINUOUS
 70
0
 71
3
 72
54
 73
50
 74
0
 42
0.0000001
 43
0.0000001
 44
0.0000000001
 40
0.0
 40
0.0
 40
0.0
 40
0.0
 40
0.0002797268
 40
0.0008398306
 40
0.0016877867
 40
0.0028250187
 40
0.0042517733
 40
0.0059679139
 40
0.0079729333
 40
0.0102655995
 40
0.0157082298
 40
0.0222843507
 40
0.0299806403
 40
0.0387785954
 40
0.0486586805
 40
0.0595995122
 40
0.071574872
 40
0.0845577334
 40
0.1134259813
 40
0.1459381354
 40
0.181793998
 40
0.2206624286
 40
0.2621814249
 40
0.3059629338
 40
0.3515977503
 40
0.3986579846
 40
0.4952736999
 40
0.592166202
 40
0.6856634301
 40
0.7300179722
 40
0.7722042546
 40
0.8118156281
 40
0.8484708798
 40
0.8818154546
 40
0.9115242516
 40
0.9373085354
 40
0.9486488475
 40
0.9589165138
 40
0.968085568
 40
0.9761346919
 40
0.9830431855
 40
0.9887933945
 40
0.9933725539
 40
0.9952192562
 40
0.9967688916
 40
0.9980209558
 40
0.9989755713
 40
0.9996337166
 40
1.0
 40
1.0
 40
1.0
 40
1.0
 10
147.7748642569
 20
93.2650451694
 30
0.0
 10
147.7770266972
 20
93.262882729
 30
0.0
 10
147.779309915
 20
93.2533559386
 30
0.0
 10
147.7829373354
 20
93.2357153264
 30
0.0
 10
147.7862197548
 20
93.2078337305
 30
0.0
 10
147.7898173628
 20
93.17080545
 30
0.0
 10
147.7933565187
 20
93.124105627
 30
0.0
 10
147.7969529893
 20
93.0679532474
 30
0.0
 10
147.8005503889
 20
93.0022993815
 30
0.0
 10
147.8056611883
 20
92.8959361022
 30
0.0
 10
147.8118971443
 20
92.7395954062
 30
0.0
 10
147.819072278
 20
92.5241770757
 30
0.0
 10
147.8262733779
 20
92.2720589318
 30
0.0
 10
147.8334995222
 20
91.9838080542
 30
0.0
 10
147.840741252
 20
91.660076208
 30
0.0
 10
147.8479942291
 20
91.3015994419
 30
0.0
 10
147.8552582469
 20
90.9091950431
 30
0.0
 10
147.8653134738
 20
90.3208153251
 30
0.0
 10
147.8777325838
 20
89.507922679
 30
0.0
 10
147.8922100563
 20
88.4449717666
 30
0.0
 10
147.9067241866
 20
87.2726837713
 30
0.0
 10
147.9212694868
 20
86.0019206984
 30
0.0
 10
147.935840292
 20
84.6445043852
 30
0.0
 10
147.950433271
 20
83.2131098231
 30
0.0
 10
147.9650455386
 20
81.7211320849
 30
0.0
 10
147.9847234973
 20
79.6515589278
 30
0.0
 10
148.0090041431
 20
77.0216224113
 30
0.0
 10
148.0379479083
 20
73.8840283631
 30
0.0
 10
148.0624821965
 20
71.3177705689
 30
0.0
 10
148.0824481071
 20
69.3495803331
 30
0.0
 10
148.0971634691
 20
67.9704820366
 30
0.0
 10
148.1118791508
 20
66.6755623705
 30
0.0
 10
148.1265908013
 20
65.4773125491
 30
0.0
 10
148.1412883911
 20
64.3873326495
 30
0.0
 10
148.155965805
 20
63.4162128721
 30
0.0
 10
148.1686372898
 20
62.6856561661
 30
0.0
 10
148.1789543498
 20
62.167635997
 30
0.0
 10
148.1863516355
 20
61.8312427941
 30
0.0
 10
148.1937401623
 20
61.530840248
 30
0.0
 10
148.201114273
 20
61.2671747294
 30
0.0
 10
148.2084583525
 20
61.0409008186
 30
0.0
 10
148.2157736691
 20
60.8525879321
 30
0.0
 10
148.222162813
 20
60.7196168602
 30
0.0
 10
148.2274715704
 20
60.6325895684
 30
0.0
 10
148.2311289659
 20
60.581888577
 30
0.0
 10
148.2348040904
 20
60.5410162365
 30
0.0
 10
148.2382914711
 20
60.5098079315
 30
0.0
 10
148.2419278679
 20
60.4886235519
 30
0.0
 10
148.2444791554
 20
60.477478688
 30
0.0
 10
148.2464764368
 20
60.4740078894
 30
0.0
  0
SPLINE
  5
554
100
AcDbEntity
  8
GEOM
100
AcDbSpline
 62
7
  6
CONTINUOUS
 70
0
 71
3
 72
10
 73
6
 74
0
 42
0.0000001
 43
0.0000001
 44
0.0000000001
 40
0.0
 40
0.0
 40
0.0
 40
0.0
 40
0.5102844905
 40
0.7571712449
 40
1.0
 40
1.0
 40
1.0
 40
1.0
 10
130.448770434
 20
61.084264278
 30
0.0
 10
130.4456832845
 20
60.8376787223
 30
0.0
 10
130.4354513049
 20
60.4715541084
 30
0.0
 10
130.3899408243
 20
59.9902946013
 30
0.0
 10
130.3506465284
 20
59.7564061411
 30
0.0
 10
130.3235854264
 20
59.6422171754
 30
0.0
  0
SPLINE
  5
555
100
AcDbEntity
  8
GEOM
100
AcDbSpline
 62
7
  6
CONTINUOUS
 70
0
 71
3
 72
12
 73
8
 74
0
 42
0.0000001
 43
0.0000001
 44
0.0000000001
 40
0.0
 40
0.0
 40
0.0
 40
0.0
 40
0.337219409
 40
0.4829273727
 40
0.6130888861
 40
0.8305472693
 40
1.0
 40
1.0
 40
1.0
 40
1.0
 10
130.3235854264
 20
59.6422171754
 30
0.0
 10
130.3029479511
 20
59.5553161345
 30
0.0
 10
130.2724111363
 20
59.4310198544
 30
0.0
 10
130.2460914043
 20
59.2706173973
 30
0.0
 10
130.2367926573
 20
59.1401116435
 30
0.0
 10
130.2536161876
 20
59.0021437244
 30
0.0
 10
130.297679852
 20
58.9073502026
 30
0.0
 10
130.3236367859
 20
58.8707352435
 30
0.0
  0
SPLINE
  5
556
100
AcDbEntity
  8
GEOM
100
AcDbSpline
 62
7
  6
CONTINUOUS
 70
0
 71
3
 72
9
 73
5
 74
0
 42
0.0000001
 43
0.0000001
 44
0.0000000001
 40
0.0
 40
0.0
 40
0.0
 40
0.0
 40
0.5747510908
 40
1.0
 40
1.0
 40
1.0
 40
1.0
 10
130.3236367859
 20
58.8707352435
 30
0.0
 10
130.3682083343
 20
58.8075432624
 30
0.0
 10
130.4240305977
 20
58.681450145
 30
0.0
 10
130.4451024945
 20
58.5478501595
 30
0.0
 10
130.448770434
 20
58.4907530341
 30
0.0
  0
LINE
  5
557
100
AcDbEntity
  8
GEOM
100
AcDbLine
 62
7
  6
CONTINUOUS
 10
130.448770434
 20
58.4907530341
 11
130.4841671097
 21
58.4920797639
  0
SPLINE
  5
558
100
AcDbEntity
  8
0
100
AcDbSpline
 62
7
  6
CONTINUOUS
 70
0
 71
3
 72
28
 73
24
 74
0
 42
0.0000001
 43
0.0000001
 44
0.0000000001
 40
0.0
 40
0.0
 40
0.0
 40
0.0
 40
0.0009676713
 40
0.0025116046
 40
0.0046443789
 40
0.0073688464
 40
0.0145924781
 40
0.0241747636
 40
0.0360935576
 40
0.0503166929
 40
0.0668101065
 40
0.085529573
 40
0.1064243102
 40
0.1294418721
 40
0.1815902717
 40
0.2414237135
 40
0.3083056688
 40
0.3815265008
 40
0.4603103566
 40
0.5438193873
 40
0.6311683574
 40
0.8136357407
 40
1.0
 40
1.0
 40
1.0
 40
1.0
 10
145.1526700794
 20
60.6364205121
 30
0.0
 10
145.1498166637
 20
60.6413562307
 30
0.0
 10
145.1452696699
 20
60.6556349057
 30
0.0
 10
145.1393969563
 20
60.6822859363
 30
0.0
 10
145.133487893
 20
60.7195878279
 30
0.0
 10
145.1245949965
 20
60.7901909257
 30
0.0
 10
145.114111108
 20
60.9048180658
 30
0.0
 10
145.1021253271
 20
61.0736233682
 30
0.0
 10
145.0900704509
 20
61.2837607496
 30
0.0
 10
145.0779264102
 20
61.5346595454
 30
0.0
 10
145.0657489706
 20
61.8256659462
 30
0.0
 10
145.053541439
 20
62.15600689
 30
0.0
 10
145.041312724
 20
62.5248084968
 30
0.0
 10
145.0242747075
 20
63.0905072413
 30
0.0
 10
145.0033215562
 20
63.8856010367
 30
0.0
 10
144.9790140554
 20
64.9391220364
 30
0.0
 10
144.9546513424
 20
66.1168223267
 30
0.0
 10
144.9302459917
 20
67.4061921436
 30
0.0
 10
144.9058138632
 20
68.7935383027
 30
0.0
 10
144.8813609411
 20
70.2641339981
 30
0.0
 10
144.8482581496
 20
72.3455352713
 30
0.0
 10
144.807561822
 20
75.0328772493
 30
0.0
 10
144.7753099101
 20
77.2056594405
 30
0.0
 10
144.758838672
 20
78.3035261665
 30
0.0
  0
SPLINE
  5
559
100
AcDbEntity
  8
GEOM
100
AcDbSpline
 62
7
  6
CONTINUOUS
 70
0
 71
3
 72
9
 73
5
 74
0
 42
0.0000001
 43
0.0000001
 44
0.0000000001
 40
0.0
 40
0.0
 40
0.0
 40
0.0
 40
0.4252491043
 40
1.0
 40
1.0
 40
1.0
 40
1.0
 10
130.448770434
 20
94.7713884743
 30
0.0
 10
130.4451025669
 20
94.7142915004
 30
0.0
 10
130.4240348857
 20
94.5806893104
 30
0.0
 10
130.3681978692
 20
94.4546062258
 30
0.0
 10
130.3236347134
 20
94.391408659
 30
0.0
  0
SPLINE
  5
55A
100
AcDbEntity
  8
GEOM
100
AcDbSpline
 62
7
  6
CONTINUOUS
 70
0
 71
3
 72
11
 73
7
 74
0
 42
0.0000001
 43
0.0000001
 44
0.0000000001
 40
0.0
 40
0.0
 40
0.0
 40
0.0
 40
0.1694897695
 40
0.3870147141
 40
0.6626690047
 40
1.0
 40
1.0
 40
1.0
 40
1.0
 10
130.3236347134
 20
94.391408659
 30
0.0
 10
130.2976882937
 20
94.3547744991
 30
0.0
 10
130.2535513519
 20
94.2599702818
 30
0.0
 10
130.2322613388
 20
94.0831519088
 30
0.0
 10
130.264559341
 20
93.8641945594
 30
0.0
 10
130.3029892836
 20
93.7066271017
 30
0.0
 10
130.3236367859
 20
93.6196985202
 30
0.0
  0
SPLINE
  5
55B
100
AcDbEntity
  8
GEOM
100
AcDbSpline
 62
7
  6
CONTINUOUS
 70
0
 71
3
 72
10
 73
6
 74
0
 42
0.0000001
 43
0.0000001
 44
0.0000000001
 40
0.0
 40
0.0
 40
0.0
 40
0.0
 40
0.2428520101
 40
0.4897342794
 40
1.0
 40
1.0
 40
1.0
 40
1.0
 10
130.3236367859
 20
93.6196985202
 30
0.0
 10
130.3506635483
 20
93.5055090871
 30
0.0
 10
130.3899852103
 20
93.2716569948
 30
0.0
 10
130.4354409352
 20
92.7904668748
 30
0.0
 10
130.4456847773
 20
92.4244144441
 30
0.0
 10
130.448770434
 20
92.1778772304
 30
0.0
  0
SPLINE
  5
55C
100
AcDbEntity
  8
0
100
AcDbSpline
 62
7
  6
CONTINUOUS
 70
0
 71
3
 72
41
 73
37
 74
0
 42
0.0000001
 43
0.0000001
 44
0.0000000001
 40
0.0
 40
0.0
 40
0.0
 40
0.0
 40
0.0028158749
 40
0.0067329438
 40
0.0178395757
 40
0.0332267373
 40
0.0527621166
 40
0.0762716397
 40
0.1035462608
 40
0.1343444317
 40
0.1683912533
 40
0.2449911242
 40
0.3306227682
 40
0.4222401119
 40
0.5165854004
 40
0.610302804
 40
0.700057391
 40
0.7424428622
 40
0.7826585101
 40
0.8203448396
 40
0.855166563
 40
0.8868138073
 40
0.9150041988
 40
0.9394874851
 40
0.9502698007
 40
0.9600464066
 40
0.9687950463
 40
0.9764976039
 40
0.9831365585
 40
0.9886971716
 40
0.9931690179
 40
0.9965428815
 40
0.9978165836
 40
0.9988153692
 40
0.9995411333
 40
1.0
 40
1.0
 40
1.0
 40
1.0
 10
147.408838672
 20
59.7075267298
 30
0.0
 10
147.4041686178
 20
59.7390308165
 30
0.0
 10
147.3958397488
 20
59.814762153
 30
0.0
 10
147.3793318245
 20
60.0158548391
 30
0.0
 10
147.3603777299
 20
60.3593400207
 30
0.0
 10
147.338558628
 20
60.8794773314
 30
0.0
 10
147.3166202031
 20
61.5400081117
 30
0.0
 10
147.2944454336
 20
62.3350325547
 30
0.0
 10
147.2721985954
 20
63.2574858016
 30
0.0
 10
147.2498799126
 20
64.2991462491
 30
0.0
 10
147.2188399064
 20
65.8986274289
 30
0.0
 10
147.1809128437
 20
68.1182693209
 30
0.0
 10
147.136764876
 20
70.9890328125
 30
0.0
 10
147.0925154564
 20
74.0605224756
 30
0.0
 10
147.0482165737
 20
77.2234725968
 30
0.0
 10
147.0039253946
 20
80.3653524578
 30
0.0
 10
146.9663980689
 20
82.9195890271
 30
0.0
 10
146.9359163044
 20
84.8687426722
 30
0.0
 10
146.9135057148
 20
86.2290433608
 30
0.0
 10
146.8911144661
 20
87.5037840047
 30
0.0
 10
146.8687489531
 20
88.6815980441
 30
0.0
 10
146.846423577
 20
89.7519902732
 30
0.0
 10
146.8241479386
 20
90.705424665
 30
0.0
 10
146.8049351628
 20
91.4228751946
 30
0.0
 10
146.7893120651
 20
91.9320763174
 30
0.0
 10
146.7781112626
 20
92.2633645534
 30
0.0
 10
146.7669277545
 20
92.5597983214
 30
0.0
 10
146.755771662
 20
92.8207180229
 30
0.0
 10
146.744644772
 20
93.0455422361
 30
0.0
 10
146.7335904385
 20
93.2337843512
 30
0.0
 10
146.7226061936
 20
93.385011032
 30
0.0
 10
146.7130120802
 20
93.4877424568
 30
0.0
 10
146.704883464
 20
93.5510725182
 30
0.0
 10
146.6994718403
 20
93.5845959681
 30
0.0
 10
146.6940935493
 20
93.6086361093
 30
0.0
 10
146.6899167068
 20
93.621539843
 30
0.0
 10
146.6873192943
 20
93.6260330201
 30
0.0
  0
SPLINE
  5
55D
100
AcDbEntity
  8
0
100
AcDbSpline
 62
7
  6
CONTINUOUS
 70
0
 71
3
 72
29
 73
25
 74
0
 42
0.0000001
 43
0.0000001
 44
0.0000000001
 40
0.0
 40
0.0
 40
0.0
 40
0.0
 40
0.1865328047
 40
0.3691567919
 40
0.4565705148
 40
0.5401340266
 40
0.6189596037
 40
0.6922066718
 40
0.7590956116
 40
0.8189168075
 40
0.8710352732
 40
0.8940285993
 40
0.9148965787
 40
0.933581729
 40
0.9500355037
 40
0.9642158807
 40
0.9760835237
 40
0.9856107008
 40
0.9894894471
 40
0.9927748202
 40
0.9954657219
 40
0.9975631009
 40
0.9990704421
 40
1.0
 40
1.0
 40
1.0
 40
1.0
 10
145.3361889904
 20
78.4080511424
 30
0.0
 10
145.3526750167
 20
77.2405105932
 30
0.0
 10
145.3849553214
 20
74.9298906192
 30
0.0
 10
145.4256882711
 20
72.0721432922
 30
0.0
 10
145.4588220002
 20
69.8589203549
 30
0.0
 10
145.4832971144
 20
68.2953975981
 30
0.0
 10
145.5077513795
 20
66.8205662283
 30
0.0
 10
145.5321782208
 20
65.4501290438
 30
0.0
 10
145.5565621515
 20
64.1986748318
 30
0.0
 10
145.5808916809
 20
63.0795079987
 30
0.0
 10
145.6018623099
 20
62.2351132296
 30
0.0
 10
145.6189199314
 20
61.63454117
 30
0.0
 10
145.6311576416
 20
61.2432039055
 30
0.0
 10
145.6433753942
 20
60.8928241247
 30
0.0
 10
145.6555676658
 20
60.5843351521
 30
0.0
 10
145.6677087834
 20
60.3185567581
 30
0.0
 10
145.6797982676
 20
60.0961901851
 30
0.0
 10
145.6903509941
 20
59.9383239651
 30
0.0
 10
145.6990802106
 20
59.8342058933
 30
0.0
 10
145.7051377715
 20
59.7728030119
 30
0.0
 10
145.7111746308
 20
59.7226408195
 30
0.0
 10
145.7170723262
 20
59.6836132917
 30
0.0
 10
145.722954482
 20
59.6559356408
 30
0.0
 10
145.7274766335
 20
59.6411498361
 30
0.0
 10
145.7303827946
 20
59.6361086912
 30
0.0
  0
SPLINE
  5
55E
100
AcDbEntity
  8
0
100
AcDbSpline
 62
7
  6
CONTINUOUS
 70
0
 71
3
 72
31
 73
27
 74
0
 42
0.0000001
 43
0.0000001
 44
0.0000000001
 40
0.0
 40
0.0
 40
0.0
 40
0.0
 40
0.0004633344
 40
0.0014125182
 40
0.0029193209
 40
0.0049978008
 40
0.0076523656
 40
0.0108845858
 40
0.0190800687
 40
0.0295706258
 40
0.0423373672
 40
0.0573567501
 40
0.0745956224
 40
0.0940190669
 40
0.1155882093
 40
0.1392557132
 40
0.1649730092
 40
0.2223389015
 40
0.2872055095
 40
0.3590283623
 40
0.4372062074
 40
0.5210830341
 40
0.6099565585
 40
0.7030796257
 40
0.7996665876
 40
1.0
 40
1.0
 40
1.0
 40
1.0
 10
144.986189211
 20
93.6310707542
 30
0.0
 10
144.9885418376
 20
93.6310707542
 30
0.0
 10
144.9938231064
 20
93.6241987635
 30
0.0
 10
144.9979952073
 20
93.6108344114
 30
0.0
 10
145.0035496351
 20
93.5880241899
 30
0.0
 10
145.00866098
 20
93.5569251401
 30
0.0
 10
145.0140775851
 20
93.5167733519
 30
0.0
 10
145.0218578066
 20
93.4457202378
 30
0.0
 10
145.0312396026
 20
93.3347910724
 30
0.0
 10
145.0419293059
 20
93.1754502662
 30
0.0
 10
145.0526886821
 20
92.9813878553
 30
0.0
 10
145.0634970533
 20
92.7530241201
 30
0.0
 10
145.074336553
 20
92.4908274818
 30
0.0
 10
145.0851968487
 20
92.195350286
 30
0.0
 10
145.0960699272
 20
91.8672116964
 30
0.0
 10
145.1069554076
 20
91.5071000464
 30
0.0
 10
145.1220341353
 20
90.9652720939
 30
0.0
 10
145.1406400167
 20
90.214271012
 30
0.0
 10
145.1622935841
 20
89.2291727073
 30
0.0
 10
145.1839844671
 20
88.1383774907
 30
0.0
 10
145.2057041263
 20
86.9510392521
 30
0.0
 10
145.2274435899
 20
85.677111481
 30
0.0
 10
145.2491978268
 20
84.3272877568
 30
0.0
 10
145.270962537
 20
82.9129192717
 30
0.0
 10
145.3003492579
 20
80.9326526701
 30
0.0
 10
145.3218270682
 20
79.4251626785
 30
0.0
 10
145.3361889904
 20
78.4080511424
 30
0.0
  0
SPLINE
  5
55F
100
AcDbEntity
  8
0
100
AcDbSpline
 62
7
  6
CONTINUOUS
 70
0
 71
3
 72
9
 73
5
 74
0
 42
0.0000001
 43
0.0000001
 44
0.0000000001
 40
0.0
 40
0.0
 40
0.0
 40
0.0
 40
0.3243462442
 40
1.0
 40
1.0
 40
1.0
 40
1.0
 10
145.9314882851
 20
59.6310707542
 30
0.0
 10
145.929012558
 20
59.6310707542
 30
0.0
 10
145.9235095422
 20
59.6386064529
 30
0.0
 10
145.9216148706
 20
59.645322794
 30
0.0
 10
145.9201531865
 20
59.6502685697
 30
0.0
  0
SPLINE
  5
560
100
AcDbEntity
  8
0
100
AcDbSpline
 62
7
  6
CONTINUOUS
 70
0
 71
3
 72
44
 73
40
 74
0
 42
0.0000001
 43
0.0000001
 44
0.0000000001
 40
0.0
 40
0.0
 40
0.0
 40
0.0
 40
0.0017463092
 40
0.0046244008
 40
0.0086363595
 40
0.0137741849
 40
0.0200272809
 40
0.0273830967
 40
0.0453304819
 40
0.0674544451
 40
0.0935511492
 40
0.1233812227
 40
0.1566719559
 40
0.1931163255
 40
0.232379416
 40
0.3178976572
 40
0.4100884508
 40
0.5055697963
 40
0.6008387955
 40
0.6923999686
 40
0.7357319462
 40
0.7768955716
 40
0.8155112337
 40
0.8512238379
 40
0.883705776
 40
0.9126577776
 40
0.937814791
 40
0.9488971944
 40
0.9589470009
 40
0.9679409794
 40
0.9758598305
 40
0.9826847104
 40
0.9884002495
 40
0.9929953011
 40
0.9964598832
 40
0.9977666765
 40
0.998790339
 40
0.9995327319
 40
1.0
 40
1.0
 40
1.0
 40
1.0
 10
145.9201531865
 20
59.6502685697
 30
0.0
 10
145.9145455932
 20
59.6692425044
 30
0.0
 10
145.9063790515
 20
59.7212308804
 30
0.0
 10
145.8953485482
 20
59.8183436597
 30
0.0
 10
145.8844642715
 20
59.9542538667
 30
0.0
 10
145.8732278305
 20
60.1283821072
 30
0.0
 10
145.8619805326
 20
60.3404919481
 30
0.0
 10
145.8457949069
 20
60.6976483861
 30
0.0
 10
145.8262274929
 20
61.2346405053
 30
0.0
 10
145.8037796037
 20
61.9839722764
 30
0.0
 10
145.7812303199
 20
62.8679821115
 30
0.0
 10
145.7585925645
 20
63.8785406795
 30
0.0
 10
145.7359078882
 20
65.0063609434
 30
0.0
 10
145.7131854127
 20
66.2410735066
 30
0.0
 10
145.681962887
 20
68.0674523397
 30
0.0
 10
145.6436488256
 20
70.5253926581
 30
0.0
 10
145.5987359783
 20
73.6202429441
 30
0.0
 10
145.5537738705
 20
76.8255772225
 30
0.0
 10
145.5088094284
 20
80.0237772464
 30
0.0
 10
145.4707341077
 20
82.6311770003
 30
0.0
 10
145.4397998309
 20
84.6256147952
 30
0.0
 10
145.4170394583
 20
86.0202479166
 30
0.0
 10
145.3942987241
 20
87.3285437347
 30
0.0
 10
145.3715836598
 20
88.5384628637
 30
0.0
 10
145.3489097304
 20
89.6388752671
 30
0.0
 10
145.3262862071
 20
90.6196684526
 30
0.0
 10
145.3067757436
 20
91.3580150319
 30
0.0
 10
145.2909105827
 20
91.882220496
 30
0.0
 10
145.2795332905
 20
92.2233534344
 30
0.0
 10
145.2681727532
 20
92.5286225476
 30
0.0
 10
145.2568417681
 20
92.7973277852
 30
0.0
 10
145.2455446486
 20
93.0288511915
 30
0.0
 10
145.2343256082
 20
93.2226753788
 30
0.0
 10
145.223173089
 20
93.3783409052
 30
0.0
 10
145.2134178609
 20
93.4840474477
 30
0.0
 10
145.2051402341
 20
93.5491665525
 30
0.0
 10
145.1996369589
 20
93.5835923915
 30
0.0
 10
145.1941702982
 20
93.6082318793
 30
0.0
 10
145.1899374943
 20
93.6214455414
 30
0.0
 10
145.1872937119
 20
93.6260321659
 30
0.0
  0
SPLINE
  5
561
100
AcDbEntity
  8
0
100
AcDbSpline
 62
7
  6
CONTINUOUS
 70
0
 71
3
 72
9
 73
5
 74
0
 42
0.0000001
 43
0.0000001
 44
0.0000000001
 40
0.0
 40
0.0
 40
0.0
 40
0.0
 40
0.3266892234
 40
1.0
 40
1.0
 40
1.0
 40
1.0
 10
144.4314880913
 20
59.6310707542
 30
0.0
 10
144.4290911165
 20
59.6310707542
 30
0.0
 10
144.4237076274
 20
59.6381935303
 30
0.0
 10
144.4218380342
 20
59.6446732067
 30
0.0
 10
144.4204077986
 20
59.6494018394
 30
0.0
  0
SPLINE
  5
562
100
AcDbEntity
  8
0
100
AcDbSpline
 62
7
  6
CONTINUOUS
 70
0
 71
3
 72
25
 73
21
 74
0
 42
0.0000001
 43
0.0000001
 44
0.0000000001
 40
0.0
 40
0.0
 40
0.0
 40
0.0
 40
0.0014013802
 40
0.00337656
 40
0.0090612964
 40
0.017058346
 40
0.0273492794
 40
0.0399111989
 40
0.054713204
 40
0.0717156929
 40
0.0908774462
 40
0.1354715259
 40
0.1880359634
 40
0.2480261787
 40
0.3148218547
 40
0.3877330617
 40
0.4660048046
 40
0.6353350371
 40
0.8158146554
 40
1.0
 40
1.0
 40
1.0
 40
1.0
 10
144.4204077986
 20
59.6494018394
 30
0.0
 10
144.4178700503
 20
59.6577921214
 30
0.0
 10
144.413361783
 20
59.6784707136
 30
0.0
 10
144.4044239874
 20
59.7344366796
 30
0.0
 10
144.3942053634
 20
59.8318984062
 30
0.0
 10
144.3824420028
 20
59.9813752059
 30
0.0
 10
144.3706145205
 20
60.1739936105
 30
0.0
 10
144.3586530987
 20
60.4092215145
 30
0.0
 10
144.3466526936
 20
60.6864780588
 30
0.0
 10
144.3346082992
 20
61.0050465266
 30
0.0
 10
144.3176544513
 20
61.5099087323
 30
0.0
 10
144.2969164952
 20
62.2372035374
 30
0.0
 10
144.2729776508
 20
63.2198831331
 30
0.0
 10
144.2489644201
 20
64.3414685725
 30
0.0
 10
144.2248928296
 20
65.5903480474
 30
0.0
 10
144.2007837075
 20
66.9535975647
 30
0.0
 10
144.1677337317
 20
68.9581441678
 30
0.0
 10
144.1272068834
 20
71.6355004512
 30
0.0
 10
144.0796186406
 20
74.9753159667
 30
0.0
 10
144.0477548273
 20
77.2560827009
 30
0.0
 10
144.0314884369
 20
78.4080522133
 30
0.0
  0
SPLINE
  5
563
100
AcDbEntity
  8
0
100
AcDbSpline
 62
7
  6
CONTINUOUS
 70
0
 71
3
 72
28
 73
24
 74
0
 42
0.0000001
 43
0.0000001
 44
0.0000000001
 40
0.0
 40
0.0
 40
0.0
 40
0.0
 40
0.1971770839
 40
0.3841792743
 40
0.4719615515
 40
0.5549672486
 40
0.6325240347
 40
0.7040033503
 40
0.7688261401
 40
0.8264653115
 40
0.8764552158
 40
0.8984537397
 40
0.918393088
 40
0.9362326285
 40
0.951938634
 40
0.9654781939
 40
0.9768244221
 40
0.985958279
 40
0.9928631026
 40
0.9954772515
 40
0.9975339625
 40
0.9990373243
 40
1.0
 40
1.0
 40
1.0
 40
1.0
 10
144.0314884369
 20
78.4080522133
 30
0.0
 10
144.0173597544
 20
79.408631341
 30
0.0
 10
143.9895812657
 20
81.358153373
 30
0.0
 10
143.9536754081
 20
83.7531020348
 30
0.0
 10
143.9245280057
 20
85.5686627477
 30
0.0
 10
143.9031428523
 20
86.8288377045
 30
0.0
 10
143.8817766998
 20
88.0062624308
 30
0.0
 10
143.8604348473
 20
89.0913925755
 30
0.0
 10
143.8391313417
 20
90.0754199831
 30
0.0
 10
143.8178748743
 20
90.9503606654
 30
0.0
 10
143.7995376225
 20
91.6079710331
 30
0.0
 10
143.7846280176
 20
92.0742692367
 30
0.0
 10
143.7739398484
 20
92.3774535552
 30
0.0
 10
143.7632673385
 20
92.6486816973
 30
0.0
 10
143.752621885
 20
92.8874044738
 30
0.0
 10
143.7420081901
 20
93.0931361551
 30
0.0
 10
143.7314657565
 20
93.2654720456
 30
0.0
 10
143.7209861793
 20
93.4040525013
 30
0.0
 10
143.7118155798
 20
93.4983035655
 30
0.0
 10
143.7040490074
 20
93.5565257351
 30
0.0
 10
143.6988659845
 20
93.5874687376
 30
0.0
 10
143.6937282301
 20
93.609789593
 30
0.0
 10
143.6897341739
 20
93.6218014998
 30
0.0
 10
143.6872938606
 20
93.6260339933
 30
0.0
  0
SPLINE
  5
564
100
AcDbEntity
  8
GEOM
100
AcDbSpline
 62
7
  6
CONTINUOUS
 70
0
 71
3
 72
10
 73
6
 74
0
 42
0.0000001
 43
0.0000001
 44
0.0000000001
 40
0.0
 40
0.0
 40
0.0
 40
0.0
 40
0.4933307948
 40
0.7449914064
 40
1.0
 40
1.0
 40
1.0
 40
1.0
 10
130.448770434
 20
86.7385476235
 30
0.0
 10
130.4455675083
 20
86.4122015188
 30
0.0
 10
130.4343450745
 20
85.9192499572
 30
0.0
 10
130.3892586411
 20
85.2591517177
 30
0.0
 10
130.350392719
 20
84.925915409
 30
0.0
 10
130.3236367859
 20
84.7593503398
 30
0.0
  0
SPLINE
  5
565
100
AcDbEntity
  8
GEOM
100
AcDbSpline
 62
7
  6
CONTINUOUS
 70
0
 71
3
 72
10
 73
6
 74
0
 42
0.0000001
 43
0.0000001
 44
0.0000000001
 40
0.0
 40
0.0
 40
0.0
 40
0.0
 40
0.2335735326
 40
0.4796028218
 40
1.0
 40
1.0
 40
1.0
 40
1.0
 10
130.3236367859
 20
84.7593503398
 30
0.0
 10
130.3004131048
 20
84.6155298434
 30
0.0
 10
130.2579940002
 20
84.3192628267
 30
0.0
 10
130.2225810363
 20
83.6951705989
 30
0.0
 10
130.2798843858
 20
83.2179005491
 30
0.0
 10
130.3236367859
 20
82.8962830363
 30
0.0
  0
SPLINE
  5
566
100
AcDbEntity
  8
GEOM
100
AcDbSpline
 62
7
  6
CONTINUOUS
 70
0
 71
3
 72
10
 73
6
 74
0
 42
0.0000001
 43
0.0000001
 44
0.0000000001
 40
0.0
 40
0.0
 40
0.0
 40
0.0
 40
0.2489789857
 40
0.4986658936
 40
1.0
 40
1.0
 40
1.0
 40
1.0
 10
130.3236367859
 20
82.8962830363
 30
0.0
 10
130.3506090237
 20
82.6969612605
 30
0.0
 10
130.3896224137
 20
82.2957285055
 30
0.0
 10
130.4348373875
 20
81.4890668483
 30
0.0
 10
130.4456194991
 20
80.8822496474
 30
0.0
 10
130.448770434
 20
80.4772576044
 30
0.0
  0
SPLINE
  5
567
100
AcDbEntity
  8
0
100
AcDbSpline
 62
7
  6
CONTINUOUS
 70
0
 71
3
 72
11
 73
7
 74
0
 42
0.0000001
 43
0.0000001
 44
0.0000000001
 40
0.0
 40
0.0
 40
0.0
 40
0.0
 40
0.3448771346
 40
0.5928335173
 40
0.78554364
 40
1.0
 40
1.0
 40
1.0
 40
1.0
 10
147.408838672
 20
59.7075267298
 30
0.0
 10
147.4124864726
 20
59.7007575663
 30
0.0
 10
147.4194748302
 20
59.6895328521
 30
0.0
 10
147.4323514638
 20
59.6769018834
 30
0.0
 10
147.4477868012
 20
59.6739236341
 30
0.0
 10
147.456093709
 20
59.6790737492
 30
0.0
 10
147.4597268753
 20
59.6821823803
 30
0.0
  0
LINE
  5
568
100
AcDbEntity
  8
GEOM
100
AcDbLine
 62
7
  6
CONTINUOUS
 10
136.0383368407
 20
59.3971940358
 11
136.7149722819
 21
59.3810707542
  0
SPLINE
  5
569
100
AcDbEntity
  8
GEOM
100
AcDbSpline
 62
7
  6
CONTINUOUS
 70
0
 71
3
 72
15
 73
11
 74
0
 42
0.0000001
 43
0.0000001
 44
0.0000000001
 40
0.0
 40
0.0
 40
0.0
 40
0.0
 40
0.2128338044
 40
0.4014133183
 40
0.5631598279
 40
0.6968495633
 40
0.8024679185
 40
0.8822461431
 40
0.9430964504
 40
1.0
 40
1.0
 40
1.0
 40
1.0
 10
136.0383368407
 20
59.8425780615
 30
0.0
 10
136.0289575181
 20
59.8098168047
 30
0.0
 10
136.0123496304
 20
59.7477076367
 30
0.0
 10
135.9930264015
 20
59.6595915545
 30
0.0
 10
135.9810411863
 20
59.5829670756
 30
0.0
 10
135.9764319783
 20
59.5188030535
 30
0.0
 10
135.9793483838
 20
59.4676045798
 30
0.0
 10
135.9895288511
 20
59.4290517624
 30
0.0
 10
136.0097606181
 20
59.4027821188
 30
0.0
 10
136.0292281848
 20
59.3974003421
 30
0.0
 10
136.0383368407
 20
59.3971940358
 30
0.0
  0
SPLINE
  5
56A
100
AcDbEntity
  8
GEOM
100
AcDbSpline
 62
7
  6
CONTINUOUS
 70
0
 71
3
 72
13
 73
9
 74
0
 42
0.0000001
 43
0.0000001
 44
0.0000000001
 40
0.0
 40
0.0
 40
0.0
 40
0.0
 40
0.25207618
 40
0.3769044815
 40
0.5012198318
 40
0.6253615989
 40
0.749690157
 40
1.0
 40
1.0
 40
1.0
 40
1.0
 10
136.0383368407
 20
69.0471812595
 30
0.0
 10
136.2523395356
 20
68.2930254245
 30
0.0
 10
136.508764497
 20
67.1448829006
 30
0.0
 10
136.6851736944
 20
65.5950197025
 30
0.0
 10
136.7298154771
 20
64.433831732
 30
0.0
 10
136.6852736677
 20
63.2741883554
 30
0.0
 10
136.5091413881
 20
61.7319210531
 30
0.0
 10
136.2526158843
 20
60.5909431952
 30
0.0
 10
136.0383368407
 20
59.8425780615
 30
0.0
  0
SPLINE
  5
56B
100
AcDbEntity
  8
GEOM
100
AcDbSpline
 62
7
  6
CONTINUOUS
 70
0
 71
3
 72
10
 73
6
 74
0
 42
0.0000001
 43
0.0000001
 44
0.0000000001
 40
0.0
 40
0.0
 40
0.0
 40
0.0
 40
0.5396017753
 40
0.7838452675
 40
1.0
 40
1.0
 40
1.0
 40
1.0
 10
136.0383368407
 20
70.1224334148
 30
0.0
 10
135.9998464297
 20
69.9314269363
 30
0.0
 10
135.9675123952
 20
69.6476744716
 30
0.0
 10
135.9863528369
 20
69.2864798764
 30
0.0
 10
136.0170344913
 20
69.1222698449
 30
0.0
 10
136.0383368407
 20
69.0471812595
 30
0.0
  0
SPLINE
  5
56C
100
AcDbEntity
  8
GEOM
100
AcDbSpline
 62
7
  6
CONTINUOUS
 70
0
 71
3
 72
11
 73
7
 74
0
 42
0.0000001
 43
0.0000001
 44
0.0000000001
 40
0.0
 40
0.0
 40
0.0
 40
0.0
 40
0.2500236885
 40
0.500020186
 40
0.7500037964
 40
1.0
 40
1.0
 40
1.0
 40
1.0
 10
136.0383368407
 20
83.1397080936
 30
0.0
 10
136.2541132105
 20
82.0691423418
 30
0.0
 10
136.5953812449
 20
79.9081666009
 30
0.0
 10
136.7747611796
 20
76.6308614665
 30
0.0
 10
136.595356875
 20
73.353677733
 30
0.0
 10
136.2540918256
 20
71.1928810098
 30
0.0
 10
136.0383368407
 20
70.1224334148
 30
0.0
  0
SPLINE
  5
56D
100
AcDbEntity
  8
GEOM
100
AcDbSpline
 62
7
  6
CONTINUOUS
 70
0
 71
3
 72
10
 73
6
 74
0
 42
0.0000001
 43
0.0000001
 44
0.0000000001
 40
0.0
 40
0.0
 40
0.0
 40
0.0
 40
0.2161612027
 40
0.4604175966
 40
1.0
 40
1.0
 40
1.0
 40
1.0
 10
136.0383368407
 20
84.214960249
 30
0.0
 10
136.0170346026
 20
84.1398692006
 30
0.0
 10
135.9863514104
 20
83.9756523674
 30
0.0
 10
135.9675134399
 20
83.6144575135
 30
0.0
 10
135.9998467989
 20
83.3307075177
 30
0.0
 10
136.0383368407
 20
83.1397080936
 30
0.0
  0
SPLINE
  5
56E
100
AcDbEntity
  8
GEOM
100
AcDbSpline
 62
7
  6
CONTINUOUS
 70
0
 71
3
 72
13
 73
9
 74
0
 42
0.0000001
 43
0.0000001
 44
0.0000000001
 40
0.0
 40
0.0
 40
0.0
 40
0.0
 40
0.2503308284
 40
0.3746678335
 40
0.4988129129
 40
0.6231236848
 40
0.747943474
 40
1.0
 40
1.0
 40
1.0
 40
1.0
 10
136.0383368407
 20
93.4195634469
 30
0.0
 10
136.2526320505
 20
92.6711350351
 30
0.0
 10
136.5091712726
 20
91.5300648848
 30
0.0
 10
136.6852824738
 20
89.9876926035
 30
0.0
 10
136.7298136751
 20
88.8280267091
 30
0.0
 10
136.6851635657
 20
87.6668693989
 30
0.0
 10
136.5087452955
 20
86.1171095258
 30
0.0
 10
136.2523247817
 20
84.9690567574
 30
0.0
 10
136.0383368407
 20
84.214960249
 30
0.0
  0
SPLINE
  5
56F
100
AcDbEntity
  8
GEOM
100
AcDbSpline
 62
7
  6
CONTINUOUS
 70
0
 71
3
 72
15
 73
11
 74
0
 42
0.0000001
 43
0.0000001
 44
0.0000000001
 40
0.0
 40
0.0
 40
0.0
 40
0.0
 40
0.0569039259
 40
0.1177568517
 40
0.1975423304
 40
0.3031672431
 40
0.4368555108
 40
0.5985945668
 40
0.7871665897
 40
1.0
 40
1.0
 40
1.0
 40
1.0
 10
136.0383368407
 20
93.8649474726
 30
0.0
 10
136.0292281522
 20
93.8647406748
 30
0.0
 10
136.0097606873
 20
93.8593577577
 30
0.0
 10
135.9895275112
 20
93.8330872579
 30
0.0
 10
135.9793479137
 20
93.7945312679
 30
0.0
 10
135.9764320159
 20
93.7433310524
 30
0.0
 10
135.9810419022
 20
93.6791675145
 30
0.0
 10
135.9930271553
 20
93.6025458869
 30
0.0
 10
136.0123495927
 20
93.514432308
 30
0.0
 10
136.0289574088
 20
93.4523245426
 30
0.0
 10
136.0383368407
 20
93.4195634469
 30
0.0
  0
SPLINE
  5
570
100
AcDbEntity
  8
0
100
AcDbSpline
 62
7
  6
CONTINUOUS
 70
0
 71
3
 72
28
 73
24
 74
0
 42
0.0000001
 43
0.0000001
 44
0.0000000001
 40
0.0
 40
0.0
 40
0.0
 40
0.0
 40
0.2140518886
 40
0.3142877031
 40
0.409290127
 40
0.4985926984
 40
0.5817444037
 40
0.6583108899
 40
0.7279089073
 40
0.790180142
 40
0.8448146546
 40
0.8915285464
 40
0.9118429098
 40
0.9300931508
 40
0.9462544304
 40
0.9603092437
 40
0.9722423069
 40
0.9820391703
 40
0.9896889793
 40
0.995192724
 40
0.9985693202
 40
0.9994921493
 40
1.0
 40
1.0
 40
1.0
 40
1.0
 10
142.658838672
 20
69.5640123982
 30
0.0
 10
142.6697906285
 20
68.8547113247
 30
0.0
 10
142.6863611413
 20
67.8132673869
 30
0.0
 10
142.7095070148
 20
66.4570434877
 30
0.0
 10
142.7264763349
 20
65.5142042934
 30
0.0
 10
142.7434368605
 20
64.6279927693
 30
0.0
 10
142.7603838372
 20
63.8028911052
 30
0.0
 10
142.7773166303
 20
63.0431064434
 30
0.0
 10
142.794225062
 20
62.3525395039
 30
0.0
 10
142.8111025542
 20
61.7346799657
 30
0.0
 10
142.8279350983
 20
61.1926908914
 30
0.0
 10
142.8424962706
 20
60.7897504707
 30
0.0
 10
142.8543523536
 20
60.5073782824
 30
0.0
 10
142.8628128859
 20
60.3262093154
 30
0.0
 10
142.8712591898
 20
60.1658073
 30
0.0
 10
142.8796787088
 20
60.0263785968
 30
0.0
 10
142.8880713795
 20
59.9080649852
 30
0.0
 10
142.8963732822
 20
59.8110880687
 30
0.0
 10
142.9046420457
 20
59.7353637541
 30
0.0
 10
142.9125021661
 20
59.6813728023
 30
0.0
 10
142.9198493401
 20
59.6492202127
 30
0.0
 10
142.9257728061
 20
59.6347849943
 30
0.0
 10
142.9298057123
 20
59.631070767
 30
0.0
 10
142.9314887715
 20
59.6310707543
 30
0.0
  0
SPLINE
  5
571
100
AcDbEntity
  8
0
100
AcDbSpline
 62
7
  6
CONTINUOUS
 70
0
 71
3
 72
9
 73
5
 74
0
 42
0.0000001
 43
0.0000001
 44
0.0000000001
 40
0.0
 40
0.0
 40
0.0
 40
0.0
 40
0.2119686944
 40
1.0
 40
1.0
 40
1.0
 40
1.0
 10
147.230383242
 20
59.63610605
 30
0.0
 10
147.2300504217
 20
59.6366828932
 30
0.0
 10
147.2285818105
 20
59.6394628484
 30
0.0
 10
147.2274385583
 20
59.6424024024
 30
0.0
 10
147.2266200387
 20
59.6447390534
 30
0.0
  0
SPLINE
  5
572
100
AcDbEntity
  8
0
100
AcDbSpline
 62
7
  6
CONTINUOUS
 70
0
 71
3
 72
50
 73
46
 74
0
 42
0.0000001
 43
0.0000001
 44
0.0000000001
 40
0.0
 40
0.0
 40
0.0
 40
0.0
 40
0.0006538919
 40
0.001592948
 40
0.0043357593
 40
0.0082338804
 40
0.0132797737
 40
0.0194630394
 40
0.0267710716
 40
0.0351858242
 40
0.0446880645
 40
0.0668660033
 40
0.0930971297
 40
0.1231360686
 40
0.1567028119
 40
0.1934824204
 40
0.2331302991
 40
0.2752759283
 40
0.319524113
 40
0.4126545956
 40
0.5090410005
 40
0.6050803895
 40
0.6518439794
 40
0.6971830316
 40
0.7406725885
 40
0.7819059274
 40
0.8204965933
 40
0.8560827415
 40
0.8883321022
 40
0.9169424889
 40
0.9297976372
 40
0.9416455984
 40
0.9524591665
 40
0.9622118324
 40
0.97088181
 40
0.9784494305
 40
0.9848959646
 40
0.9902079525
 40
0.9943743762
 40
0.9960250078
 40
0.9973866336
 40
0.9984597631
 40
0.9992460344
 40
0.9997507735
 40
1.0
 40
1.0
 40
1.0
 40
1.0
 10
147.2266200387
 20
59.6447390534
 30
0.0
 10
147.2241698885
 20
59.6517335666
 30
0.0
 10
147.2198770139
 20
59.6693271267
 30
0.0
 10
147.2113488596
 20
59.7177144453
 30
0.0
 10
147.2016635766
 20
59.8031520641
 30
0.0
 10
147.1904837752
 20
59.9351223782
 30
0.0
 10
147.1792498072
 20
60.1062241059
 30
0.0
 10
147.167875688
 20
60.3160162151
 30
0.0
 10
147.1564673217
 20
60.5640415038
 30
0.0
 10
147.145015235
 20
60.8497142994
 30
0.0
 10
147.1288754083
 20
61.3038666377
 30
0.0
 10
147.1091433998
 20
61.9599432709
 30
0.0
 10
147.0863757744
 20
62.848786337
 30
0.0
 10
147.0635366655
 20
63.8667457118
 30
0.0
 10
147.040641356
 20
65.0042871687
 30
0.0
 10
147.0177105233
 20
66.2507560212
 30
0.0
 10
146.9947538017
 20
67.5944729572
 30
0.0
 10
146.9717788671
 20
69.0228502745
 30
0.0
 10
146.9405960092
 20
71.0573474641
 30
0.0
 10
146.9022121528
 20
73.7065730095
 30
0.0
 10
146.8568363662
 20
76.9427618273
 30
0.0
 10
146.8187040641
 20
79.6534763398
 30
0.0
 10
146.7877625245
 20
81.7856616691
 30
0.0
 10
146.7647687884
 20
83.3222974588
 30
0.0
 10
146.7417855093
 20
84.7962460524
 30
0.0
 10
146.7188172864
 20
86.1936986812
 30
0.0
 10
146.695869485
 20
87.5015612872
 30
0.0
 10
146.6729512423
 20
88.7075829273
 30
0.0
 10
146.6500717255
 20
89.8004661035
 30
0.0
 10
146.6304243554
 20
90.6357243903
 30
0.0
 10
146.6145026261
 20
91.2397724233
 30
0.0
 10
146.6029993298
 20
91.642155947
 30
0.0
 10
146.5915091044
 20
92.0093606819
 30
0.0
 10
146.5800318688
 20
92.3405269392
 30
0.0
 10
146.5685764383
 20
92.6348804944
 30
0.0
 10
146.5571527407
 20
92.8917297206
 30
0.0
 10
146.5457812963
 20
93.1104848478
 30
0.0
 10
146.5344753162
 20
93.2906171585
 30
0.0
 10
146.5245716735
 20
93.416400731
 30
0.0
 10
146.5163414829
 20
93.4973150314
 30
0.0
 10
146.5106489546
 20
93.5433496028
 30
0.0
 10
146.5051423491
 20
93.5792425449
 30
0.0
 10
146.4994742036
 20
93.6059465911
 30
0.0
 10
146.4946463447
 20
93.621766335
 30
0.0
 10
146.4896560008
 20
93.6304153023
 30
0.0
 10
146.486891756
 20
93.6309967915
 30
0.0
  0
LINE
  5
573
100
AcDbEntity
  8
0
100
AcDbLine
 62
7
  6
CONTINUOUS
 10
146.486891756
 20
93.6309967915
 11
146.4861886004
 21
93.6310707542
  0
SPLINE
  5
574
100
AcDbEntity
  8
0
100
AcDbSpline
 62
7
  6
CONTINUOUS
 70
0
 71
3
 72
9
 73
5
 74
0
 42
0.0000001
 43
0.0000001
 44
0.0000000001
 40
0.0
 40
0.0
 40
0.0
 40
0.0
 40
0.3968158043
 40
1.0
 40
1.0
 40
1.0
 40
1.0
 10
146.6526702572
 20
60.6364116764
 30
0.0
 10
146.6503842422
 20
60.6403712384
 30
0.0
 10
146.6465278935
 20
60.6513540256
 30
0.0
 10
146.6437990053
 20
60.6625220305
 30
0.0
 10
146.6423322529
 20
60.6693153435
 30
0.0
  0
SPLINE
  5
575
100
AcDbEntity
  8
0
100
AcDbSpline
 62
7
  6
CONTINUOUS
 70
0
 71
3
 72
47
 73
43
 74
0
 42
0.0000001
 43
0.0000001
 44
0.0000000001
 40
0.0
 40
0.0
 40
0.0
 40
0.0
 40
0.0022624657
 40
0.0056598206
 40
0.0101905565
 40
0.0158449102
 40
0.0226106331
 40
0.0304741338
 40
0.0494170845
 40
0.0725021077
 40
0.0995159655
 40
0.1302111045
 40
0.164305659
 40
0.2014846997
 40
0.2414067808
 40
0.327987264
 40
0.4208651935
 40
0.5166268875
 40
0.6117529321
 40
0.6579805319
 40
0.7027469637
 40
0.7456404546
 40
0.786265217
 40
0.8242477037
 40
0.859238626
 40
0.8909147318
 40
0.9189856379
 40
0.9315869675
 40
0.9431933568
 40
0.9537768797
 40
0.9633143986
 40
0.971784429
 40
0.9791663286
 40
0.985444548
 40
0.9906058063
 40
0.9946380426
 40
0.9962288486
 40
0.9975359019
 40
0.9985597027
 40
0.9993021885
 40
0.9997701998
 40
1.0
 40
1.0
 40
1.0
 40
1.0
 10
146.6423322529
 20
60.6693153435
 30
0.0
 10
146.6372425124
 20
60.6928886465
 30
0.0
 10
146.628810483
 20
60.7527211091
 30
0.0
 10
146.6177994233
 20
60.8607616555
 30
0.0
 10
146.6067293185
 20
61.0051441727
 30
0.0
 10
146.5954758597
 20
61.1854758656
 30
0.0
 10
146.5841781902
 20
61.4013960935
 30
0.0
 10
146.5680367573
 20
61.7588919609
 30
0.0
 10
146.5484494713
 20
62.2903521045
 30
0.0
 10
146.5259518927
 20
63.0259540525
 30
0.0
 10
146.5033593472
 20
63.8868751465
 30
0.0
 10
146.4806892181
 20
64.8651835802
 30
0.0
 10
146.4579753481
 20
65.9518717477
 30
0.0
 10
146.4352263796
 20
67.1369322254
 30
0.0
 10
146.4040173931
 20
68.8813999739
 30
0.0
 10
146.3657000123
 20
71.2195499374
 30
0.0
 10
146.3207398557
 20
74.1528847456
 30
0.0
 10
146.2757343965
 20
77.1773196326
 30
0.0
 10
146.2378891259
 20
79.7045418811
 30
0.0
 10
146.2071866356
 20
81.6882313549
 30
0.0
 10
146.1843854599
 20
83.1152089731
 30
0.0
 10
146.1615957432
 20
84.4824560424
 30
0.0
 10
146.1388204521
 20
85.7773801234
 30
0.0
 10
146.1160654363
 20
86.9880541912
 30
0.0
 10
146.0933415518
 20
88.1033236422
 30
0.0
 10
146.0706548646
 20
89.1129184565
 30
0.0
 10
146.0511694272
 20
89.8838633499
 30
0.0
 10
146.0353767748
 20
90.4408983549
 30
0.0
 10
146.0239722034
 20
90.8115768899
 30
0.0
 10
146.0125778716
 20
91.1495806778
 30
0.0
 10
146.001198701
 20
91.4541323345
 30
0.0
 10
145.9898431286
 20
91.724531777
 30
0.0
 10
145.9785160871
 20
91.9601541921
 30
0.0
 10
145.9672414093
 20
92.1604685095
 30
0.0
 10
145.9560433081
 20
92.325001629
 30
0.0
 10
145.946211318
 20
92.4395681204
 30
0.0
 10
145.9380604823
 20
92.5129619263
 30
0.0
 10
145.9323866111
 20
92.5544487228
 30
0.0
 10
145.9270308834
 20
92.5866010155
 30
0.0
 10
145.9212129669
 20
92.6101605696
 30
0.0
 10
145.9168327876
 20
92.6240191264
 30
0.0
 10
145.9112878126
 20
92.6310648858
 30
0.0
 10
145.9088382853
 20
92.6310607144
 30
0.0
  0
SPLINE
  5
576
100
AcDbEntity
  8
0
100
AcDbSpline
 62
7
  6
CONTINUOUS
 70
0
 71
3
 72
16
 73
12
 74
0
 42
0.0000001
 43
0.0000001
 44
0.0000000001
 40
0.0
 40
0.0
 40
0.0
 40
0.0
 40
0.0131390903
 40
0.0326789121
 40
0.0915005353
 40
0.1769000216
 40
0.2889162102
 40
0.4274892558
 40
0.5923913992
 40
0.7833284685
 40
1.0
 40
1.0
 40
1.0
 40
1.0
 10
142.7303830982
 20
59.6361018523
 30
0.0
 10
142.7284456454
 20
59.6394525786
 30
0.0
 10
142.7250985714
 20
59.6485715025
 30
0.0
 10
142.7184578179
 20
59.6746703702
 30
0.0
 10
142.711006265
 20
59.7224385298
 30
0.0
 10
142.7023655537
 20
59.7973950775
 30
0.0
 10
142.6936932453
 20
59.8960151873
 30
0.0
 10
142.6848983233
 20
60.0180917576
 30
0.0
 10
142.6760738721
 20
60.1634737683
 30
0.0
 10
142.6672162271
 20
60.3318929309
 30
0.0
 10
142.6616513826
 20
60.4518390256
 30
0.0
 10
142.658838672
 20
60.5156045832
 30
0.0
  0
SPLINE
  5
577
100
AcDbEntity
  8
0
100
AcDbSpline
 62
7
  6
CONTINUOUS
 70
0
 71
3
 72
29
 73
25
 74
0
 42
0.0000001
 43
0.0000001
 44
0.0000000001
 40
0.0
 40
0.0
 40
0.0
 40
0.0
 40
0.0009597208
 40
0.0025917865
 40
0.0049075923
 40
0.0079087338
 40
0.0115943424
 40
0.0159624635
 40
0.0267278211
 40
0.0401607061
 40
0.0562089975
 40
0.0748036903
 40
0.0958701424
 40
0.1193187314
 40
0.1450529393
 40
0.2029383655
 40
0.2685614593
 40
0.3408276661
 40
0.4185311998
 40
0.5003753883
 40
0.5849946301
 40
0.6709764435
 40
0.8412902622
 40
1.0
 40
1.0
 40
1.0
 40
1.0
 10
142.1526701136
 20
60.6364177261
 30
0.0
 10
142.1488270209
 20
60.6430656176
 30
0.0
 10
142.1432965234
 20
60.6634121851
 30
0.0
 10
142.1359009856
 20
60.7017921785
 30
0.0
 10
142.1285861187
 20
60.7570209019
 30
0.0
 10
142.121021607
 20
60.8286180563
 30
0.0
 10
142.1134471201
 20
60.9167623879
 30
0.0
 10
142.1025028019
 20
61.0669331041
 30
0.0
 10
142.0892944769
 20
61.2951269925
 30
0.0
 10
142.0741586791
 20
61.6167870596
 30
0.0
 10
142.0589584873
 20
62.0011485217
 30
0.0
 10
142.0436911112
 20
62.4466229999
 30
0.0
 10
142.0283933384
 20
62.9513375632
 30
0.0
 10
142.0130663757
 20
63.5131981387
 30
0.0
 10
141.9917648095
 20
64.3695939575
 30
0.0
 10
141.9655843288
 20
65.5634103149
 30
0.0
 10
141.9351494671
 20
67.1295222569
 30
0.0
 10
141.9046478149
 20
68.8542259819
 30
0.0
 10
141.874096432
 20
70.7087334497
 30
0.0
 10
141.843515437
 20
72.6620905123
 30
0.0
 10
141.8129165583
 20
74.6816901169
 30
0.0
 10
141.7722376207
 20
77.4090696234
 30
0.0
 10
141.7226635007
 20
80.7291851504
 30
0.0
 10
141.6807135934
 20
83.3613922216
 30
0.0
 10
141.6588386204
 20
84.6310510715
 30
0.0
  0
SPLINE
  5
578
100
AcDbEntity
  8
0
100
AcDbSpline
 62
7
  6
CONTINUOUS
 70
0
 71
3
 72
9
 73
5
 74
0
 42
0.0000001
 43
0.0000001
 44
0.0000000001
 40
0.0
 40
0.0
 40
0.0
 40
0.0
 40
0.3823992826
 40
1.0
 40
1.0
 40
1.0
 40
1.0
 10
148.152670738
 20
60.6364249134
 30
0.0
 10
148.1496392326
 20
60.6416784363
 30
0.0
 10
148.1448975603
 20
60.6570412503
 30
0.0
 10
148.1415690654
 20
60.6724815324
 30
0.0
 10
148.1397681746
 20
60.6821106652
 30
0.0
  0
SPLINE
  5
579
100
AcDbEntity
  8
0
100
AcDbSpline
 62
7
  6
CONTINUOUS
 70
0
 71
3
 72
46
 73
42
 74
0
 42
0.0000001
 43
0.0000001
 44
0.0000000001
 40
0.0
 40
0.0
 40
0.0
 40
0.0
 40
0.0025060682
 40
0.0061410637
 40
0.0108992215
 40
0.0167711314
 40
0.0318060958
 40
0.051110515
 40
0.0745099692
 40
0.1017920624
 40
0.1327063811
 40
0.1669713826
 40
0.2042740896
 40
0.2442725765
 40
0.3308749996
 40
0.4236178664
 40
0.5191166731
 40
0.613885865
 40
0.6599116624
 40
0.7044667646
 40
0.7471440812
 40
0.7875536598
 40
0.8253250783
 40
0.860113955
 40
0.8916022605
 40
0.9195012792
 40
0.9320248002
 40
0.9435577048
 40
0.9540744208
 40
0.963551693
 40
0.9719667047
 40
0.9793010205
 40
0.9855391617
 40
0.9906662439
 40
0.9946721521
 40
0.9962529691
 40
0.9975518195
 40
0.9985689554
 40
0.9993062542
 40
0.9997711372
 40
1.0
 40
1.0
 40
1.0
 40
1.0
 10
148.1397681746
 20
60.6821106652
 30
0.0
 10
148.1348592924
 20
60.7083578294
 30
0.0
 10
148.1264232698
 20
60.7733089676
 30
0.0
 10
148.1154296075
 20
60.8889079179
 30
0.0
 10
148.1043405295
 20
61.0405146798
 30
0.0
 10
148.0879994004
 20
61.3134880994
 30
0.0
 10
148.0685292258
 20
61.7415182944
 30
0.0
 10
148.0462480202
 20
62.3563252711
 30
0.0
 10
148.0238421649
 20
63.1016967298
 30
0.0
 10
148.0013094392
 20
63.9708131602
 30
0.0
 10
147.9787148815
 20
64.9557355026
 30
0.0
 10
147.9560742622
 20
66.0474516291
 30
0.0
 10
147.9334025965
 20
67.2359783186
 30
0.0
 10
147.9023165559
 20
68.9821018615
 30
0.0
 10
147.8641410623
 20
71.3189081746
 30
0.0
 10
147.8193292083
 20
74.2470407437
 30
0.0
 10
147.7744749166
 20
77.262199728
 30
0.0
 10
147.7367503139
 20
79.7796374319
 30
0.0
 10
147.7061482107
 20
81.7543133528
 30
0.0
 10
147.6834264085
 20
83.1740034792
 30
0.0
 10
147.6607155261
 20
84.5338448027
 30
0.0
 10
147.6380200216
 20
85.8213954164
 30
0.0
 10
147.6153441431
 20
87.0248809001
 30
0.0
 10
147.592698637
 20
88.1332924286
 30
0.0
 10
147.5700923973
 20
89.1364899418
 30
0.0
 10
147.55067255
 20
89.9024585724
 30
0.0
 10
147.5349361187
 20
90.4558227267
 30
0.0
 10
147.523570136
 20
90.8240260338
 30
0.0
 10
147.512215681
 20
91.1597550791
 30
0.0
 10
147.5008777069
 20
91.4622424493
 30
0.0
 10
147.4895602932
 20
91.7307962276
 30
0.0
 10
147.4782724081
 20
91.9648021085
 30
0.0
 10
147.4670395853
 20
92.1637364563
 30
0.0
 10
147.4558785697
 20
92.3271306262
 30
0.0
 10
147.4460800369
 20
92.4408985949
 30
0.0
 10
147.4379587807
 20
92.5137886479
 30
0.0
 10
147.432305862
 20
92.5549925023
 30
0.0
 10
147.4269682294
 20
92.58692104
 30
0.0
 10
147.4211731059
 20
92.6103035628
 30
0.0
 10
147.4167968778
 20
92.6240696648
 30
0.0
 10
147.4112774815
 20
92.6310513134
 30
0.0
 10
147.4088389389
 20
92.6310511641
 30
0.0
  0
LINE
  5
57A
100
AcDbEntity
  8
GEOM
100
AcDbLine
 62
7
  6
CONTINUOUS
 10
130.4841671666
 20
94.7700617381
 11
130.448770434
 21
94.7713884743
  0
SPLINE
  5
57B
100
AcDbEntity
  8
0
100
AcDbSpline
 62
7
  6
CONTINUOUS
 70
0
 71
3
 72
29
 73
25
 74
0
 42
0.0000001
 43
0.0000001
 44
0.0000000001
 40
0.0
 40
0.0
 40
0.0
 40
0.0
 40
0.0004811336
 40
0.0014391225
 40
0.0029513903
 40
0.0050336718
 40
0.0109247123
 40
0.0191234877
 40
0.0296167225
 40
0.0423842773
 40
0.0574038784
 40
0.0746438107
 40
0.0940666363
 40
0.1156343902
 40
0.1650185976
 40
0.2223826127
 40
0.2872449739
 40
0.3590654008
 40
0.4372382787
 40
0.5211103013
 40
0.6099803868
 40
0.7030942011
 40
0.7996767768
 40
1.0
 40
1.0
 40
1.0
 40
1.0
 10
142.0088384215
 20
60.6310711439
 30
0.0
 10
142.00653895
 20
60.6310723969
 30
0.0
 10
142.0012627588
 20
60.6373724288
 30
0.0
 10
141.9970226319
 20
60.6501295961
 30
0.0
 10
141.9914868825
 20
60.6715489924
 30
0.0
 10
141.9837124296
 20
60.7160352678
 30
0.0
 10
141.974303469
 20
60.7929261904
 30
0.0
 10
141.9637918676
 20
60.9098819326
 30
0.0
 10
141.9530996866
 20
61.0598886813
 30
0.0
 10
141.9423397892
 20
61.2425177213
 30
0.0
 10
141.9315306672
 20
61.4574484299
 30
0.0
 10
141.9206928131
 20
61.7042150827
 30
0.0
 10
141.9098314665
 20
61.9823041422
 30
0.0
 10
141.8946382072
 20
62.4139638646
 30
0.0
 10
141.8759814856
 20
63.0269410826
 30
0.0
 10
141.8543857477
 20
63.8468329012
 30
0.0
 10
141.8327354491
 20
64.7739851131
 30
0.0
 10
141.8110441555
 20
65.800611796
 30
0.0
 10
141.7893243324
 20
66.918108853
 30
0.0
 10
141.767584368
 20
68.1171048087
 30
0.0
 10
141.7458307162
 20
69.3875184224
 30
0.0
 10
141.724065569
 20
70.7186875639
 30
0.0
 10
141.69467889
 20
72.5824686084
 30
0.0
 10
141.6732008544
 20
74.001301873
 30
0.0
 10
141.6588386186
 20
74.9585947565
 30
0.0
  0
SPLINE
  5
57C
100
AcDbEntity
  8
0
100
AcDbSpline
 62
7
  6
CONTINUOUS
 70
0
 71
3
 72
17
 73
13
 74
0
 42
0.0000001
 43
0.0000001
 44
0.0000000001
 40
0.0
 40
0.0
 40
0.0
 40
0.0
 40
0.1364349025
 40
0.283984455
 40
0.435118538
 40
0.5822929249
 40
0.7183298426
 40
0.8367514565
 40
0.8875949915
 40
0.9320640912
 40
0.9696705925
 40
1.0
 40
1.0
 40
1.0
 40
1.0
 10
141.6588386204
 20
84.6310510715
 30
0.0
 10
141.7044785029
 20
83.534266476
 30
0.0
 10
141.7922343848
 20
81.2510480533
 30
0.0
 10
141.9162377675
 20
77.7523492074
 30
0.0
 10
142.0395036293
 20
74.1671642346
 30
0.0
 10
142.1617455195
 20
70.6746260859
 30
0.0
 10
142.2827478403
 20
67.4454147677
 30
0.0
 10
142.3865510509
 20
64.9911704612
 30
0.0
 10
142.4718499905
 20
63.2736074867
 30
0.0
 10
142.5320817626
 20
62.2058442161
 30
0.0
 10
142.5917816299
 20
61.3034125213
 30
0.0
 10
142.635767385
 20
60.7585371482
 30
0.0
 10
142.658838672
 20
60.5156045832
 30
0.0
  0
SPLINE
  5
57D
100
AcDbEntity
  8
0
100
AcDbSpline
 62
7
  6
CONTINUOUS
 70
0
 71
3
 72
29
 73
25
 74
0
 42
0.0000001
 43
0.0000001
 44
0.0000000001
 40
0.0
 40
0.0
 40
0.0
 40
0.0
 40
0.200323103
 40
0.2969054662
 40
0.3900196001
 40
0.478889556
 40
0.5627616394
 40
0.6409344429
 40
0.7127548878
 40
0.7776173918
 40
0.8349811318
 40
0.8843656724
 40
0.9059330475
 40
0.9253561389
 40
0.9425962759
 40
0.9576153962
 40
0.9703831444
 40
0.9808767223
 40
0.9890750185
 40
0.9949660883
 40
0.9970486164
 40
0.9985610815
 40
0.9995190739
 40
1.0
 40
1.0
 40
1.0
 40
1.0
 10
144.758838672
 20
78.3035261665
 30
0.0
 10
144.7444764426
 20
79.2608199497
 30
0.0
 10
144.7229984318
 20
80.6796538094
 30
0.0
 10
144.6936117482
 20
82.5434376607
 30
0.0
 10
144.6718466341
 20
83.8746087444
 30
0.0
 10
144.650092908
 20
85.145025511
 30
0.0
 10
144.6283530355
 20
86.3440226304
 30
0.0
 10
144.6066331687
 20
87.4615214289
 30
0.0
 10
144.5849418261
 20
88.4881501046
 30
0.0
 10
144.5632917534
 20
89.4153032043
 30
0.0
 10
144.541695589
 20
90.2351972334
 30
0.0
 10
144.5230394721
 20
90.8481738818
 30
0.0
 10
144.5078456799
 20
91.2798353038
 30
0.0
 10
144.4969845071
 20
91.5579252366
 30
0.0
 10
144.4861470166
 20
91.804692238
 30
0.0
 10
144.4753372784
 20
92.0196228537
 30
0.0
 10
144.464577473
 20
92.2022524395
 30
0.0
 10
144.4538860299
 20
92.352259758
 30
0.0
 10
144.4433738943
 20
92.4692151141
 30
0.0
 10
144.4339638803
 20
92.5461051009
 30
0.0
 10
144.4261909037
 20
92.5905938077
 30
0.0
 10
144.420653819
 20
92.612015548
 30
0.0
 10
144.4164172533
 20
92.624772902
 30
0.0
 10
144.4111374193
 20
92.6310717738
 30
0.0
 10
144.4088389363
 20
92.6310701089
 30
0.0
  0
SPLINE
  5
57E
100
AcDbEntity
  8
0
100
AcDbSpline
 62
7
  6
CONTINUOUS
 70
0
 71
3
 72
27
 73
23
 74
0
 42
0.0000001
 43
0.0000001
 44
0.0000000001
 40
0.0
 40
0.0
 40
0.0
 40
0.0
 40
0.19697814
 40
0.3838055923
 40
0.471519277
 40
0.554468299
 40
0.6319840453
 40
0.7034404896
 40
0.7682568763
 40
0.8259123272
 40
0.8759379321
 40
0.9179316225
 40
0.9358084959
 40
0.9515572355
 40
0.9651438831
 40
0.9765441714
 40
0.98573825
 40
0.9927086836
 40
0.9953581955
 40
0.9974522328
 40
0.998995155
 40
1.0
 40
1.0
 40
1.0
 40
1.0
 10
144.608838672
 20
78.3035261665
 30
0.0
 10
144.5947243639
 20
79.2442951097
 30
0.0
 10
144.566973215
 20
81.0773495077
 30
0.0
 10
144.5311040515
 20
83.3292971618
 30
0.0
 10
144.5019884598
 20
85.0366167092
 30
0.0
 10
144.480624782
 20
86.2218598056
 30
0.0
 10
144.4592800777
 20
87.329436459
 30
0.0
 10
144.4379614024
 20
88.3503851049
 30
0.0
 10
144.4166756986
 20
89.2764483525
 30
0.0
 10
144.3954482429
 20
90.1001181733
 30
0.0
 10
144.3742886974
 20
90.8147347873
 30
0.0
 10
144.3559295835
 20
91.3393426485
 30
0.0
 10
144.34089493
 20
91.7002297702
 30
0.0
 10
144.3302592536
 20
91.9254921893
 30
0.0
 10
144.3196538912
 20
92.1197797988
 30
0.0
 10
144.3091183078
 20
92.282713922
 30
0.0
 10
144.2986473525
 20
92.4139595293
 30
0.0
 10
144.289481493
 20
92.5033881331
 30
0.0
 10
144.281734393
 20
92.5587953287
 30
0.0
 10
144.2765459907
 20
92.5884067581
 30
0.0
 10
144.2714092967
 20
92.6099357872
 30
0.0
 10
144.2674059246
 20
92.6215643876
 30
0.0
 10
144.2650072646
 20
92.6257217213
 30
0.0
  0
SPLINE
  5
57F
100
AcDbEntity
  8
0
100
AcDbSpline
 62
7
  6
CONTINUOUS
 70
0
 71
3
 72
30
 73
26
 74
0
 42
0.0000001
 43
0.0000001
 44
0.0000000001
 40
0.0
 40
0.0
 40
0.0
 40
0.0
 40
0.0005758986
 40
0.0017032549
 40
0.0033983237
 40
0.0056644907
 40
0.0085025497
 40
0.0119124366
 40
0.0204428249
 40
0.0312388063
 40
0.0442806132
 40
0.0595444507
 40
0.0769973793
 40
0.096604956
 40
0.1183288058
 40
0.1679373264
 40
0.225417673
 40
0.2902953382
 40
0.3620321169
 40
0.4400324367
 40
0.5236443994
 40
0.6121688777
 40
0.704861229
 40
0.8009370279
 40
1.0
 40
1.0
 40
1.0
 40
1.0
 10
141.8807296039
 20
60.4091798223
 30
0.0
 10
141.878754172
 20
60.4111552542
 30
0.0
 10
141.8764917205
 20
60.4196321974
 30
0.0
 10
141.8731129818
 20
60.4354034209
 30
0.0
 10
141.8699595941
 20
60.4600869392
 30
0.0
 10
141.8665624664
 20
60.4928162628
 30
0.0
 10
141.8631989751
 20
60.5340135919
 30
0.0
 10
141.8582811461
 20
60.6055214727
 30
0.0
 10
141.8523795599
 20
60.715671119
 30
0.0
 10
141.8456182395
 20
60.8725404912
 30
0.0
 10
141.8388235326
 20
61.0621034673
 30
0.0
 10
141.8319940365
 20
61.2839731812
 30
0.0
 10
141.8251443743
 20
61.537706631
 30
0.0
 10
141.8182786039
 20
61.8227869608
 30
0.0
 10
141.8086805533
 20
62.2638322928
 30
0.0
 10
141.7968787593
 20
62.8885921075
 30
0.0
 10
141.7832005867
 20
63.7226896334
 30
0.0
 10
141.7694779872
 20
64.664143321
 30
0.0
 10
141.7557175831
 20
65.70514822
 30
0.0
 10
141.741928866
 20
66.8370400295
 30
0.0
 10
141.7281158955
 20
68.0503742229
 30
0.0
 10
141.7142821349
 20
69.3349835228
 30
0.0
 10
141.7004300713
 20
70.6800579917
 30
0.0
 10
141.6817178079
 20
72.5613326378
 30
0.0
 10
141.6680139001
 20
73.9929844327
 30
0.0
 10
141.6588386186
 20
74.9585947565
 30
0.0
  0
SPLINE
  5
580
100
AcDbEntity
  8
GEOM
100
AcDbSpline
 62
7
  6
CONTINUOUS
 70
0
 71
3
 72
9
 73
5
 74
0
 42
0.0000001
 43
0.0000001
 44
0.0000000001
 40
0.0
 40
0.0
 40
0.0
 40
0.0
 40
0.2407443422
 40
1.0
 40
1.0
 40
1.0
 40
1.0
 10
130.3236367857
 20
68.5027911699
 30
0.0
 10
130.3558924099
 20
68.5390427206
 30
0.0
 10
130.5038924966
 20
68.676760561
 30
0.0
 10
130.6960191329
 20
68.7650893494
 30
0.0
 10
130.8457859637
 20
68.7965469838
 30
0.0
  0
SPLINE
  5
581
100
AcDbEntity
  8
GEOM
100
AcDbSpline
 62
7
  6
CONTINUOUS
 70
0
 71
3
 72
12
 73
8
 74
0
 42
0.0000001
 43
0.0000001
 44
0.0000000001
 40
0.0
 40
0.0
 40
0.0
 40
0.0
 40
0.1034253191
 40
0.2119287203
 40
0.4492625777
 40
0.7158392539
 40
1.0
 40
1.0
 40
1.0
 40
1.0
 10
130.448770434
 20
66.5235938849
 30
0.0
 10
130.4525054594
 20
66.5545105154
 30
0.0
 10
130.4687218766
 20
66.6170724478
 30
0.0
 10
130.5337606391
 20
66.7369445775
 30
0.0
 10
130.6738005951
 20
66.8646655582
 30
0.0
 10
130.8940866043
 20
66.960645603
 30
0.0
 10
131.0605527916
 20
66.9842169043
 30
0.0
 10
131.1461067227
 20
66.9853146793
 30
0.0
  0
SPLINE
  5
582
100
AcDbEntity
  8
GEOM
100
AcDbSpline
 62
7
  6
CONTINUOUS
 70
0
 71
3
 72
12
 73
8
 74
0
 42
0.0000001
 43
0.0000001
 44
0.0000000001
 40
0.0
 40
0.0
 40
0.0
 40
0.0
 40
0.1036493373
 40
0.211892567
 40
0.4481599303
 40
0.7144271833
 40
1.0
 40
1.0
 40
1.0
 40
1.0
 10
130.448770434
 20
61.084264278
 30
0.0
 10
130.4524939634
 20
61.1149901948
 30
0.0
 10
130.4686350786
 20
61.1770279961
 30
0.0
 10
130.5336493728
 20
61.2953148396
 30
0.0
 10
130.6741438229
 20
61.4198308552
 30
0.0
 10
130.8948432195
 20
61.5100803074
 30
0.0
 10
131.0608388861
 20
61.5291835937
 30
0.0
 10
131.1461067227
 20
61.5280894877
 30
0.0
  0
SPLINE
  5
583
100
AcDbEntity
  8
GEOM
100
AcDbSpline
 62
7
  6
CONTINUOUS
 70
0
 71
3
 72
10
 73
6
 74
0
 42
0.0000001
 43
0.0000001
 44
0.0000000001
 40
0.0
 40
0.0
 40
0.0
 40
0.0
 40
0.4608008993
 40
0.7227301637
 40
1.0
 40
1.0
 40
1.0
 40
1.0
 10
130.3236328783
 20
59.6424402377
 30
0.0
 10
130.3913554109
 20
59.6901065866
 30
0.0
 10
130.5206052667
 20
59.7328701621
 30
0.0
 10
130.7002805852
 20
59.7396911218
 30
0.0
 10
130.79701892
 20
59.7271004546
 30
0.0
 10
130.8457859672
 20
59.7168571919
 30
0.0
  0
SPLINE
  5
584
100
AcDbEntity
  8
GEOM
100
AcDbSpline
 62
7
  6
CONTINUOUS
 70
0
 71
3
 72
9
 73
5
 74
0
 42
0.0000001
 43
0.0000001
 44
0.0000000001
 40
0.0
 40
0.0
 40
0.0
 40
0.0
 40
0.5036321561
 40
1.0
 40
1.0
 40
1.0
 40
1.0
 10
130.3236367859
 20
58.8707352435
 30
0.0
 10
130.3851785868
 20
58.9502714047
 30
0.0
 10
130.5442873511
 20
59.0833250886
 30
0.0
 10
130.7466711337
 20
59.1310707542
 30
0.0
 10
130.8457859671
 20
59.1310707542
 30
0.0
  0
SPLINE
  5
585
100
AcDbEntity
  8
0
100
AcDbSpline
 62
7
  6
CONTINUOUS
 70
0
 71
3
 72
31
 73
27
 74
0
 42
0.0000001
 43
0.0000001
 44
0.0000000001
 40
0.0
 40
0.0
 40
0.0
 40
0.0
 40
0.0004699554
 40
0.0014642953
 40
0.0030532204
 40
0.005249802
 40
0.0080567477
 40
0.0114740216
 40
0.0201346273
 40
0.031216464
 40
0.0446891092
 40
0.0605168592
 40
0.0786595725
 40
0.0990651907
 40
0.1216792664
 40
0.1464413548
 40
0.1732812618
 40
0.232901061
 40
0.2998851982
 40
0.3735014005
 40
0.4529444562
 40
0.5373425214
 40
0.6257729363
 40
0.7172667568
 40
0.8108146255
 40
1.0
 40
1.0
 40
1.0
 40
1.0
 10
145.0088383799
 20
60.6310897268
 30
0.0
 10
145.006068298
 20
60.6310890905
 30
0.0
 10
145.0000411754
 20
60.6397739979
 30
0.0
 10
144.9953446321
 20
60.6559180785
 30
0.0
 10
144.9889805858
 20
60.6840296086
 30
0.0
 10
144.9831562279
 20
60.7221953796
 30
0.0
 10
144.9769645336
 20
60.7715471717
 30
0.0
 10
144.9680788452
 20
60.8587909893
 30
0.0
 10
144.9573547939
 20
60.9949243677
 30
0.0
 10
144.9451435169
 20
61.1903147891
 30
0.0
 10
144.932848183
 20
61.4280325165
 30
0.0
 10
144.9204950416
 20
61.7074058565
 30
0.0
 10
144.9081109002
 20
62.0276800234
 30
0.0
 10
144.8957008232
 20
62.3879796502
 30
0.0
 10
144.8832748046
 20
62.7873165897
 30
0.0
 10
144.870837105
 20
63.2245956746
 30
0.0
 10
144.8536310695
 20
63.879950498
 30
0.0
 10
144.8324041362
 20
64.784154783
 30
0.0
 10
144.8076700138
 20
65.9640639886
 30
0.0
 10
144.7828948569
 20
67.2608408068
 30
0.0
 10
144.7580878568
 20
68.6602779408
 30
0.0
 10
144.7332592116
 20
70.1470476669
 30
0.0
 10
144.7084153685
 20
71.7048579423
 30
0.0
 10
144.6835621409
 20
73.3166067966
 30
0.0
 10
144.650292912
 20
75.5221813652
 30
0.0
 10
144.6255669509
 20
77.1885267531
 30
0.0
 10
144.608838672
 20
78.3035261665
 30
0.0
  0
SPLINE
  5
586
100
AcDbEntity
  8
0
100
AcDbSpline
 62
7
  6
CONTINUOUS
 70
0
 71
3
 72
9
 73
5
 74
0
 42
0.0000001
 43
0.0000001
 44
0.0000000001
 40
0.0
 40
0.0
 40
0.0
 40
0.0
 40
0.1829966036
 40
1.0
 40
1.0
 40
1.0
 40
1.0
 10
143.6526707477
 20
60.6364214358
 30
0.0
 10
143.6518756094
 20
60.6377968833
 30
0.0
 10
143.6481470392
 20
60.6456619233
 30
0.0
 10
143.6459133658
 20
60.6541205962
 30
0.0
 10
143.6442319119
 20
60.6610114842
 30
0.0
  0
SPLINE
  5
587
100
AcDbEntity
  8
0
100
AcDbSpline
 62
7
  6
CONTINUOUS
 70
0
 71
3
 72
47
 73
43
 74
0
 42
0.0000001
 43
0.0000001
 44
0.0000000001
 40
0.0
 40
0.0
 40
0.0
 40
0.0
 40
0.0020815064
 40
0.0053030859
 40
0.0096631473
 40
0.0151552227
 40
0.0217664075
 40
0.029481867
 40
0.0481559285
 40
0.0710049478
 40
0.09781869
 40
0.1283503843
 40
0.1623164582
 40
0.1994032001
 40
0.2392679535
 40
0.3258311359
 40
0.4188090482
 40
0.5147666084
 40
0.6101588869
 40
0.656537175
 40
0.7014616504
 40
0.744516237
 40
0.7853020593
 40
0.8234424541
 40
0.8585838391
 40
0.8904008566
 40
0.9186002996
 40
0.9312598417
 40
0.9429205678
 40
0.9535545944
 40
0.963137278
 40
0.9716478133
 40
0.9790657854
 40
0.9853741653
 40
0.9905603515
 40
0.9946126757
 40
0.9962111682
 40
0.9975243943
 40
0.9985529753
 40
0.9992989676
 40
0.9997693065
 40
1.0
 40
1.0
 40
1.0
 40
1.0
 10
143.6442319119
 20
60.6610114842
 30
0.0
 10
143.6389708112
 20
60.6825723813
 30
0.0
 10
143.6305757767
 20
60.7386197131
 30
0.0
 10
143.6195462654
 20
60.8410135887
 30
0.0
 10
143.6084933267
 20
60.9800067155
 30
0.0
 10
143.5972196727
 20
61.1551734404
 30
0.0
 10
143.5859055659
 20
61.366188784
 30
0.0
 10
143.5696985539
 20
61.7176770464
 30
0.0
 10
143.5500652937
 20
62.2423115808
 30
0.0
 10
143.5275182308
 20
62.9705873516
 30
0.0
 10
143.5048761612
 20
63.8253417629
 30
0.0
 10
143.4821529374
 20
64.7986618719
 30
0.0
 10
143.4593830797
 20
65.881540731
 30
0.0
 10
143.4365779755
 20
67.0639499402
 30
0.0
 10
143.4052774998
 20
68.8071005023
 30
0.0
 10
143.3668551292
 20
71.1461417565
 30
0.0
 10
143.3217851539
 20
74.0832262488
 30
0.0
 10
143.2766679278
 20
77.1144585085
 30
0.0
 10
143.2387334215
 20
79.648886762
 30
0.0
 10
143.2079565344
 20
81.6392344393
 30
0.0
 10
143.1850969109
 20
83.0716011437
 30
0.0
 10
143.1622483527
 20
84.4443320108
 30
0.0
 10
143.1394142021
 20
85.7447192226
 30
0.0
 10
143.1166009641
 20
86.9607206632
 30
0.0
 10
143.0938181171
 20
88.081077278
 30
0.0
 10
143.0710727593
 20
89.0954179916
 30
0.0
 10
143.0515381578
 20
89.8700617165
 30
0.0
 10
143.0357046126
 20
90.4298155177
 30
0.0
 10
143.0242701831
 20
90.8023312337
 30
0.0
 10
143.0128473091
 20
91.1420244398
 30
0.0
 10
143.0014381428
 20
91.4481090865
 30
0.0
 10
142.9900525896
 20
91.7198785658
 30
0.0
 10
142.9786975733
 20
91.9567018609
 30
0.0
 10
142.9673932145
 20
92.158041581
 30
0.0
 10
142.9561647334
 20
92.3234198712
 30
0.0
 10
142.9463093351
 20
92.4385793892
 30
0.0
 10
142.9381369825
 20
92.5123542712
 30
0.0
 10
142.9324481954
 20
92.5540519094
 30
0.0
 10
142.927078537
 20
92.5863642588
 30
0.0
 10
142.9212446231
 20
92.6100494706
 30
0.0
 10
142.9168548817
 20
92.6239717252
 30
0.0
 10
142.9112984799
 20
92.6310709944
 30
0.0
 10
142.9088387752
 20
92.6310676708
 30
0.0
  0
SPLINE
  5
588
100
AcDbEntity
  8
0
100
AcDbSpline
 62
7
  6
CONTINUOUS
 70
0
 71
3
 72
47
 73
43
 74
0
 42
0.0000001
 43
0.0000001
 44
0.0000000001
 40
0.0
 40
0.0
 40
0.0
 40
0.0
 40
0.0002316981
 40
0.0007044004
 40
0.0014547168
 40
0.0024900627
 40
0.0038122874
 40
0.0054216142
 40
0.0094998349
 40
0.0147193884
 40
0.0210695445
 40
0.0285349648
 40
0.0370997175
 40
0.0467443338
 40
0.0574453032
 40
0.0691787506
 40
0.0819177102
 40
0.1102887041
 40
0.1422955147
 40
0.1776396062
 40
0.2159911785
 40
0.2569938306
 40
0.3002649385
 40
0.3454010164
 40
0.3919819537
 40
0.4877311357
 40
0.5839509295
 40
0.6770623405
 40
0.7636020238
 40
0.8033884639
 40
0.8403508765
 40
0.8741453367
 40
0.9044559019
 40
0.9310012604
 40
0.9535349068
 40
0.9718463815
 40
0.9793653929
 40
0.9857682292
 40
0.9910420379
 40
0.9951756948
 40
0.9981609441
 40
1.0
 40
1.0
 40
1.0
 40
1.0
 10
146.5088385846
 20
60.6310898529
 30
0.0
 10
146.5063674138
 20
60.6310898529
 30
0.0
 10
146.5007950778
 20
60.6382351994
 30
0.0
 10
146.4963873746
 20
60.6522351726
 30
0.0
 10
146.4905341505
 20
60.6760754611
 30
0.0
 10
146.4851474633
 20
60.7086102993
 30
0.0
 10
146.4794399521
 20
60.7506054081
 30
0.0
 10
146.4712413622
 20
60.8248904577
 30
0.0
 10
146.4613490691
 20
60.9408327142
 30
0.0
 10
146.4500817852
 20
61.1073390598
 30
0.0
 10
146.4387414389
 20
61.3100478819
 30
0.0
 10
146.4273455919
 20
61.5484731632
 30
0.0
 10
146.415920312
 20
61.8220703318
 30
0.0
 10
146.4044738469
 20
62.1302011136
 30
0.0
 10
146.3930107293
 20
62.4721479339
 30
0.0
 10
146.3815364271
 20
62.84711376
 30
0.0
 10
146.3656509647
 20
63.4104904866
 30
0.0
 10
146.346047943
 20
64.1900711108
 30
0.0
 10
146.3232259944
 20
65.2107367396
 30
0.0
 10
146.3003650438
 20
66.3378731411
 30
0.0
 10
146.277473193
 20
67.5609718341
 30
0.0
 10
146.2545614932
 20
68.8686293353
 30
0.0
 10
146.2316347076
 20
70.2486570168
 30
0.0
 10
146.2086967394
 20
71.6881874163
 30
0.0
 10
146.1778216055
 20
73.6873659562
 30
0.0
 10
146.1397680378
 20
76.2313306329
 30
0.0
 10
146.0945023537
 20
79.2715127048
 30
0.0
 10
146.0492859937
 20
82.2134606956
 30
0.0
 10
146.0107249581
 20
84.5535506826
 30
0.0
 10
145.9793015971
 20
86.2948181126
 30
0.0
 10
145.9564214374
 20
87.4735939615
 30
0.0
 10
145.9335791503
 20
88.5512854313
 30
0.0
 10
145.9107837212
 20
89.5178474237
 30
0.0
 10
145.888075308
 20
90.3642735053
 30
0.0
 10
145.8654685772
 20
91.0826710402
 30
0.0
 10
145.8457664011
 20
91.598132304
 30
0.0
 10
145.8294778807
 20
91.9415290807
 30
0.0
 10
145.8181439595
 20
92.1459570051
 30
0.0
 10
145.8068314717
 20
92.3141848172
 30
0.0
 10
145.7958371495
 20
92.4459659117
 30
0.0
 10
145.7847545685
 20
92.5407667515
 30
0.0
 10
145.7764660886
 20
92.5917636324
 30
0.0
 10
145.7709181943
 20
92.6105770872
 30
0.0
  0
SPLINE
  5
589
100
AcDbEntity
  8
0
100
AcDbSpline
 62
7
  6
CONTINUOUS
 70
0
 71
3
 72
9
 73
5
 74
0
 42
0.0000001
 43
0.0000001
 44
0.0000000001
 40
0.0
 40
0.0
 40
0.0
 40
0.0
 40
0.303030201
 40
1.0
 40
1.0
 40
1.0
 40
1.0
 10
145.7709181943
 20
92.6105770872
 30
0.0
 10
145.7704531701
 20
92.6121540301
 30
0.0
 10
145.7688285107
 20
92.6173227207
 30
0.0
 10
145.7668964808
 20
92.6224492955
 30
0.0
 10
145.7650066305
 20
92.6257245558
 30
0.0
  0
SPLINE
  5
58A
100
AcDbEntity
  8
0
100
AcDbSpline
 62
7
  6
CONTINUOUS
 70
0
 71
3
 72
47
 73
43
 74
0
 42
0.0000001
 43
0.0000001
 44
0.0000000001
 40
0.0
 40
0.0
 40
0.0
 40
0.0
 40
0.000231857
 40
0.0007046992
 40
0.0014548816
 40
0.0024897811
 40
0.003811784
 40
0.0054211731
 40
0.0094996209
 40
0.0147184111
 40
0.0210681542
 40
0.0285336165
 40
0.0370974576
 40
0.0467414243
 40
0.057442254
 40
0.0691746753
 40
0.0819127777
 40
0.1102823588
 40
0.1422876829
 40
0.1776294952
 40
0.2159793449
 40
0.2569801132
 40
0.3002489485
 40
0.3453832834
 40
0.391962341
 40
0.4877082456
 40
0.5839256468
 40
0.6770356592
 40
0.7635755585
 40
0.8033626922
 40
0.8403267157
 40
0.8741221941
 40
0.9044348955
 40
0.9309832781
 40
0.9535190425
 40
0.9718341172
 40
0.9793546123
 40
0.9857602441
 40
0.991035529
 40
0.9951708683
 40
0.9981592085
 40
1.0
 40
1.0
 40
1.0
 40
1.0
 10
143.508839043
 20
60.6310857315
 30
0.0
 10
143.506366186
 20
60.6310891687
 30
0.0
 10
143.5007990899
 20
60.6382406621
 30
0.0
 10
143.4963880329
 20
60.6522411034
 30
0.0
 10
143.4905365078
 20
60.6760768721
 30
0.0
 10
143.4851474156
 20
60.708602537
 30
0.0
 10
143.4794409388
 20
60.7505912217
 30
0.0
 10
143.471242938
 20
60.8248768356
 30
0.0
 10
143.4613525227
 20
60.940813895
 30
0.0
 10
143.4500832558
 20
61.1073095139
 30
0.0
 10
143.4387437616
 20
61.3100057713
 30
0.0
 10
143.4273494652
 20
61.5484168167
 30
0.0
 10
143.4159233322
 20
61.8219970364
 30
0.0
 10
143.4044772549
 20
62.1301088996
 30
0.0
 10
143.3930154299
 20
62.4720355214
 30
0.0
 10
143.3815406831
 20
62.8469787951
 30
0.0
 10
143.3656558668
 20
63.4103189418
 30
0.0
 10
143.3460534779
 20
64.1898575255
 30
0.0
 10
143.3232326076
 20
65.2104653424
 30
0.0
 10
143.3003717663
 20
66.3375403382
 30
0.0
 10
143.2774810111
 20
67.5605731636
 30
0.0
 10
143.254570077
 20
68.8681646472
 30
0.0
 10
143.2316437028
 20
70.248125905
 30
0.0
 10
143.2087067246
 20
71.6875897834
 30
0.0
 10
143.1778323572
 20
73.6866896607
 30
0.0
 10
143.1397799179
 20
76.2305673682
 30
0.0
 10
143.094515671
 20
79.2706663485
 30
0.0
 10
143.0493004722
 20
82.2125687556
 30
0.0
 10
143.0107409258
 20
84.5526476138
 30
0.0
 10
142.9793183111
 20
86.2939375249
 30
0.0
 10
142.9564395356
 20
87.4727458542
 30
0.0
 10
142.9335972546
 20
88.5504854251
 30
0.0
 10
142.9108022206
 20
89.5171108832
 30
0.0
 10
142.8880960124
 20
90.3636125359
 30
0.0
 10
142.8654873832
 20
91.0821014606
 30
0.0
 10
142.845788514
 20
91.5976384054
 30
0.0
 10
142.8294978434
 20
91.941118343
 30
0.0
 10
142.8181670809
 20
92.1456073545
 30
0.0
 10
142.8068542393
 20
92.31389849
 30
0.0
 10
142.7958551269
 20
92.4457454707
 30
0.0
 10
142.7847789107
 20
92.5406168808
 30
0.0
 10
142.7764890937
 20
92.5916652542
 30
0.0
 10
142.770941802
 20
92.6104981323
 30
0.0
  0
SPLINE
  5
58B
100
AcDbEntity
  8
0
100
AcDbSpline
 62
7
  6
CONTINUOUS
 70
0
 71
3
 72
9
 73
5
 74
0
 42
0.0000001
 43
0.0000001
 44
0.0000000001
 40
0.0
 40
0.0
 40
0.0
 40
0.0
 40
0.3031955364
 40
1.0
 40
1.0
 40
1.0
 40
1.0
 10
142.770941802
 20
92.6104981323
 30
0.0
 10
142.7704750368
 20
92.6120827855
 30
0.0
 10
142.7688448776
 20
92.6172738143
 30
0.0
 10
142.7669058417
 20
92.6224230161
 30
0.0
 10
142.765007108
 20
92.6257106643
 30
0.0
  0
SPLINE
  5
58C
100
AcDbEntity
  8
0
100
AcDbSpline
 62
7
  6
CONTINUOUS
 70
0
 71
3
 72
47
 73
43
 74
0
 42
0.0000001
 43
0.0000001
 44
0.0000000001
 40
0.0
 40
0.0
 40
0.0
 40
0.0
 40
0.0002321016
 40
0.0007058612
 40
0.0014578803
 40
0.0024956103
 40
0.0038209643
 40
0.0054341364
 40
0.0095220741
 40
0.014753896
 40
0.0211190585
 40
0.0286020541
 40
0.0371867283
 40
0.046853737
 40
0.0575793817
 40
0.0693395388
 40
0.0821073049
 40
0.1105413238
 40
0.142617452
 40
0.1780356174
 40
0.2164646235
 40
0.2575464557
 40
0.300896718
 40
0.3461102569
 40
0.3927651717
 40
0.4886447579
 40
0.5849602347
 40
0.6781201521
 40
0.7646507841
 40
0.8044085749
 40
0.8413253523
 40
0.8750567255
 40
0.9052865638
 40
0.9317336444
 40
0.9541517424
 40
0.9723309892
 40
0.9797779014
 40
0.9861048198
 40
0.9912990613
 40
0.9953497395
 40
0.9982489626
 40
1.0
 40
1.0
 40
1.0
 40
1.0
 10
148.0088390653
 20
60.6310897078
 30
0.0
 10
148.0063633487
 20
60.6310902766
 30
0.0
 10
148.0007848867
 20
60.6382579178
 30
0.0
 10
147.9963724484
 20
60.6522885558
 30
0.0
 10
147.9905117059
 20
60.6761884343
 30
0.0
 10
147.9851183149
 20
60.708802386
 30
0.0
 10
147.9794038215
 20
60.7509018738
 30
0.0
 10
147.9711951357
 20
60.8253720703
 30
0.0
 10
147.9612907125
 20
60.9416013336
 30
0.0
 10
147.950009063
 20
61.1085184475
 30
0.0
 10
147.9386548293
 20
61.3117254984
 30
0.0
 10
147.9272449092
 20
61.5507340818
 30
0.0
 10
147.915805238
 20
61.8249967604
 30
0.0
 10
147.9043446403
 20
62.1338721591
 30
0.0
 10
147.8928673528
 20
62.4766392984
 30
0.0
 10
147.8813786626
 20
62.852497071
 30
0.0
 10
147.8654737809
 20
63.4171931895
 30
0.0
 10
147.8458465884
 20
64.1985687643
 30
0.0
 10
147.8229964625
 20
65.2215357013
 30
0.0
 10
147.80010713
 20
66.3511374762
 30
0.0
 10
147.7771869466
 20
67.5768160926
 30
0.0
 10
147.7542469132
 20
68.8871159458
 30
0.0
 10
147.731291732
 20
70.2697933155
 30
0.0
 10
147.7083254113
 20
71.7119237
 30
0.0
 10
147.6774144869
 20
73.7143034453
 30
0.0
 10
147.6393178113
 20
76.2617167662
 30
0.0
 10
147.5939982013
 20
79.305124036
 30
0.0
 10
147.5487287966
 20
82.2487999732
 30
0.0
 10
147.5101171981
 20
84.5892328231
 30
0.0
 10
147.478649302
 20
86.3297803729
 30
0.0
 10
147.4557419615
 20
87.5072052097
 30
0.0
 10
147.4328731192
 20
88.5829801302
 30
0.0
 10
147.4100518066
 20
89.5470528589
 30
0.0
 10
147.3873196761
 20
90.3904181355
 30
0.0
 10
147.3646903949
 20
91.1051918106
 30
0.0
 10
147.3449653827
 20
91.6172891271
 30
0.0
 10
147.3286449634
 20
91.9577242824
 30
0.0
 10
147.3173060347
 20
92.1597432698
 30
0.0
 10
147.3059771112
 20
92.3254305394
 30
0.0
 10
147.2950141786
 20
92.4545834796
 30
0.0
 10
147.2838969907
 20
92.5465973168
 30
0.0
 10
147.2756789169
 20
92.5957775823
 30
0.0
 10
147.2700007641
 20
92.6135710275
 30
0.0
  0
SPLINE
  5
58D
100
AcDbEntity
  8
0
100
AcDbSpline
 62
7
  6
CONTINUOUS
 70
0
 71
3
 72
9
 73
5
 74
0
 42
0.0000001
 43
0.0000001
 44
0.0000000001
 40
0.0
 40
0.0
 40
0.0
 40
0.0
 40
0.2965045118
 40
1.0
 40
1.0
 40
1.0
 40
1.0
 10
147.2700007641
 20
92.6135710275
 30
0.0
 10
147.2696056683
 20
92.6148091266
 30
0.0
 10
147.2682046202
 20
92.6189578922
 30
0.0
 10
147.2665482972
 20
92.6230522627
 30
0.0
 10
147.2650072743
 20
92.6257230685
 30
0.0
  0
SPLINE
  5
58E
100
AcDbEntity
  8
0
100
AcDbSpline
 62
7
  6
CONTINUOUS
 70
0
 71
3
 72
33
 73
29
 74
0
 42
0.0000001
 43
0.0000001
 44
0.0000000001
 40
0.0
 40
0.0
 40
0.0
 40
0.0
 40
0.1669282114
 40
0.253822045
 40
0.3412791522
 40
0.4279754761
 40
0.5126023254
 40
0.5938773291
 40
0.6705638271
 40
0.7414900618
 40
0.8055696886
 40
0.8347300456
 40
0.8618165519
 40
0.8867265272
 40
0.9093611899
 40
0.9296343159
 40
0.9474656614
 40
0.9627856526
 40
0.9755350133
 40
0.9809286942
 40
0.9856618472
 40
0.989730111
 40
0.993129228
 40
0.9958554103
 40
0.9979072817
 40
0.9992857276
 40
0.9997243648
 40
1.0
 40
1.0
 40
1.0
 40
1.0
 10
142.658838672
 20
69.5640123982
 30
0.0
 10
142.6459465603
 20
70.8863879434
 30
0.0
 10
142.6273920589
 20
72.8971311221
 30
0.0
 10
142.6031435917
 20
75.600703456
 30
0.0
 10
142.5846972353
 20
77.6686893835
 30
0.0
 10
142.5662323594
 20
79.7187149218
 30
0.0
 10
142.5477552813
 20
81.7197624885
 30
0.0
 10
142.5292706127
 20
83.6415066719
 30
0.0
 10
142.5107864995
 20
85.4547066409
 30
0.0
 10
142.4923105066
 20
87.1316739283
 30
0.0
 10
142.47648064
 20
88.4321354256
 30
0.0
 10
142.4636437757
 20
89.3852994333
 30
0.0
 10
142.4543214198
 20
90.0281725501
 30
0.0
 10
142.4450040234
 20
90.619342042
 30
0.0
 10
142.4356918828
 20
91.15652739
 30
0.0
 10
142.4263909934
 20
91.6376253421
 30
0.0
 10
142.417109765
 20
92.0607634384
 30
0.0
 10
142.4078534651
 20
92.4242808746
 30
0.0
 10
142.3998081984
 20
92.6892614366
 30
0.0
 10
142.393215391
 20
92.8703721021
 30
0.0
 10
142.3885580472
 20
92.9827318879
 30
0.0
 10
142.3839210412
 20
93.0792787015
 30
0.0
 10
142.3792940062
 20
93.1598970762
 30
0.0
 10
142.3747490388
 20
93.2245370944
 30
0.0
 10
142.3701917117
 20
93.273066079
 30
0.0
 10
142.3663305403
 20
93.3035514935
 30
0.0
 10
142.3627880115
 20
93.3197097069
 30
0.0
 10
142.361045533
 20
93.3251670971
 30
0.0
 10
142.3599561818
 20
93.3270596043
 30
0.0
  0
SPLINE
  5
58F
100
AcDbEntity
  8
GEOM
100
AcDbSpline
 62
7
  6
CONTINUOUS
 70
0
 71
3
 72
13
 73
9
 74
0
 42
0.0000001
 43
0.0000001
 44
0.0000000001
 40
0.0
 40
0.0
 40
0.0
 40
0.0
 40
0.2512312803
 40
0.3758037729
 40
0.5000128956
 40
0.6242180325
 40
0.7487821391
 40
1.0
 40
1.0
 40
1.0
 40
1.0
 10
135.6053241388
 20
93.5452843166
 30
0.0
 10
135.8190153168
 20
92.8045113333
 30
0.0
 10
136.0755496957
 20
91.6756793465
 30
0.0
 10
136.2521364334
 20
90.1502716229
 30
0.0
 10
136.2968372422
 20
89.0053321229
 30
0.0
 10
136.2521337782
 20
87.8604180972
 30
0.0
 10
136.0755285252
 20
86.3350922185
 30
0.0
 10
135.8190062013
 20
85.2063272856
 30
0.0
 10
135.6053241388
 20
84.4655945334
 30
0.0
  0
SPLINE
  5
590
100
AcDbEntity
  8
GEOM
100
AcDbSpline
 62
7
  6
CONTINUOUS
 70
0
 71
3
 72
10
 73
6
 74
0
 42
0.0000001
 43
0.0000001
 44
0.0000000001
 40
0.0
 40
0.0
 40
0.0
 40
0.0
 40
0.496210433
 40
0.7461734553
 40
1.0
 40
1.0
 40
1.0
 40
1.0
 10
131.1461067227
 20
86.2768268292
 30
0.0
 10
131.1382781272
 20
85.9717696679
 30
0.0
 10
131.110336158
 20
85.512241423
 30
0.0
 10
130.9991791425
 20
84.9066714543
 30
0.0
 10
130.906239974
 20
84.6095100414
 30
0.0
 10
130.8457859671
 20
84.4655945334
 30
0.0
  0
SPLINE
  5
591
100
AcDbEntity
  8
GEOM
100
AcDbSpline
 62
7
  6
CONTINUOUS
 70
0
 71
3
 72
10
 73
6
 74
0
 42
0.0000001
 43
0.0000001
 44
0.0000000001
 40
0.0
 40
0.0
 40
0.0
 40
0.0
 40
0.2539085578
 40
0.503868907
 40
1.0
 40
1.0
 40
1.0
 40
1.0
 10
130.8457896827
 20
93.5452696672
 30
0.0
 10
130.906237966
 20
93.4012982931
 30
0.0
 10
130.9992412773
 20
93.1041104769
 30
0.0
 10
131.110321941
 20
92.498526234
 30
0.0
 10
131.138284074
 20
92.0390582899
 30
0.0
 10
131.1461067227
 20
91.7340520208
 30
0.0
  0
LINE
  5
592
100
AcDbEntity
  8
GEOM
100
AcDbLine
 62
7
  6
CONTINUOUS
 10
136.7149722818
 20
93.8810707542
 11
136.0383368407
 21
93.8649474726
  0
SPLINE
  5
593
100
AcDbEntity
  8
GEOM
100
AcDbSpline
 62
7
  6
CONTINUOUS
 70
0
 71
3
 72
9
 73
5
 74
0
 42
0.0000001
 43
0.0000001
 44
0.0000000001
 40
0.0
 40
0.0
 40
0.0
 40
0.0
 40
0.5036328627
 40
1.0
 40
1.0
 40
1.0
 40
1.0
 10
130.3236328783
 20
94.3914113149
 30
0.0
 10
130.385174852
 20
94.311873806
 30
0.0
 10
130.5442843896
 20
94.1788176356
 30
0.0
 10
130.7466702591
 20
94.1310707542
 30
0.0
 10
130.8457859672
 20
94.1310707542
 30
0.0
  0
SPLINE
  5
594
100
AcDbEntity
  8
GEOM
100
AcDbSpline
 62
7
  6
CONTINUOUS
 70
0
 71
3
 72
10
 73
6
 74
0
 42
0.0000001
 43
0.0000001
 44
0.0000000001
 40
0.0
 40
0.0
 40
0.0
 40
0.0
 40
0.4608014709
 40
0.72273057
 40
1.0
 40
1.0
 40
1.0
 40
1.0
 10
130.3236367856
 20
93.6196985213
 30
0.0
 10
130.3913592811
 20
93.5720334435
 30
0.0
 10
130.5206078981
 20
93.5292711417
 30
0.0
 10
130.7002813596
 20
93.5224505709
 30
0.0
 10
130.7970185703
 20
93.5350410481
 30
0.0
 10
130.845785048
 20
93.5452841355
 30
0.0
  0
SPLINE
  5
595
100
AcDbEntity
  8
GEOM
100
AcDbSpline
 62
7
  6
CONTINUOUS
 70
0
 71
3
 72
16
 73
12
 74
0
 42
0.0000001
 43
0.0000001
 44
0.0000000001
 40
0.0
 40
0.0
 40
0.0
 40
0.0
 40
0.0230338297
 40
0.046047344
 40
0.1018607138
 40
0.1814543624
 40
0.2891437361
 40
0.4258404746
 40
0.5909957698
 40
0.7832207304
 40
1.0
 40
1.0
 40
1.0
 40
1.0
 10
135.6053256639
 20
94.1310707542
 30
0.0
 10
135.6005902211
 20
94.1310698427
 30
0.0
 10
135.5910014938
 20
94.1295548027
 30
0.0
 10
135.5726595266
 20
94.1184829562
 30
0.0
 10
135.5560079938
 20
94.0887027427
 30
0.0
 10
135.5463266663
 20
94.0395953415
 30
0.0
 10
135.5434202031
 20
93.9728098617
 30
0.0
 10
135.5480070482
 20
93.8886885426
 30
0.0
 10
135.5599388596
 20
93.7877579141
 30
0.0
 10
135.5792563073
 20
93.6712821556
 30
0.0
 10
135.5959095852
 20
93.588845172
 30
0.0
 10
135.6053254395
 20
93.5452843166
 30
0.0
  0
SPLINE
  5
596
100
AcDbEntity
  8
GEOM
100
AcDbSpline
 62
7
  6
CONTINUOUS
 70
0
 71
3
 72
16
 73
12
 74
0
 42
0.0000001
 43
0.0000001
 44
0.0000000001
 40
0.0
 40
0.0
 40
0.0
 40
0.0
 40
0.097373746
 40
0.1887921522
 40
0.2748142279
 40
0.3670571168
 40
0.4218228655
 40
0.4841964842
 40
0.6318552338
 40
0.8059535657
 40
1.0
 40
1.0
 40
1.0
 40
1.0
 10
130.8457859671
 20
94.1310707542
 30
0.0
 10
130.8211367082
 20
94.1310703328
 30
0.0
 10
130.7731174229
 20
94.1255927293
 30
0.0
 10
130.7075231161
 20
94.0992280023
 30
0.0
 10
130.6572986326
 20
94.0487581132
 30
0.0
 10
130.6444010266
 20
93.988086082
 30
0.0
 10
130.6508743735
 20
93.935348973
 30
0.0
 10
130.668968421
 20
93.8705675921
 30
0.0
 10
130.7104731118
 20
93.7821792643
 30
0.0
 10
130.7745938229
 20
93.6685133247
 30
0.0
 10
130.8215565553
 20
93.5879948073
 30
0.0
 10
130.8457937191
 20
93.5452696671
 30
0.0
  0
SPLINE
  5
597
100
AcDbEntity
  8
GEOM
100
AcDbSpline
 62
7
  6
CONTINUOUS
 70
0
 71
3
 72
12
 73
8
 74
0
 42
0.0000001
 43
0.0000001
 44
0.0000000001
 40
0.0
 40
0.0
 40
0.0
 40
0.0
 40
0.1036493352
 40
0.2118925634
 40
0.4481599263
 40
0.714427181
 40
1.0
 40
1.0
 40
1.0
 40
1.0
 10
130.448770434
 20
92.1778772304
 30
0.0
 10
130.4524939634
 20
92.1471513144
 30
0.0
 10
130.4686350785
 20
92.0851135144
 30
0.0
 10
130.533649373
 20
91.966826673
 30
0.0
 10
130.674143823
 20
91.8423106587
 30
0.0
 10
130.8948432189
 20
91.7520612052
 30
0.0
 10
131.0608388857
 20
91.7329579164
 30
0.0
 10
131.1461067227
 20
91.7340520208
 30
0.0
  0
SPLINE
  5
598
100
AcDbEntity
  8
GEOM
100
AcDbSpline
 62
7
  6
CONTINUOUS
 70
0
 71
3
 72
12
 73
8
 74
0
 42
0.0000001
 43
0.0000001
 44
0.0000000001
 40
0.0
 40
0.0
 40
0.0
 40
0.0
 40
0.1034253151
 40
0.2119287144
 40
0.4492625722
 40
0.7158392518
 40
1.0
 40
1.0
 40
1.0
 40
1.0
 10
130.448770434
 20
86.7385476235
 30
0.0
 10
130.4525054595
 20
86.7076309946
 30
0.0
 10
130.4687218773
 20
86.6450690647
 30
0.0
 10
130.5337606408
 20
86.5251969388
 30
0.0
 10
130.6738005978
 20
86.3974759612
 30
0.0
 10
130.8940866053
 20
86.3014959145
 30
0.0
 10
131.0605527917
 20
86.2779246078
 30
0.0
 10
131.1461067227
 20
86.2768268292
 30
0.0
  0
SPLINE
  5
599
100
AcDbEntity
  8
GEOM
100
AcDbSpline
 62
7
  6
CONTINUOUS
 70
0
 71
3
 72
9
 73
5
 74
0
 42
0.0000001
 43
0.0000001
 44
0.0000000001
 40
0.0
 40
0.0
 40
0.0
 40
0.0
 40
0.2407443342
 40
1.0
 40
1.0
 40
1.0
 40
1.0
 10
130.3236367918
 20
84.7593503702
 30
0.0
 10
130.3558926152
 20
84.7230986016
 30
0.0
 10
130.5038936092
 20
84.5853799256
 30
0.0
 10
130.6960217558
 20
84.4970509257
 30
0.0
 10
130.8457896437
 20
84.4655937621
 30
0.0
  0
SPLINE
  5
59A
100
AcDbEntity
  8
0
100
AcDbSpline
 62
7
  6
CONTINUOUS
 70
0
 71
3
 72
9
 73
5
 74
0
 42
0.0000001
 43
0.0000001
 44
0.0000000001
 40
0.0
 40
0.0
 40
0.0
 40
0.0
 40
0.2373325247
 40
1.0
 40
1.0
 40
1.0
 40
1.0
 10
129.9925791513
 20
155.6929599088
 30
0.0
 10
129.9853037641
 20
155.6565655548
 30
0.0
 10
129.9577261028
 20
155.5026269964
 30
0.0
 10
129.9351692533
 20
155.347737866
 30
0.0
 10
129.910401813
 20
155.2310707542
 30
0.0
  0
SPLINE
  5
59B
100
AcDbEntity
  8
0
100
AcDbSpline
 62
7
  6
CONTINUOUS
 70
0
 71
3
 72
9
 73
5
 74
0
 42
0.0000001
 43
0.0000001
 44
0.0000000001
 40
0.0
 40
0.0
 40
0.0
 40
0.0
 40
0.1880809739
 40
1.0
 40
1.0
 40
1.0
 40
1.0
 10
95.0814888394
 20
93.631039207
 30
0.0
 10
95.0819836402
 20
93.6310400249
 30
0.0
 10
95.084624426
 20
93.6303840821
 30
0.0
 10
95.0862247724
 20
93.6278751943
 30
0.0
 10
95.087294275
 20
93.6260262463
 30
0.0
  0
SPLINE
  5
59C
100
AcDbEntity
  8
0
100
AcDbSpline
 62
7
  6
CONTINUOUS
 70
0
 71
3
 72
9
 73
5
 74
0
 42
0.0000001
 43
0.0000001
 44
0.0000000001
 40
0.0
 40
0.0
 40
0.0
 40
0.0
 40
0.1879036377
 40
1.0
 40
1.0
 40
1.0
 40
1.0
 10
94.8861888338
 20
93.6310469215
 30
0.0
 10
94.8856935781
 20
93.6310457336
 30
0.0
 10
94.8830510599
 20
93.6303774625
 30
0.0
 10
94.8814530407
 20
93.6278638092
 30
0.0
 10
94.8803830165
 20
93.6260100205
 30
0.0
  0
SPLINE
  5
59D
100
AcDbEntity
  8
0
100
AcDbSpline
 62
7
  6
CONTINUOUS
 70
0
 71
3
 72
9
 73
5
 74
0
 42
0.0000001
 43
0.0000001
 44
0.0000000001
 40
0.0
 40
0.0
 40
0.0
 40
0.0
 40
0.4205314635
 40
1.0
 40
1.0
 40
1.0
 40
1.0
 10
95.5712728115
 20
59.7435405074
 30
0.0
 10
95.5708149203
 20
59.7430822645
 30
0.0
 10
95.5689705927
 20
59.7424371083
 30
0.0
 10
95.5680171806
 20
59.7441123793
 30
0.0
 10
95.5675699536
 20
59.7448849018
 30
0.0
  0
LINE
  5
59E
100
AcDbEntity
  8
0
100
AcDbLine
 62
7
  6
CONTINUOUS
 10
122.1138639252
 20
93.5478089149
 11
122.2038134188
 21
93.6705983822
  0
SPLINE
  5
59F
100
AcDbEntity
  8
0
100
AcDbSpline
 62
7
  6
CONTINUOUS
 70
0
 71
3
 72
12
 73
8
 74
0
 42
0.0000001
 43
0.0000001
 44
0.0000000001
 40
0.0
 40
0.0
 40
0.0
 40
0.0
 40
0.0754129773
 40
0.1719197647
 40
0.4187764094
 40
0.709369589
 40
1.0
 40
1.0
 40
1.0
 40
1.0
 10
122.1138639252
 20
93.5478089149
 30
0.0
 10
122.0895872243
 20
93.5445598125
 30
0.0
 10
122.0330498998
 20
93.5474786159
 30
0.0
 10
121.9005007981
 20
93.5791515644
 30
0.0
 10
121.7115437745
 20
93.6650322371
 30
0.0
 10
121.4840360179
 20
93.8091591969
 30
0.0
 10
121.3378770433
 20
93.9298700402
 30
0.0
 10
121.2699965482
 20
93.9954617822
 30
0.0
  0
LINE
  5
5A0
100
AcDbEntity
  8
0
100
AcDbLine
 62
7
  6
CONTINUOUS
 10
121.2699965482
 20
93.9954617822
 11
121.3532831164
 21
94.1193425805
  0
SPLINE
  5
5A1
100
AcDbEntity
  8
0
100
AcDbSpline
 62
7
  6
CONTINUOUS
 70
0
 71
3
 72
49
 73
45
 74
0
 42
0.0000001
 43
0.0000001
 44
0.0000000001
 40
0.0
 40
0.0
 40
0.0
 40
0.0
 40
0.0002777285
 40
0.0008364458
 40
0.0016833588
 40
0.0028197276
 40
0.0042456644
 40
0.0059609086
 40
0.0102572386
 40
0.0156997446
 40
0.02227535
 40
0.0299706869
 40
0.0387699059
 40
0.0486512457
 40
0.0595920331
 40
0.0845541692
 40
0.1134252622
 40
0.1459426833
 40
0.1818040615
 40
0.220677505
 40
0.2622018335
 40
0.3059883035
 40
0.3986944878
 40
0.4953219791
 40
0.5922245619
 40
0.6857257854
 40
0.7300805267
 40
0.7722672038
 40
0.8118776456
 40
0.8485312916
 40
0.8818709502
 40
0.9115745072
 40
0.9373523967
 40
0.9589515411
 40
0.9681172895
 40
0.9761622872
 40
0.9830655075
 40
0.9888117764
 40
0.9933868932
 40
0.9967780244
 40
0.9980277483
 40
0.998980145
 40
0.9996360748
 40
1.0
 40
1.0
 40
1.0
 40
1.0
 10
89.9330054974
 20
59.8069039289
 30
0.0
 10
89.930833608
 20
59.8090758182
 30
0.0
 10
89.9285797966
 20
59.8186949851
 30
0.0
 10
89.9249413477
 20
59.836488728
 30
0.0
 10
89.9216676516
 20
59.8646667941
 30
0.0
 10
89.918062952
 20
59.902095533
 30
0.0
 10
89.9145184495
 20
59.9493114525
 30
0.0
 10
89.909316364
 20
60.0313840887
 30
0.0
 10
89.9030859886
 20
60.1579231119
 30
0.0
 10
89.895952936
 20
60.3382060864
 30
0.0
 10
89.8887868532
 20
60.5561107533
 30
0.0
 10
89.8815832891
 20
60.8111514875
 30
0.0
 10
89.8743587265
 20
61.1027647041
 30
0.0
 10
89.8671144794
 20
61.430279625
 30
0.0
 10
89.8569879058
 20
61.9365259133
 30
0.0
 10
89.8445430464
 20
62.6527817277
 30
0.0
 10
89.8301120528
 20
63.6076609695
 30
0.0
 10
89.8156354239
 20
64.6830909877
 30
0.0
 10
89.8011178415
 20
65.869149575
 30
0.0
 10
89.7865706966
 20
67.154825785
 30
0.0
 10
89.7719978213
 20
68.5281538073
 30
0.0
 10
89.7521595977
 20
70.4968178825
 30
0.0
 10
89.7277195815
 20
73.0748749937
 30
0.0
 10
89.6988248279
 20
76.2403491126
 30
0.0
 10
89.6698795398
 20
79.4146158044
 30
0.0
 10
89.6453430851
 20
82.0107925729
 30
0.0
 10
89.6253755294
 20
84.0018590843
 30
0.0
 10
89.61065962
 20
85.3969475204
 30
0.0
 10
89.5959423806
 20
86.7068613213
 30
0.0
 10
89.5812313337
 20
87.918925757
 30
0.0
 10
89.5665308655
 20
89.0214171772
 30
0.0
 10
89.5518592147
 20
90.0036178787
 30
0.0
 10
89.5372260304
 20
90.8559592674
 30
0.0
 10
89.5245126827
 20
91.4811625024
 30
0.0
 10
89.5140823042
 20
91.9102507351
 30
0.0
 10
89.5067118332
 20
92.1768367321
 30
0.0
 10
89.4993582482
 20
92.4055861022
 30
0.0
 10
89.4920678857
 20
92.5959491807
 30
0.0
 10
89.48480196
 20
92.7474130299
 30
0.0
 10
89.4784868482
 20
92.8491837503
 30
0.0
 10
89.4730228267
 20
92.9107599562
 30
0.0
 10
89.4695388065
 20
92.9422601419
 30
0.0
 10
89.4658991479
 20
92.9636184396
 30
0.0
 10
89.4633577656
 20
92.9748515214
 30
0.0
 10
89.4613512645
 20
92.9783404996
 30
0.0
  0
SPLINE
  5
5A2
100
AcDbEntity
  8
0
100
AcDbSpline
 62
7
  6
CONTINUOUS
 70
0
 71
3
 72
29
 73
25
 74
0
 42
0.0000001
 43
0.0000001
 44
0.0000000001
 40
0.0
 40
0.0
 40
0.0
 40
0.0
 40
0.1588289517
 40
0.329272666
 40
0.4153171257
 40
0.499989961
 40
0.5818754372
 40
0.6596081363
 40
0.7318905069
 40
0.7975122876
 40
0.8553754407
 40
0.8810904998
 40
0.90451476
 40
0.9255521213
 40
0.9441118854
 40
0.9601203929
 40
0.9735087697
 40
0.9842230664
 40
0.9885645863
 40
0.9922225008
 40
0.9951933824
 40
0.9974768928
 40
0.9990752973
 40
1.0
 40
1.0
 40
1.0
 40
1.0
 10
93.6361889788
 20
85.1310684323
 30
0.0
 10
93.6580803545
 20
83.781035143
 30
0.0
 10
93.7000600307
 20
80.9821892498
 30
0.0
 10
93.749668995
 20
77.4519118473
 30
0.0
 10
93.7903780559
 20
74.551975233
 30
0.0
 10
93.8209989011
 20
72.4048080745
 30
0.0
 10
93.8516014855
 20
70.3283065559
 30
0.0
 10
93.8821745421
 20
68.3571482948
 30
0.0
 10
93.9126977637
 20
66.5242649998
 30
0.0
 10
93.9431536124
 20
64.8603177891
 30
0.0
 10
93.9693543453
 20
63.5922316258
 30
0.0
 10
93.9906731194
 20
62.6828489035
 30
0.0
 10
94.0060105008
 20
62.086470956
 30
0.0
 10
94.0213179143
 20
61.5509414781
 30
0.0
 10
94.036596217
 20
61.078481935
 30
0.0
 10
94.0518061619
 20
60.6710809142
 30
0.0
 10
94.0669462465
 20
60.3304302771
 30
0.0
 10
94.080162456
 20
60.0889717708
 30
0.0
 10
94.0911206192
 20
59.9302685838
 30
0.0
 10
94.0986953039
 20
59.8372967949
 30
0.0
 10
94.1062751184
 20
59.7619543036
 30
0.0
 10
94.1135693455
 20
59.7040293283
 30
0.0
 10
94.1209989399
 20
59.6640620875
 30
0.0
 10
94.126463611
 20
59.642925506
 30
0.0
 10
94.1303861214
 20
59.6361131527
 30
0.0
  0
SPLINE
  5
5A3
100
AcDbEntity
  8
0
100
AcDbSpline
 62
7
  6
CONTINUOUS
 70
0
 71
3
 72
11
 73
7
 74
0
 42
0.0000001
 43
0.0000001
 44
0.0000000001
 40
0.0
 40
0.0
 40
0.0
 40
0.0
 40
0.0853513342
 40
0.2744894831
 40
0.578732977
 40
1.0
 40
1.0
 40
1.0
 40
1.0
 10
94.3314883786
 20
59.6310707542
 30
0.0
 10
94.3284313349
 20
59.6310707542
 30
0.0
 10
94.3222051089
 20
59.641687981
 30
0.0
 10
94.3173362558
 20
59.6600641876
 30
0.0
 10
94.3106480148
 20
59.693116537
 30
0.0
 10
94.3071894741
 20
59.7185766586
 30
0.0
 10
94.3052710123
 20
59.7335427939
 30
0.0
  0
SPLINE
  5
5A4
100
AcDbEntity
  8
0
100
AcDbSpline
 62
7
  6
CONTINUOUS
 70
0
 71
3
 72
37
 73
33
 74
0
 42
0.0000001
 43
0.0000001
 44
0.0000000001
 40
0.0
 40
0.0
 40
0.0
 40
0.0
 40
0.0073868351
 40
0.0190967058
 40
0.0350325468
 40
0.0550543619
 40
0.0789890629
 40
0.1066235544
 40
0.1719945816
 40
0.2488665123
 40
0.3345289189
 40
0.4259655526
 40
0.5199602494
 40
0.6132000933
 40
0.7023987399
 40
0.7444930136
 40
0.7844175771
 40
0.8218189831
 40
0.8563679157
 40
0.8877604046
 40
0.9157177625
 40
0.9399963388
 40
0.9603795839
 40
0.9690547974
 40
0.976691446
 40
0.9832730872
 40
0.9887872974
 40
0.993222156
 40
0.9965678941
 40
0.998822708
 40
0.9995436764
 40
1.0
 40
1.0
 40
1.0
 40
1.0
 10
94.3052710123
 20
59.7335427939
 30
0.0
 10
94.2946565126
 20
59.8163476959
 30
0.0
 10
94.2785162459
 20
60.0317257864
 30
0.0
 10
94.2569745323
 20
60.4269944062
 30
0.0
 10
94.2355371664
 20
60.9653299358
 30
0.0
 10
94.2135422742
 20
61.6418361036
 30
0.0
 10
94.1915021697
 20
62.4506306715
 30
0.0
 10
94.1601687929
 20
63.7718607629
 30
0.0
 10
94.1222761593
 20
65.6913671622
 30
0.0
 10
94.0785210225
 20
68.2666725286
 30
0.0
 10
94.0345946796
 20
71.1365950449
 30
0.0
 10
93.9905462382
 20
74.2000491471
 30
0.0
 10
93.9464599054
 20
77.3491478766
 30
0.0
 10
93.902381023
 20
80.4729515061
 30
0.0
 10
93.8650281762
 20
83.0102380835
 30
0.0
 10
93.834689671
 20
84.9450178681
 30
0.0
 10
93.8123902139
 20
86.2944638579
 30
0.0
 10
93.7901098852
 20
87.5586240657
 30
0.0
 10
93.7678550998
 20
88.7263433601
 30
0.0
 10
93.7456382047
 20
89.7873102824
 30
0.0
 10
93.7234789499
 20
90.7321800494
 30
0.0
 10
93.7013970562
 20
91.5525917448
 30
0.0
 10
93.6822255427
 20
92.1550805776
 30
0.0
 10
93.6665334813
 20
92.5694959823
 30
0.0
 10
93.6554309012
 20
92.8279888271
 30
0.0
 10
93.6443800819
 20
93.050729009
 30
0.0
 10
93.6333542901
 20
93.2372159262
 30
0.0
 10
93.6225193
 20
93.3871181177
 30
0.0
 10
93.611647554
 20
93.4999436911
 30
0.0
 10
93.6024134521
 20
93.5709666005
 30
0.0
 10
93.5939906432
 20
93.6087475816
 30
0.0
 10
93.5898396501
 20
93.6215554778
 30
0.0
 10
93.5872711697
 20
93.6260275124
 30
0.0
  0
SPLINE
  5
5A5
100
AcDbEntity
  8
0
100
AcDbSpline
 62
7
  6
CONTINUOUS
 70
0
 71
3
 72
11
 73
7
 74
0
 42
0.0000001
 43
0.0000001
 44
0.0000000001
 40
0.0
 40
0.0
 40
0.0
 40
0.0
 40
0.0864181932
 40
0.2756531348
 40
0.5794977171
 40
1.0
 40
1.0
 40
1.0
 40
1.0
 10
92.8314880931
 20
59.6310707542
 30
0.0
 10
92.8285554536
 20
59.6310707542
 30
0.0
 10
92.8224688903
 20
59.6409969317
 30
0.0
 10
92.8177284815
 20
59.6584895787
 30
0.0
 10
92.8112232388
 20
59.6896838515
 30
0.0
 10
92.8078613202
 20
59.7137723448
 30
0.0
 10
92.8059966599
 20
59.7279199228
 30
0.0
  0
SPLINE
  5
5A6
100
AcDbEntity
  8
0
100
AcDbSpline
 62
7
  6
CONTINUOUS
 70
0
 71
3
 72
21
 73
17
 74
0
 42
0.0000001
 43
0.0000001
 44
0.0000000001
 40
0.0
 40
0.0
 40
0.0
 40
0.0
 40
0.0057378781
 40
0.0140121554
 40
0.0247916415
 40
0.0380392413
 40
0.0717254461
 40
0.1145569455
 40
0.1658751258
 40
0.2248903131
 40
0.2906941303
 40
0.3622725335
 40
0.5182641848
 40
0.6832967745
 40
0.8472277144
 40
1.0
 40
1.0
 40
1.0
 40
1.0
 10
92.8059966599
 20
59.7279199228
 30
0.0
 10
92.7996463542
 20
59.7761010545
 30
0.0
 10
92.7887058867
 20
59.8943300397
 30
0.0
 10
92.7744298676
 20
60.1038113715
 30
0.0
 10
92.7600273486
 20
60.377028138
 30
0.0
 10
92.738871658
 20
60.8653817639
 30
0.0
 10
92.7136400815
 20
61.6252609795
 30
0.0
 10
92.6847454569
 20
62.7076012836
 30
0.0
 10
92.6556850553
 20
64.004532447
 30
0.0
 10
92.6264648118
 20
65.4960673361
 30
0.0
 10
92.597165836
 20
67.159227432
 30
0.0
 10
92.5568676496
 20
69.6436750569
 30
0.0
 10
92.5078202074
 20
72.9685214181
 30
0.0
 10
92.4503069786
 20
77.0755191181
 30
0.0
 10
92.3928194807
 20
81.1552475766
 30
0.0
 10
92.3524675448
 20
83.8373109022
 30
0.0
 10
92.3314884384
 20
85.1310685618
 30
0.0
  0
SPLINE
  5
5A7
100
AcDbEntity
  8
0
100
AcDbSpline
 62
7
  6
CONTINUOUS
 70
0
 71
3
 72
23
 73
19
 74
0
 42
0.0000001
 43
0.0000001
 44
0.0000000001
 40
0.0
 40
0.0
 40
0.0
 40
0.0
 40
0.2126773248
 40
0.4055930289
 40
0.5755421358
 40
0.6510412517
 40
0.7197928476
 40
0.7815247592
 40
0.8359807819
 40
0.8829432802
 40
0.922222676
 40
0.9536569728
 40
0.966396555
 40
0.9771337853
 40
0.9858581761
 40
0.9925680068
 40
0.9972705272
 40
1.0
 40
1.0
 40
1.0
 40
1.0
 10
92.3314884384
 20
85.1310685618
 30
0.0
 10
92.3217169398
 20
85.7336657447
 30
0.0
 10
92.3024367068
 20
86.8828576238
 30
0.0
 10
92.2723368656
 20
88.5135287163
 30
0.0
 10
92.2464365099
 20
89.7554788419
 30
0.0
 10
92.2253654722
 20
90.6455968408
 30
0.0
 10
92.2102073163
 20
91.2291058114
 30
0.0
 10
92.1950784806
 20
91.7529626404
 30
0.0
 10
92.1799811695
 20
92.2150461696
 30
0.0
 10
92.1649468763
 20
92.6134702606
 30
0.0
 10
92.1499841644
 20
92.946600818
 30
0.0
 10
92.136920761
 20
93.1827408313
 30
0.0
 10
92.1260921994
 20
93.3379637094
 30
0.0
 10
92.1186072568
 20
93.4289268048
 30
0.0
 10
92.1111208302
 20
93.5026721497
 30
0.0
 10
92.1039082665
 20
93.5594002468
 30
0.0
 10
92.0965720862
 20
93.5985931243
 30
0.0
 10
92.0911565401
 20
93.6193293147
 30
0.0
 10
92.0872945469
 20
93.6260308161
 30
0.0
  0
SPLINE
  5
5A8
100
AcDbEntity
  8
0
100
AcDbSpline
 62
7
  6
CONTINUOUS
 70
0
 71
3
 72
9
 73
5
 74
0
 42
0.0000001
 43
0.0000001
 44
0.0000000001
 40
0.0
 40
0.0
 40
0.0
 40
0.0
 40
0.5063597721
 40
1.0
 40
1.0
 40
1.0
 40
1.0
 10
121.6188891783
 20
93.362385026
 30
0.0
 10
121.7096156867
 20
93.3625250302
 30
0.0
 10
121.8902584701
 20
93.3940637696
 30
0.0
 10
122.0483360576
 20
93.4884028809
 30
0.0
 10
122.1138639252
 20
93.5478089149
 30
0.0
  0
SPLINE
  5
5A9
100
AcDbEntity
  8
0
100
AcDbSpline
 62
7
  6
CONTINUOUS
 70
0
 71
3
 72
33
 73
29
 74
0
 42
0.0000001
 43
0.0000001
 44
0.0000000001
 40
0.0
 40
0.0
 40
0.0
 40
0.0
 40
0.1339460172
 40
0.2114714285
 40
0.2937668306
 40
0.3789825957
 40
0.4652089567
 40
0.5505115528
 40
0.6329772898
 40
0.7107564874
 40
0.7821046037
 40
0.8148597136
 40
0.8454216337
 40
0.8736167933
 40
0.8992882227
 40
0.9222918977
 40
0.9424977464
 40
0.9597952023
 40
0.9740843637
 40
0.980077218
 40
0.985290615
 40
0.9897163838
 40
0.9933497095
 40
0.9961878711
 40
0.9982296884
 40
0.99947947
 40
0.9998181056
 40
1.0
 40
1.0
 40
1.0
 40
1.0
 10
95.458838672
 20
64.1102028037
 30
0.0
 10
95.4314693136
 20
65.4285036047
 30
0.0
 10
95.3954109081
 20
67.5099576466
 30
0.0
 10
95.3503963051
 20
70.4014910296
 30
0.0
 10
95.3150639918
 20
72.8134100891
 30
0.0
 10
95.279675756
 20
75.3109899449
 30
0.0
 10
95.2442859574
 20
77.8381761256
 30
0.0
 10
95.2089022074
 20
80.3382879969
 30
0.0
 10
95.173547992
 20
82.7552367083
 30
0.0
 10
95.1382412785
 20
85.0348007117
 30
0.0
 10
95.1081021447
 20
86.8250261883
 30
0.0
 10
95.0836542805
 20
88.1504651256
 30
0.0
 10
95.065858419
 20
89.0511495104
 30
0.0
 10
95.0480790166
 20
89.8820868107
 30
0.0
 10
95.0303236578
 20
90.6386016895
 30
0.0
 10
95.0126016031
 20
91.316445617
 30
0.0
 10
94.9949303752
 20
91.9118249833
 30
0.0
 10
94.9773289123
 20
92.4213765767
 30
0.0
 10
94.9620139234
 20
92.7910018002
 30
0.0
 10
94.94943848
 20
93.0416715028
 30
0.0
 10
94.9405983725
 20
93.1952970971
 30
0.0
 10
94.9317830722
 20
93.3256766816
 30
0.0
 10
94.9230673376
 20
93.4325510549
 30
0.0
 10
94.9143722899
 20
93.5160462169
 30
0.0
 10
94.906154076
 20
93.5755420308
 30
0.0
 10
94.89839772
 20
93.6110397812
 30
0.0
 10
94.8922488109
 20
93.6268742639
 30
0.0
 10
94.8879794247
 20
93.6310512164
 30
0.0
 10
94.8861888338
 20
93.6310469215
 30
0.0
  0
SPLINE
  5
5AA
100
AcDbEntity
  8
0
100
AcDbSpline
 62
7
  6
CONTINUOUS
 70
0
 71
3
 72
10
 73
6
 74
0
 42
0.0000001
 43
0.0000001
 44
0.0000000001
 40
0.0
 40
0.0
 40
0.0
 40
0.0
 40
0.2038111937
 40
0.4476774073
 40
1.0
 40
1.0
 40
1.0
 40
1.0
 10
121.6188891783
 20
93.3623850082
 30
0.0
 10
121.5773580024
 20
93.3902618971
 30
0.0
 10
121.4975872529
 20
93.4683426516
 30
0.0
 10
121.3624567363
 20
93.6741437222
 30
0.0
 10
121.2970737355
 20
93.8626420371
 30
0.0
 10
121.2699965482
 20
93.9954617822
 30
0.0
  0
SPLINE
  5
5AB
100
AcDbEntity
  8
0
100
AcDbSpline
 62
7
  6
CONTINUOUS
 70
0
 71
3
 72
42
 73
38
 74
0
 42
0.0000001
 43
0.0000001
 44
0.0000000001
 40
0.0
 40
0.0
 40
0.0
 40
0.0
 40
0.000229794
 40
0.0006978946
 40
0.0014402453
 40
0.0024636817
 40
0.0053599801
 40
0.0093902067
 40
0.0145495728
 40
0.0208256671
 40
0.028204177
 40
0.0366703076
 40
0.046204807
 40
0.0567842392
 40
0.080981942
 40
0.1090417951
 40
0.1407068709
 40
0.1756840642
 40
0.2136540334
 40
0.2542648707
 40
0.2971449061
 40
0.3881129371
 40
0.4832164949
 40
0.5789616935
 40
0.6718309445
 40
0.7584125818
 40
0.8355263298
 40
0.8696319853
 40
0.9003403473
 40
0.9273716951
 40
0.950475798
 40
0.9694416099
 40
0.9840968149
 40
0.9897647035
 40
0.9943085478
 40
0.9977215629
 40
1.0
 40
1.0
 40
1.0
 40
1.0
 10
94.3088383509
 20
92.6310647617
 30
0.0
 10
94.3112877519
 20
92.6310700879
 30
0.0
 10
94.3168316634
 20
92.6240192454
 30
0.0
 10
94.3212089607
 20
92.6101630251
 30
0.0
 10
94.3270265225
 20
92.5866103893
 30
0.0
 10
94.3351544559
 20
92.5378118955
 30
0.0
 10
94.3450201154
 20
92.4534375521
 30
0.0
 10
94.3560307179
 20
92.3251632193
 30
0.0
 10
94.3672299633
 20
92.1606531361
 30
0.0
 10
94.3784997023
 20
91.9604386485
 30
0.0
 10
94.3898257057
 20
91.7249166868
 30
0.0
 10
94.4011793996
 20
91.4546353793
 30
0.0
 10
94.4125553801
 20
91.1502076667
 30
0.0
 10
94.4284669078
 20
90.6781511747
 30
0.0
 10
94.4480022676
 20
90.0086446563
 30
0.0
 10
94.4706238497
 20
89.114386352
 30
0.0
 10
94.4932993543
 20
88.1051967492
 30
0.0
 10
94.5160216466
 20
86.9903511554
 30
0.0
 10
94.5387696378
 20
85.7801338446
 30
0.0
 10
94.5615415949
 20
84.4856656967
 30
0.0
 10
94.5925331759
 20
82.6263417723
 30
0.0
 10
94.6306689057
 20
80.1862116931
 30
0.0
 10
94.6756569016
 20
77.182623817
 30
0.0
 10
94.7206532415
 20
74.1587684601
 30
0.0
 10
94.7655956586
 20
71.2257586253
 30
0.0
 10
94.8104281402
 20
68.4913670503
 30
0.0
 10
94.8489774531
 20
66.3833274269
 30
0.0
 10
94.8805645397
 20
64.8708283744
 30
0.0
 10
94.9032297682
 20
63.8920967262
 30
0.0
 10
94.9258272841
 20
63.0306665192
 30
0.0
 10
94.9482888319
 20
62.2944434281
 30
0.0
 10
94.9706228122
 20
61.6902154362
 30
0.0
 10
94.9901385972
 20
61.2718602026
 30
0.0
 10
95.0065751322
 20
61.0073130447
 30
0.0
 10
95.0176549328
 20
60.8624831453
 30
0.0
 10
95.0286638695
 20
60.7539647779
 30
0.0
 10
95.0370921331
 20
60.6937948237
 30
0.0
 10
95.0421720253
 20
60.6700458594
 30
0.0
  0
SPLINE
  5
5AC
100
AcDbEntity
  8
0
100
AcDbSpline
 62
7
  6
CONTINUOUS
 70
0
 71
3
 72
9
 73
5
 74
0
 42
0.0000001
 43
0.0000001
 44
0.0000000001
 40
0.0
 40
0.0
 40
0.0
 40
0.0
 40
0.3290676928
 40
1.0
 40
1.0
 40
1.0
 40
1.0
 10
95.0421720253
 20
60.6700458594
 30
0.0
 10
95.0429810925
 20
60.6662633956
 30
0.0
 10
95.0456848506
 20
60.6548725138
 30
0.0
 10
95.0487218159
 20
60.6432584978
 30
0.0
 10
95.0526703758
 20
60.6364316886
 30
0.0
  0
SPLINE
  5
5AD
100
AcDbEntity
  8
0
100
AcDbSpline
 62
7
  6
CONTINUOUS
 70
0
 71
3
 72
11
 73
7
 74
0
 42
0.0000001
 43
0.0000001
 44
0.0000000001
 40
0.0
 40
0.0
 40
0.0
 40
0.0
 40
0.089295034
 40
0.27882683
 40
0.5815968487
 40
1.0
 40
1.0
 40
1.0
 40
1.0
 10
93.3861891437
 20
93.6310707542
 30
0.0
 10
93.3888220161
 20
93.6310707542
 30
0.0
 10
93.3945200809
 20
93.6227477375
 30
0.0
 10
93.3989626418
 20
93.6073820915
 30
0.0
 10
93.4050024621
 20
93.5805565025
 30
0.0
 10
93.4081321318
 20
93.5597142135
 30
0.0
 10
93.4098650922
 20
93.5474998809
 30
0.0
  0
SPLINE
  5
5AE
100
AcDbEntity
  8
0
100
AcDbSpline
 62
7
  6
CONTINUOUS
 70
0
 71
3
 72
17
 73
13
 74
0
 42
0.0000001
 43
0.0000001
 44
0.0000000001
 40
0.0
 40
0.0
 40
0.0
 40
0.0
 40
0.0154530874
 40
0.0378784398
 40
0.0672030753
 40
0.1033373093
 40
0.1955022863
 40
0.3130953539
 40
0.4544749842
 40
0.6176428492
 40
0.8003653184
 40
1.0
 40
1.0
 40
1.0
 40
1.0
 10
93.4098650922
 20
93.5474998809
 30
0.0
 10
93.4159579885
 20
93.5045556449
 30
0.0
 10
93.4263943921
 20
93.3986900013
 30
0.0
 10
93.4400069439
 20
93.2105646591
 30
0.0
 10
93.4537354921
 20
92.9642541692
 30
0.0
 10
93.4739361625
 20
92.522291065
 30
0.0
 10
93.4980146725
 20
91.8325133183
 30
0.0
 10
93.5255810174
 20
90.8473117344
 30
0.0
 10
93.5533044902
 20
89.6627518635
 30
0.0
 10
93.5811866691
 20
88.2953474554
 30
0.0
 10
93.6091395511
 20
86.7644014018
 30
0.0
 10
93.627103982
 20
85.691336957
 30
0.0
 10
93.6361889788
 20
85.1310684323
 30
0.0
  0
SPLINE
  5
5AF
100
AcDbEntity
  8
0
100
AcDbSpline
 62
7
  6
CONTINUOUS
 70
0
 71
3
 72
9
 73
5
 74
0
 42
0.0000001
 43
0.0000001
 44
0.0000000001
 40
0.0
 40
0.0
 40
0.0
 40
0.0
 40
0.1811859134
 40
1.0
 40
1.0
 40
1.0
 40
1.0
 10
94.1650066631
 20
92.6257139849
 30
0.0
 10
94.1658373513
 20
92.6242779178
 30
0.0
 10
94.1697443753
 20
92.615969283
 30
0.0
 10
94.1720416087
 20
92.6070312905
 30
0.0
 10
94.1737812107
 20
92.5997384902
 30
0.0
  0
SPLINE
  5
5B0
100
AcDbEntity
  8
0
100
AcDbSpline
 62
7
  6
CONTINUOUS
 70
0
 71
3
 72
42
 73
38
 74
0
 42
0.0000001
 43
0.0000001
 44
0.0000000001
 40
0.0
 40
0.0
 40
0.0
 40
0.0
 40
0.0021138644
 40
0.0053669976
 40
0.0097568484
 40
0.0152772002
 40
0.029658325
 40
0.0483794943
 40
0.0712702097
 40
0.0981201485
 40
0.1286798472
 40
0.1626695021
 40
0.2396473711
 40
0.326213647
 40
0.4191737068
 40
0.5150965631
 40
0.6104415963
 40
0.7016895606
 40
0.7447156827
 40
0.7854727641
 40
0.8235856271
 40
0.8586994621
 40
0.8904925714
 40
0.9186682736
 40
0.9429688767
 40
0.9535933993
 40
0.9631689232
 40
0.9716724046
 40
0.979083168
 40
0.9853864542
 40
0.9905686793
 40
0.9946171946
 40
0.9975259305
 40
0.9985536347
 40
0.9992991001
 40
0.9997692628
 40
1.0
 40
1.0
 40
1.0
 40
1.0
 10
94.1737812107
 20
92.5997384902
 30
0.0
 10
94.1790105192
 20
92.5778160601
 30
0.0
 10
94.1874127548
 20
92.5210910327
 30
0.0
 10
94.198436966
 20
92.4176923592
 30
0.0
 10
94.2094995134
 20
92.2777503312
 30
0.0
 10
94.2260114684
 20
92.0192961548
 30
0.0
 10
94.2455535922
 20
91.607946147
 30
0.0
 10
94.2679267951
 20
91.0113841207
 30
0.0
 10
94.290426495
 20
90.2818016976
 30
0.0
 10
94.3130711933
 20
89.4259581669
 30
0.0
 10
94.3357846887
 20
88.4517450253
 30
0.0
 10
94.3674602509
 20
86.94314888
 30
0.0
 10
94.4061042039
 20
84.8374444575
 30
0.0
 10
94.451033484
 20
82.1030293899
 30
0.0
 10
94.496075373
 20
79.1666041316
 30
0.0
 10
94.5411732388
 20
76.1365725084
 30
0.0
 10
94.586263749
 20
73.1247967203
 30
0.0
 10
94.6244829287
 20
70.676953005
 30
0.0
 10
94.6555436287
 20
68.8110728239
 30
0.0
 10
94.6783687245
 20
67.5116476987
 30
0.0
 10
94.7011699228
 20
66.2965947071
 30
0.0
 10
94.7239457287
 20
65.1771309162
 30
0.0
 10
94.7466736178
 20
64.1636372717
 30
0.0
 10
94.7693492875
 20
63.2654628206
 30
0.0
 10
94.788928934
 20
62.5929793932
 30
0.0
 10
94.8048779859
 20
62.1187921167
 30
0.0
 10
94.8162813272
 20
61.8129735276
 30
0.0
 10
94.827660654
 20
61.5414465107
 30
0.0
 10
94.8390132674
 20
61.3048347782
 30
0.0
 10
94.8503102799
 20
61.1036939365
 30
0.0
 10
94.8615362522
 20
60.9384144526
 30
0.0
 10
94.8725707462
 20
60.8095383831
 30
0.0
 10
94.8824592841
 20
60.7247675573
 30
0.0
 10
94.8906085539
 20
60.6757494513
 30
0.0
 10
94.8964376255
 20
60.6520843506
 30
0.0
 10
94.9008299987
 20
60.638171245
 30
0.0
 10
94.9063786126
 20
60.6310699734
 30
0.0
 10
94.9088386747
 20
60.6310709039
 30
0.0
  0
SPLINE
  5
5B1
100
AcDbEntity
  8
0
100
AcDbSpline
 62
7
  6
CONTINUOUS
 70
0
 71
3
 72
17
 73
13
 74
0
 42
0.0000001
 43
0.0000001
 44
0.0000000001
 40
0.0
 40
0.0
 40
0.0
 40
0.0
 40
0.1837652771
 40
0.3628051813
 40
0.5310630096
 40
0.6810798676
 40
0.8049114605
 40
0.8964010883
 40
0.9297295957
 40
0.9559742112
 40
0.9779377993
 40
1.0
 40
1.0
 40
1.0
 40
1.0
 10
108.5664966915
 20
139.8520610061
 30
0.0
 10
108.5664966062
 20
139.8049953527
 30
0.0
 10
108.5643346837
 20
139.7120578809
 30
0.0
 10
108.5541736566
 20
139.5763496414
 30
0.0
 10
108.5370898671
 20
139.4500599916
 30
0.0
 10
108.5137328584
 20
139.3390607104
 30
0.0
 10
108.4854088337
 20
139.2498457355
 30
0.0
 10
108.4572508981
 20
139.1919093733
 30
0.0
 10
108.4319656389
 20
139.1623236785
 30
0.0
 10
108.4144482339
 20
139.1502276451
 30
0.0
 10
108.3960336223
 20
139.1469253253
 30
0.0
 10
108.3849723613
 20
139.1509702929
 30
0.0
 10
108.3801064386
 20
139.1538428053
 30
0.0
  0
SPLINE
  5
5B2
100
AcDbEntity
  8
0
100
AcDbSpline
 62
7
  6
CONTINUOUS
 70
0
 71
3
 72
15
 73
11
 74
0
 42
0.0000001
 43
0.0000001
 44
0.0000000001
 40
0.0
 40
0.0
 40
0.0
 40
0.0
 40
0.1798788708
 40
0.3559928632
 40
0.5228014791
 40
0.6724006335
 40
0.7954186957
 40
0.8850695257
 40
0.9452761961
 40
1.0
 40
1.0
 40
1.0
 40
1.0
 10
108.3758145891
 20
139.8520610061
 30
0.0
 10
108.3813045338
 20
139.8171900229
 30
0.0
 10
108.3904244952
 20
139.7478861322
 30
0.0
 10
108.3978683211
 20
139.6454903918
 30
0.0
 10
108.3979800679
 20
139.5487340611
 30
0.0
 10
108.3903938961
 20
139.4626833747
 30
0.0
 10
108.3744717841
 20
139.3930058823
 30
0.0
 10
108.3530401636
 20
139.3436780421
 30
0.0
 10
108.3192577881
 20
139.3154118324
 30
0.0
 10
108.2944648924
 20
139.321678879
 30
0.0
 10
108.2851639876
 20
139.327047886
 30
0.0
  0
LINE
  5
5B3
100
AcDbEntity
  8
0
100
AcDbLine
 62
7
  6
CONTINUOUS
 10
108.3801064386
 20
139.1538428053
 11
108.1615458271
 21
139.2829129132
  0
LINE
  5
5B4
100
AcDbEntity
  8
0
100
AcDbLine
 62
7
  6
CONTINUOUS
 10
108.1615458271
 20
139.2829129132
 11
108.158838672
 21
139.2845117872
  0
SPLINE
  5
5B5
100
AcDbEntity
  8
0
100
AcDbSpline
 62
7
  6
CONTINUOUS
 70
0
 71
3
 72
9
 73
5
 74
0
 42
0.0000001
 43
0.0000001
 44
0.0000000001
 40
0.0
 40
0.0
 40
0.0
 40
0.0
 40
0.4962033342
 40
1.0
 40
1.0
 40
1.0
 40
1.0
 10
108.2851639875
 20
139.327047886
 30
0.0
 10
108.3145173556
 20
139.3101007126
 30
0.0
 10
108.365053244
 20
139.2584448911
 30
0.0
 10
108.38109818
 20
139.1882415418
 30
0.0
 10
108.3801064454
 20
139.1538428053
 30
0.0
  0
SPLINE
  5
5B6
100
AcDbEntity
  8
0
100
AcDbSpline
 62
7
  6
CONTINUOUS
 70
0
 71
3
 72
11
 73
7
 74
0
 42
0.0000001
 43
0.0000001
 44
0.0000000001
 40
0.0
 40
0.0
 40
0.0
 40
0.0
 40
0.0853934385
 40
0.2745377422
 40
0.5787663239
 40
1.0
 40
1.0
 40
1.0
 40
1.0
 10
91.8861890831
 20
93.6310707542
 30
0.0
 10
91.8892402285
 20
93.6310707542
 30
0.0
 10
91.8954591415
 20
93.6204845387
 30
0.0
 10
91.9003221264
 20
93.6021495819
 30
0.0
 10
91.9070020522
 20
93.5691824284
 30
0.0
 10
91.9104564599
 20
93.5437855615
 30
0.0
 10
91.9123725974
 20
93.5288571664
 30
0.0
  0
SPLINE
  5
5B7
100
AcDbEntity
  8
0
100
AcDbSpline
 62
7
  6
CONTINUOUS
 70
0
 71
3
 72
37
 73
33
 74
0
 42
0.0000001
 43
0.0000001
 44
0.0000000001
 40
0.0
 40
0.0
 40
0.0
 40
0.0
 40
0.0073805913
 40
0.0190845325
 40
0.035015274
 40
0.0550326452
 40
0.0789636195
 40
0.1065948736
 40
0.1719607175
 40
0.2488288484
 40
0.3344894928
 40
0.4259289582
 40
0.519928679
 40
0.6131738805
 40
0.7023777507
 40
0.7444744944
 40
0.7844019992
 40
0.8218069163
 40
0.8563591145
 40
0.8877540163
 40
0.915713392
 40
0.9399934722
 40
0.9603777654
 40
0.9690533388
 40
0.9766903971
 40
0.9832723221
 40
0.9887867136
 40
0.9932217151
 40
0.9965675844
 40
0.9988225049
 40
0.9995435398
 40
1.0
 40
1.0
 40
1.0
 40
1.0
 10
91.9123725974
 20
93.5288571664
 30
0.0
 10
91.9229919108
 20
93.4461233798
 30
0.0
 10
91.939131094
 20
93.2308809274
 30
0.0
 10
91.9606734536
 20
92.8358051522
 30
0.0
 10
91.9821101486
 20
92.2976402809
 30
0.0
 10
92.0041066243
 20
91.6212790922
 30
0.0
 10
92.0261475197
 20
90.8126072856
 30
0.0
 10
92.0574827855
 20
89.4915044373
 30
0.0
 10
92.0953768549
 20
87.572121469
 30
0.0
 10
92.1391332997
 20
84.9969178322
 30
0.0
 10
92.1830613113
 20
82.1270041882
 30
0.0
 10
92.2271119705
 20
79.0634577499
 30
0.0
 10
92.2712008828
 20
75.9141855583
 30
0.0
 10
92.3152821691
 20
72.7901816237
 30
0.0
 10
92.3526368133
 20
70.2527280983
 30
0.0
 10
92.3829766239
 20
68.3178132896
 30
0.0
 10
92.4052773433
 20
66.9682561186
 30
0.0
 10
92.4275592737
 20
65.7039763975
 30
0.0
 10
92.4498152375
 20
64.5361442924
 30
0.0
 10
92.4720333906
 20
63.4750822583
 30
0.0
 10
92.4941946132
 20
62.530138196
 30
0.0
 10
92.5162776624
 20
61.7096685785
 30
0.0
 10
92.5354462697
 20
61.1071421018
 30
0.0
 10
92.5511395703
 20
60.6927029951
 30
0.0
 10
92.5622462147
 20
60.4341964214
 30
0.0
 10
92.5733030927
 20
60.2114449078
 30
0.0
 10
92.5843312779
 20
60.02494989
 30
0.0
 10
92.5951610377
 20
59.8750409061
 30
0.0
 10
92.6060142897
 20
59.7622089633
 30
0.0
 10
92.6152316999
 20
59.6911789757
 30
0.0
 10
92.6236538734
 20
59.6533945306
 30
0.0
 10
92.6278107083
 20
59.6405847513
 30
0.0
 10
92.6303849231
 20
59.6361141869
 30
0.0
  0
SPLINE
  5
5B8
100
AcDbEntity
  8
0
100
AcDbSpline
 62
7
  6
CONTINUOUS
 70
0
 71
3
 72
14
 73
10
 74
0
 42
0.0000001
 43
0.0000001
 44
0.0000000001
 40
0.0
 40
0.0
 40
0.0
 40
0.0
 40
0.0433124668
 40
0.1103397557
 40
0.2056033379
 40
0.3277961527
 40
0.473490939
 40
0.6380091667
 40
1.0
 40
1.0
 40
1.0
 40
1.0
 10
107.612966042
 20
146.6310707542
 30
0.0
 10
107.6236979673
 20
146.6310705299
 30
0.0
 10
107.6494278194
 20
146.6153158775
 30
0.0
 10
107.6768363004
 20
146.5724085224
 30
0.0
 10
107.7052883768
 20
146.5075270902
 30
0.0
 10
107.7310689056
 20
146.421212975
 30
0.0
 10
107.7535713488
 20
146.3163555967
 30
0.0
 10
107.7773640233
 20
146.1514221474
 30
0.0
 10
107.7842826297
 20
146.0207645282
 30
0.0
 10
107.7842828255
 20
145.9310707542
 30
0.0
  0
SPLINE
  5
5B9
100
AcDbEntity
  8
0
100
AcDbSpline
 62
7
  6
CONTINUOUS
 70
0
 71
3
 72
11
 73
7
 74
0
 42
0.0000001
 43
0.0000001
 44
0.0000000001
 40
0.0
 40
0.0
 40
0.0
 40
0.0
 40
0.2472351955
 40
0.4964486784
 40
0.7477562155
 40
1.0
 40
1.0
 40
1.0
 40
1.0
 10
107.4172634603
 20
146.4310707542
 30
0.0
 10
107.4427085633
 20
146.4310707542
 30
0.0
 10
107.4943249784
 20
146.4416812014
 30
0.0
 10
107.5595523633
 20
146.4861511043
 30
0.0
 10
107.6027351774
 20
146.5527865673
 30
0.0
 10
107.612966042
 20
146.6051101742
 30
0.0
 10
107.612966042
 20
146.6310707542
 30
0.0
  0
SPLINE
  5
5BA
100
AcDbEntity
  8
0
100
AcDbSpline
 62
7
  6
CONTINUOUS
 70
0
 71
3
 72
13
 73
9
 74
0
 42
0.0000001
 43
0.0000001
 44
0.0000000001
 40
0.0
 40
0.0
 40
0.0
 40
0.0
 40
0.1260648226
 40
0.2228117995
 40
0.3431428016
 40
0.4851926131
 40
0.6455650527
 40
1.0
 40
1.0
 40
1.0
 40
1.0
 10
107.4172634603
 20
146.4310707542
 30
0.0
 10
107.4405511812
 20
146.4310705207
 30
0.0
 10
107.476715288
 20
146.3991721276
 30
0.0
 10
107.5091967454
 20
146.3466578168
 30
0.0
 10
107.5364594254
 20
146.2853491485
 30
0.0
 10
107.559633865
 20
146.2108227341
 30
0.0
 10
107.5848083275
 20
146.0919247551
 30
0.0
 10
107.592186699
 20
145.9965448649
 30
0.0
 10
107.5921869129
 20
145.9310707542
 30
0.0
  0
SPLINE
  5
5BB
100
AcDbEntity
  8
0
100
AcDbSpline
 62
7
  6
CONTINUOUS
 70
0
 71
3
 72
44
 73
40
 74
0
 42
0.0000001
 43
0.0000001
 44
0.0000000001
 40
0.0
 40
0.0
 40
0.0
 40
0.0
 40
0.0002324378
 40
0.000706656
 40
0.0014587824
 40
0.0024959933
 40
0.0054332311
 40
0.0095222403
 40
0.0147542808
 40
0.021118082
 40
0.0286014285
 40
0.0371868094
 40
0.0468528488
 40
0.0575779957
 40
0.0821061868
 40
0.1105395468
 40
0.1426153798
 40
0.1780328318
 40
0.2164614046
 40
0.2575428775
 40
0.3008920967
 40
0.392759682
 40
0.488638498
 40
0.5849533124
 40
0.6781127855
 40
0.7646433944
 40
0.8044016615
 40
0.8413190267
 40
0.8750500323
 40
0.9052814697
 40
0.931728437
 40
0.9541477952
 40
0.9723275578
 40
0.9797753552
 40
0.9861029118
 40
0.9912970448
 40
0.9953483829
 40
0.9982491793
 40
1.0
 40
1.0
 40
1.0
 40
1.0
 10
89.8088383423
 20
92.6310573076
 30
0.0
 10
89.8113176328
 20
92.6310507044
 30
0.0
 10
89.8168870374
 20
92.6238669216
 30
0.0
 10
89.8213051297
 20
92.609829604
 30
0.0
 10
89.8271624122
 20
92.5859308667
 30
0.0
 10
89.8353564422
 20
92.5364191445
 30
0.0
 10
89.8452927527
 20
92.4507690552
 30
0.0
 10
89.856381076
 20
92.3205694916
 30
0.0
 10
89.8676675881
 20
92.1536069585
 30
0.0
 10
89.8790235646
 20
91.9504255126
 30
0.0
 10
89.8904319468
 20
91.7114146802
 30
0.0
 10
89.9018699201
 20
91.437153251
 30
0.0
 10
89.9133331177
 20
91.128285874
 30
0.0
 10
89.9293625603
 20
90.649420645
 30
0.0
 10
89.9490414683
 20
89.9703880345
 30
0.0
 10
89.9718331438
 20
89.0636214272
 30
0.0
 10
89.9946780512
 20
88.040673287
 30
0.0
 10
90.0175690075
 20
86.911088524
 30
0.0
 10
90.0404882873
 20
85.6854275765
 30
0.0
 10
90.0634286277
 20
84.3751490773
 30
0.0
 10
90.094641375
 20
82.4949213238
 30
0.0
 10
90.1330423515
 20
80.0302371752
 30
0.0
 10
90.1783581715
 20
77.0006354624
 30
0.0
 10
90.2236752569
 20
73.9572522285
 30
0.0
 10
90.2689448716
 20
71.0135923012
 30
0.0
 10
90.3075560972
 20
68.6731624866
 30
0.0
 10
90.3390237322
 20
66.9326061626
 30
0.0
 10
90.3619301074
 20
65.7551754547
 30
0.0
 10
90.3848005181
 20
64.6793826027
 30
0.0
 10
90.4076193364
 20
63.7152991738
 30
0.0
 10
90.4303535576
 20
62.8719057873
 30
0.0
 10
90.4529806813
 20
62.1571152556
 30
0.0
 10
90.4727073621
 20
61.6449902895
 30
0.0
 10
90.4890265926
 20
61.3045337671
 30
0.0
 10
90.5003646766
 20
61.102499881
 30
0.0
 10
90.5116946226
 20
60.9368001859
 30
0.0
 10
90.5226605862
 20
60.8076248867
 30
0.0
 10
90.533770913
 20
60.7155891229
 30
0.0
 10
90.5419902691
 20
60.6663937726
 30
0.0
 10
90.5476703108
 20
60.6486033834
 30
0.0
  0
SPLINE
  5
5BC
100
AcDbEntity
  8
0
100
AcDbSpline
 62
7
  6
CONTINUOUS
 70
0
 71
3
 72
9
 73
5
 74
0
 42
0.0000001
 43
0.0000001
 44
0.0000000001
 40
0.0
 40
0.0
 40
0.0
 40
0.0
 40
0.2965605536
 40
1.0
 40
1.0
 40
1.0
 40
1.0
 10
90.5476703108
 20
60.6486033834
 30
0.0
 10
90.5480658794
 20
60.6473644277
 30
0.0
 10
90.5494684309
 20
60.6432136495
 30
0.0
 10
90.5511268741
 20
60.6391173762
 30
0.0
 10
90.5526701377
 20
60.6364461918
 30
0.0
  0
SPLINE
  5
5BD
100
AcDbEntity
  8
0
100
AcDbSpline
 62
7
  6
CONTINUOUS
 70
0
 71
3
 72
9
 73
5
 74
0
 42
0.0000001
 43
0.0000001
 44
0.0000000001
 40
0.0
 40
0.0
 40
0.0
 40
0.0
 40
0.5003463875
 40
1.0
 40
1.0
 40
1.0
 40
1.0
 10
107.7842828255
 20
143.5467561792
 30
0.0
 10
107.7842832327
 20
143.493943058
 30
0.0
 10
107.807589869
 20
143.3871805509
 30
0.0
 10
107.8721711943
 20
143.299695966
 30
0.0
 10
107.910915484
 20
143.2639134667
 30
0.0
  0
SPLINE
  5
5BE
100
AcDbEntity
  8
0
100
AcDbSpline
 62
7
  6
CONTINUOUS
 70
0
 71
3
 72
9
 73
5
 74
0
 42
0.0000001
 43
0.0000001
 44
0.0000000001
 40
0.0
 40
0.0
 40
0.0
 40
0.0
 40
0.4999004206
 40
1.0
 40
1.0
 40
1.0
 40
1.0
 10
107.5921869129
 20
143.5467561792
 30
0.0
 10
107.5921878556
 20
143.4681581165
 30
0.0
 10
107.6252174717
 20
143.3092421354
 30
0.0
 10
107.7185450587
 20
143.1769157835
 30
0.0
 10
107.7752957641
 20
143.1224921105
 30
0.0
  0
SPLINE
  5
5BF
100
AcDbEntity
  8
0
100
AcDbSpline
 62
7
  6
CONTINUOUS
 70
0
 71
3
 72
9
 73
5
 74
0
 42
0.0000001
 43
0.0000001
 44
0.0000000001
 40
0.0
 40
0.0
 40
0.0
 40
0.0
 40
0.500108272
 40
1.0
 40
1.0
 40
1.0
 40
1.0
 10
108.3143934205
 20
142.6068066855
 30
0.0
 10
108.3333785077
 20
142.5886930218
 30
0.0
 10
108.3646813253
 20
142.5446507223
 30
0.0
 10
108.3758132413
 20
142.4916139817
 30
0.0
 10
108.3758145891
 20
142.4653853293
 30
0.0
  0
SPLINE
  5
5C0
100
AcDbEntity
  8
0
100
AcDbSpline
 62
7
  6
CONTINUOUS
 70
0
 71
3
 72
9
 73
5
 74
0
 42
0.0000001
 43
0.0000001
 44
0.0000000001
 40
0.0
 40
0.0
 40
0.0
 40
0.0
 40
0.1761071961
 40
1.0
 40
1.0
 40
1.0
 40
1.0
 10
89.6650066049
 20
92.6257117374
 30
0.0
 10
89.6659464251
 20
92.6240868954
 30
0.0
 10
89.6704003532
 20
92.6143657768
 30
0.0
 10
89.6728816249
 20
92.6039095589
 30
0.0
 10
89.6747961182
 20
92.595339205
 30
0.0
  0
SPLINE
  5
5C1
100
AcDbEntity
  8
0
100
AcDbSpline
 62
7
  6
CONTINUOUS
 70
0
 71
3
 72
42
 73
38
 74
0
 42
0.0000001
 43
0.0000001
 44
0.0000000001
 40
0.0
 40
0.0
 40
0.0
 40
0.0
 40
0.0022108053
 40
0.0055581467
 40
0.0100387643
 40
0.0156461076
 40
0.0301887536
 40
0.0490542064
 40
0.0720706744
 40
0.0990276406
 40
0.1296749828
 40
0.16373307
 40
0.240791103
 40
0.3273665077
 40
0.4202731111
 40
0.5160912805
 40
0.6112939517
 40
0.7023768739
 40
0.7453169709
 40
0.7859877566
 40
0.8240163396
 40
0.8590497149
 40
0.8907670887
 40
0.9188748115
 40
0.9431143749
 40
0.9537125729
 40
0.963264026
 40
0.9717450811
 40
0.9791369228
 40
0.9854244843
 40
0.9905930669
 40
0.994630501
 40
0.9975322058
 40
0.9985575498
 40
0.9993012149
 40
0.9997699974
 40
1.0
 40
1.0
 40
1.0
 40
1.0
 10
89.6747961182
 20
92.595339205
 30
0.0
 10
89.6799341715
 20
92.5723383752
 30
0.0
 10
89.6883548444
 20
92.5135848457
 30
0.0
 10
89.6993689712
 20
92.4071674497
 30
0.0
 10
89.7104428698
 20
92.2643441334
 30
0.0
 10
89.7269096786
 20
92.0022970049
 30
0.0
 10
89.7464370895
 20
91.586815498
 30
0.0
 10
89.7687868473
 20
90.9857321138
 30
0.0
 10
89.7912644349
 20
90.2522311037
 30
0.0
 10
89.8138811796
 20
89.3930905556
 30
0.0
 10
89.8365663731
 20
88.4162088465
 30
0.0
 10
89.8681897425
 20
86.9053056007
 30
0.0
 10
89.9067780143
 20
84.7982157274
 30
0.0
 10
89.9516502907
 20
82.0638035234
 30
0.0
 10
89.9966336066
 20
79.1293804597
 30
0.0
 10
90.0416716902
 20
76.1029793293
 30
0.0
 10
90.086701826
 20
73.0960211113
 30
0.0
 10
90.1248719573
 20
70.6527166123
 30
0.0
 10
90.155891832
 20
68.7906959298
 30
0.0
 10
90.1786856929
 20
67.4941894826
 30
0.0
 10
90.2014556622
 20
66.2819839545
 30
0.0
 10
90.2241996214
 20
65.1652415655
 30
0.0
 10
90.2468973014
 20
64.1542806572
 30
0.0
 10
90.2695401906
 20
63.2584155984
 30
0.0
 10
90.2890947358
 20
62.5876830987
 30
0.0
 10
90.3050212315
 20
62.1147506336
 30
0.0
 10
90.3164080159
 20
61.8097514697
 30
0.0
 10
90.3277731133
 20
61.5389602055
 30
0.0
 10
90.3391099503
 20
61.302990336
 30
0.0
 10
90.3503901438
 20
61.1023924642
 30
0.0
 10
90.3616004541
 20
60.9375678952
 30
0.0
 10
90.372622114
 20
60.8090477826
 30
0.0
 10
90.3824972623
 20
60.7245093335
 30
0.0
 10
90.3906322192
 20
60.6756142905
 30
0.0
 10
90.3964559087
 20
60.6520164544
 30
0.0
 10
90.4008352642
 20
60.63813688
 30
0.0
 10
90.4063865994
 20
60.6310744414
 30
0.0
 10
90.4088384762
 20
60.6310805309
 30
0.0
  0
SPLINE
  5
5C2
100
AcDbEntity
  8
0
100
AcDbSpline
 62
7
  6
CONTINUOUS
 70
0
 71
3
 72
27
 73
23
 74
0
 42
0.0000001
 43
0.0000001
 44
0.0000000001
 40
0.0
 40
0.0
 40
0.0
 40
0.0
 40
0.0009401223
 40
0.0024414308
 40
0.0045166829
 40
0.0071686218
 40
0.0142017567
 40
0.0235328477
 40
0.035147125
 40
0.0490168645
 40
0.0651076302
 40
0.0833845196
 40
0.1263221222
 40
0.1774205359
 40
0.2362006871
 40
0.3021079534
 40
0.3745168693
 40
0.4527470968
 40
0.5360572821
 40
0.623662751
 40
0.8083943366
 40
1.0
 40
1.0
 40
1.0
 40
1.0
 10
95.087294275
 20
93.6260262463
 30
0.0
 10
95.0899883251
 20
93.6213687931
 30
0.0
 10
95.094277431
 20
93.6078836387
 30
0.0
 10
95.0998183179
 20
93.5827053913
 30
0.0
 10
95.1053917058
 20
93.5474452897
 30
0.0
 10
95.113781901
 20
93.48067831
 30
0.0
 10
95.1236716217
 20
93.3722577313
 30
0.0
 10
95.1349831914
 20
93.2125364769
 30
0.0
 10
95.1463554689
 20
93.0135993497
 30
0.0
 10
95.1578101417
 20
92.7759342293
 30
0.0
 10
95.1693023767
 20
92.5000997037
 30
0.0
 10
95.185545231
 20
92.0579640988
 30
0.0
 10
95.2053710788
 20
91.4154768154
 30
0.0
 10
95.2282266582
 20
90.5411777593
 30
0.0
 10
95.2511568526
 20
89.5353816686
 30
0.0
 10
95.2741483609
 20
88.4075952746
 30
0.0
 10
95.2971787311
 20
87.1684722512
 30
0.0
 10
95.3202344463
 20
85.829733725
 30
0.0
 10
95.3433119069
 20
84.4040107733
 30
0.0
 10
95.3746527283
 20
82.3688147648
 30
0.0
 10
95.4132239496
 20
79.713861683
 30
0.0
 10
95.4434398571
 20
77.5602236338
 30
0.0
 10
95.458838672
 20
76.4637359099
 30
0.0
  0
SPLINE
  5
5C3
100
AcDbEntity
  8
0
100
AcDbSpline
 62
7
  6
CONTINUOUS
 70
0
 71
3
 72
49
 73
45
 74
0
 42
0.0000001
 43
0.0000001
 44
0.0000000001
 40
0.0
 40
0.0
 40
0.0
 40
0.0
 40
0.0004765464
 40
0.0012367523
 40
0.0022868183
 40
0.0036285393
 40
0.007188369
 40
0.011913786
 40
0.0177933536
 40
0.0248136782
 40
0.0329604917
 40
0.042214005
 40
0.0639489155
 40
0.0898164368
 40
0.1195697613
 40
0.1529279326
 40
0.1895755623
 40
0.2291637922
 40
0.2713193921
 40
0.3156410302
 40
0.4090881685
 40
0.5059701443
 40
0.6026220337
 40
0.6497147411
 40
0.6953875378
 40
0.7392062876
 40
0.7807571776
 40
0.8196448102
 40
0.8555016559
 40
0.8879880072
 40
0.9167947906
 40
0.9416517399
 40
0.9525224339
 40
0.9623209108
 40
0.9710242521
 40
0.978610206
 40
0.9850621158
 40
0.9903665295
 40
0.9945106072
 40
0.9974863498
 40
0.998536545
 40
0.9992968803
 40
0.999773561
 40
1.0
 40
1.0
 40
1.0
 40
1.0
 10
91.1303741241
 20
59.6361144479
 30
0.0
 10
91.1276757063
 20
59.640795114
 30
0.0
 10
91.1233815549
 20
59.6543291821
 30
0.0
 10
91.1178312505
 20
59.6795841277
 30
0.0
 10
91.1122491763
 20
59.7149322172
 30
0.0
 10
91.1038467067
 20
59.7818682262
 30
0.0
 10
91.0939449126
 20
59.8906004334
 30
0.0
 10
91.0826233197
 20
60.0507876307
 30
0.0
 10
91.0712311549
 20
60.2502957609
 30
0.0
 10
91.0597558444
 20
60.4886346869
 30
0.0
 10
91.0482483946
 20
60.7652635584
 30
0.0
 10
91.0319831808
 20
61.2086573316
 30
0.0
 10
91.0121250216
 20
61.8529534957
 30
0.0
 10
90.9892386536
 20
62.7296677654
 30
0.0
 10
90.96627352
 20
63.7381964559
 30
0.0
 10
90.9432474765
 20
64.8689695314
 30
0.0
 10
90.9201847524
 20
66.1112647809
 30
0.0
 10
90.8970931994
 20
67.4533149882
 30
0.0
 10
90.8739835173
 20
68.8823800088
 30
0.0
 10
90.842596984
 20
70.9220090758
 30
0.0
 10
90.8039744037
 20
73.5820529866
 30
0.0
 10
90.758335843
 20
76.8353445134
 30
0.0
 10
90.7199898397
 20
79.5631491159
 30
0.0
 10
90.6888697647
 20
81.7104199719
 30
0.0
 10
90.6657387992
 20
83.2587543821
 30
0.0
 10
90.6426176165
 20
84.7442520247
 30
0.0
 10
90.6195125138
 20
86.1528142276
 30
0.0
 10
90.5964275081
 20
87.4710968512
 30
0.0
 10
90.5733714174
 20
88.6865950083
 30
0.0
 10
90.5503614844
 20
89.7877815455
 30
0.0
 10
90.5274052613
 20
90.764228816
 30
0.0
 10
90.5075852702
 20
91.495614412
 30
0.0
 10
90.4914402957
 20
92.0115091425
 30
0.0
 10
90.4798944749
 20
92.3443175303
 30
0.0
 10
90.4683742647
 20
92.6398593091
 30
0.0
 10
90.4568817176
 20
92.8974359892
 30
0.0
 10
90.445444723
 20
93.1164147736
 30
0.0
 10
90.4340767799
 20
93.2963754141
 30
0.0
 10
90.4229128992
 20
93.4366821495
 30
0.0
 10
90.4128937348
 20
93.5290338751
 30
0.0
 10
90.4046569043
 20
93.5823608506
 30
0.0
 10
90.3987400297
 20
93.6082042652
 30
0.0
 10
90.3943601981
 20
93.623097768
 30
0.0
 10
90.3887558212
 20
93.6310693394
 30
0.0
 10
90.3861885975
 20
93.6310705729
 30
0.0
  0
SPLINE
  5
5C4
100
AcDbEntity
  8
0
100
AcDbSpline
 62
7
  6
CONTINUOUS
 70
0
 71
3
 72
35
 73
31
 74
0
 42
0.0000001
 43
0.0000001
 44
0.0000000001
 40
0.0
 40
0.0
 40
0.0
 40
0.0
 40
0.0002036017
 40
0.0005952457
 40
0.0020512034
 40
0.0044329912
 40
0.007745311
 40
0.0119867199
 40
0.0171500269
 40
0.0232254452
 40
0.0302028866
 40
0.0380715739
 40
0.0468166146
 40
0.0668685713
 40
0.0902182614
 40
0.1166936818
 40
0.1461069986
 40
0.1782425048
 40
0.2128707913
 40
0.2497388415
 40
0.3291184426
 40
0.4140890265
 40
0.5021966347
 40
0.5908966183
 40
0.6776272006
 40
0.7598835479
 40
0.8352901573
 40
0.9016697049
 40
0.9571059021
 40
1.0
 40
1.0
 40
1.0
 40
1.0
 10
95.808838963
 20
92.6310690105
 30
0.0
 10
95.8109177331
 20
92.6310717899
 30
0.0
 10
95.8157956599
 20
92.6258243944
 30
0.0
 10
95.822661226
 20
92.6067682931
 30
0.0
 10
95.8315364267
 20
92.5636471877
 30
0.0
 10
95.8408170833
 20
92.4916566078
 30
0.0
 10
95.8507058369
 20
92.3904973396
 30
0.0
 10
95.8605860653
 20
92.2611005422
 30
0.0
 10
95.8705929508
 20
92.103336445
 30
0.0
 10
95.880626238
 20
91.9176272962
 30
0.0
 10
95.8906942273
 20
91.7042516785
 30
0.0
 10
95.9007779603
 20
91.4635972271
 30
0.0
 10
95.9148939915
 20
91.0895058722
 30
0.0
 10
95.9322315658
 20
90.5573679496
 30
0.0
 10
95.9522870361
 20
89.8442040635
 30
0.0
 10
95.9723971783
 20
89.0354291277
 30
0.0
 10
95.9925428913
 20
88.1369273775
 30
0.0
 10
96.0127176618
 20
87.1551665711
 30
0.0
 10
96.0329095759
 20
86.0972785574
 30
0.0
 10
96.0605365958
 20
84.5570837639
 30
0.0
 10
96.0945704836
 20
82.5029280665
 30
0.0
 10
96.1345650392
 20
79.9256458601
 30
0.0
 10
96.1745978557
 20
77.2531922573
 30
0.0
 10
96.2146392761
 20
74.5627672517
 30
0.0
 10
96.2546554832
 20
71.9320899053
 30
0.0
 10
96.2946032801
 20
69.4371526825
 30
0.0
 10
96.3344398757
 20
67.1500266383
 30
0.0
 10
96.3740261489
 20
65.136772388
 30
0.0
 10
96.4133071871
 20
63.4555442574
 30
0.0
 10
96.4427838006
 20
62.4520057046
 30
0.0
 10
96.4588387062
 20
62.0143516387
 30
0.0
  0
SPLINE
  5
5C5
100
AcDbEntity
  8
0
100
AcDbSpline
 62
7
  6
CONTINUOUS
 70
0
 71
3
 72
9
 73
5
 74
0
 42
0.0000001
 43
0.0000001
 44
0.0000000001
 40
0.0
 40
0.0
 40
0.0
 40
0.0
 40
0.3582670534
 40
1.0
 40
1.0
 40
1.0
 40
1.0
 10
95.6650072868
 20
92.6256950542
 30
0.0
 10
95.6699407249
 20
92.6171560585
 30
0.0
 10
95.6762814905
 20
92.5897703805
 30
0.0
 10
95.6810267817
 20
92.5629076764
 30
0.0
 10
95.6835513375
 20
92.545424582
 30
0.0
  0
SPLINE
  5
5C6
100
AcDbEntity
  8
0
100
AcDbSpline
 62
7
  6
CONTINUOUS
 70
0
 71
3
 72
29
 73
25
 74
0
 42
0.0000001
 43
0.0000001
 44
0.0000000001
 40
0.0
 40
0.0
 40
0.0
 40
0.0
 40
0.0068146861
 40
0.0176840183
 40
0.0325297881
 40
0.0512285916
 40
0.0736308296
 40
0.0995500766
 40
0.161064312
 40
0.2337504944
 40
0.3152193583
 40
0.4027923905
 40
0.4935901363
 40
0.5846270082
 40
0.6729095481
 40
0.7555349484
 40
0.8297866152
 40
0.8932237172
 40
0.92021898
 40
0.9437619534
 40
0.9636567851
 40
0.9797436002
 40
0.991888085
 40
1.0
 40
1.0
 40
1.0
 40
1.0
 10
95.6835513375
 20
92.545424582
 30
0.0
 10
95.6938699905
 20
92.4739656819
 30
0.0
 10
95.7094224694
 20
92.2870723478
 30
0.0
 10
95.7302550979
 20
91.9431335631
 30
0.0
 10
95.7509426359
 20
91.4729795837
 30
0.0
 10
95.7721973906
 20
90.8806299382
 30
0.0
 10
95.7934891648
 20
90.170875516
 30
0.0
 10
95.8238010212
 20
89.007586304
 30
0.0
 10
95.8604526508
 20
87.3115423097
 30
0.0
 10
95.9027486784
 20
85.0269658482
 30
0.0
 10
95.9452148243
 20
82.4662620685
 30
0.0
 10
95.987806859
 20
79.7136490577
 30
0.0
 10
96.0304465222
 20
76.8596542205
 30
0.0
 10
96.0730900071
 20
73.9981415696
 30
0.0
 10
96.1156931429
 20
71.2232222756
 30
0.0
 10
96.158184473
 20
68.6261580352
 30
0.0
 10
96.2005173674
 20
66.2923621359
 30
0.0
 10
96.2371566202
 20
64.5479504414
 30
0.0
 10
96.2673819419
 20
63.3407850078
 30
0.0
 10
96.2887217187
 20
62.5948631229
 30
0.0
 10
96.3099880653
 20
61.9645750168
 30
0.0
 10
96.3308943305
 20
61.4550930616
 30
0.0
 10
96.351708028
 20
61.0706336739
 30
0.0
 10
96.3675796725
 20
60.856516189
 30
0.0
 10
96.3772295039
 20
60.7711157417
 30
0.0
  0
SPLINE
  5
5C7
100
AcDbEntity
  8
0
100
AcDbSpline
 62
7
  6
CONTINUOUS
 70
0
 71
3
 72
11
 73
7
 74
0
 42
0.0000001
 43
0.0000001
 44
0.0000000001
 40
0.0
 40
0.0
 40
0.0
 40
0.0
 40
0.4243451847
 40
0.7301116487
 40
0.9188229683
 40
1.0
 40
1.0
 40
1.0
 40
1.0
 10
96.3772295039
 20
60.7711157417
 30
0.0
 10
96.3795397884
 20
60.7506698582
 30
0.0
 10
96.3837158269
 20
60.7160210544
 30
0.0
 10
96.3917184962
 20
60.6705611031
 30
0.0
 10
96.397631709
 20
60.6462045295
 30
0.0
 10
96.4049027239
 20
60.631063946
 30
0.0
 10
96.4088389011
 20
60.631061324
 30
0.0
  0
SPLINE
  5
5C8
100
AcDbEntity
  8
0
100
AcDbSpline
 62
7
  6
CONTINUOUS
 70
0
 71
3
 72
25
 73
21
 74
0
 42
0.0000001
 43
0.0000001
 44
0.0000000001
 40
0.0
 40
0.0
 40
0.0
 40
0.0
 40
0.0014469338
 40
0.0048016765
 40
0.0102340059
 40
0.0177680769
 40
0.0274072281
 40
0.0391488816
 40
0.0529858055
 40
0.0689018764
 40
0.1068976483
 40
0.1529852873
 40
0.2069736933
 40
0.2686249881
 40
0.3376896884
 40
0.4138605439
 40
0.4968055892
 40
0.586180231
 40
0.7827226759
 40
1.0
 40
1.0
 40
1.0
 40
1.0
 10
92.8088388425
 20
92.6310624678
 30
0.0
 10
92.8127017883
 20
92.6310718455
 30
0.0
 10
92.8199333141
 20
92.6163186373
 30
0.0
 10
92.825752436
 20
92.5924430856
 30
0.0
 10
92.83366566
 20
92.5480547527
 30
0.0
 10
92.8409475845
 20
92.4887808345
 30
0.0
 10
92.8486814743
 20
92.4117201429
 30
0.0
 10
92.8563360675
 20
92.3180950664
 30
0.0
 10
92.8640704978
 20
92.2075529296
 30
0.0
 10
92.8750496056
 20
92.027024892
 30
0.0
 10
92.8884328828
 20
91.7603724591
 30
0.0
 10
92.9038067395
 20
91.3920763852
 30
0.0
 10
92.9192369501
 20
90.9605768559
 30
0.0
 10
92.934717973
 20
90.4677039291
 30
0.0
 10
92.9502231867
 20
89.9155837217
 30
0.0
 10
92.9657507778
 20
89.3065951264
 30
0.0
 10
92.9812943084
 20
88.6433682708
 30
0.0
 10
93.0027161661
 20
87.6588298463
 30
0.0
 10
93.0291365005
 20
86.3156831346
 30
0.0
 10
93.048846002
 20
85.2110616479
 30
0.0
 10
93.058838672
 20
84.6310707542
 30
0.0
  0
SPLINE
  5
5C9
100
AcDbEntity
  8
0
100
AcDbSpline
 62
7
  6
CONTINUOUS
 70
0
 71
3
 72
14
 73
10
 74
0
 42
0.0000001
 43
0.0000001
 44
0.0000000001
 40
0.0
 40
0.0
 40
0.0
 40
0.0
 40
0.1973815999
 40
0.3198029833
 40
0.4526928291
 40
0.5919183099
 40
0.7327727155
 40
0.8703048115
 40
1.0
 40
1.0
 40
1.0
 40
1.0
 10
108.7872657967
 20
94.5357762822
 30
0.0
 10
109.5837451711
 20
94.2003571759
 30
0.0
 10
110.8988233222
 20
93.7111194377
 30
0.0
 10
112.8123256423
 20
93.188271125
 30
0.0
 10
114.5127542336
 20
92.8704408917
 30
0.0
 10
116.3172635608
 20
92.7125871363
 30
0.0
 10
118.1489864222
 20
92.7475199496
 30
0.0
 10
119.9250438269
 20
92.9677533703
 30
0.0
 10
121.0694746614
 20
93.2188128412
 30
0.0
 10
121.6188891783
 20
93.362385026
 30
0.0
  0
SPLINE
  5
5CA
100
AcDbEntity
  8
0
100
AcDbSpline
 62
7
  6
CONTINUOUS
 70
0
 71
3
 72
11
 73
7
 74
0
 42
0.0000001
 43
0.0000001
 44
0.0000000001
 40
0.0
 40
0.0
 40
0.0
 40
0.0
 40
0.2343859409
 40
0.483266918
 40
0.7415096634
 40
1.0
 40
1.0
 40
1.0
 40
1.0
 10
108.7872657967
 20
94.535776246
 30
0.0
 10
108.8620078942
 20
94.5466047238
 30
0.0
 10
109.0124996727
 20
94.6008905082
 30
0.0
 10
109.1992951312
 20
94.756241082
 30
0.0
 10
109.3341512477
 20
94.9671182298
 30
0.0
 10
109.3794101624
 20
95.1305006817
 30
0.0
 10
109.3888638454
 20
95.2132516265
 30
0.0
  0
SPLINE
  5
5CB
100
AcDbEntity
  8
0
100
AcDbSpline
 62
7
  6
CONTINUOUS
 70
0
 71
3
 72
14
 73
10
 74
0
 42
0.0000001
 43
0.0000001
 44
0.0000000001
 40
0.0
 40
0.0
 40
0.0
 40
0.0
 40
0.195835448
 40
0.317704205
 40
0.4505843214
 40
0.5903791861
 40
0.7320561562
 40
0.8701798695
 40
1.0
 40
1.0
 40
1.0
 40
1.0
 10
109.3888637875
 20
95.2132516265
 30
0.0
 10
110.1109774174
 20
94.8723931931
 30
0.0
 10
111.3088472912
 20
94.3712237192
 30
0.0
 10
113.0657356105
 20
93.827942102
 30
0.0
 10
114.6418660771
 20
93.4921159304
 30
0.0
 10
116.3266346631
 20
93.3216891957
 30
0.0
 10
118.0415032321
 20
93.3553654317
 30
0.0
 10
119.699321547
 20
93.5851698876
 30
0.0
 10
120.7619984183
 20
93.8466653743
 30
0.0
 10
121.2699965482
 20
93.9954617822
 30
0.0
  0
SPLINE
  5
5CC
100
AcDbEntity
  8
0
100
AcDbSpline
 62
7
  6
CONTINUOUS
 70
0
 71
3
 72
22
 73
18
 74
0
 42
0.0000001
 43
0.0000001
 44
0.0000000001
 40
0.0
 40
0.0
 40
0.0
 40
0.0
 40
0.0009087697
 40
0.0036362797
 40
0.0081857396
 40
0.0145604532
 40
0.0227638311
 40
0.0328010767
 40
0.0584134402
 40
0.0914793205
 40
0.132106998
 40
0.1804393005
 40
0.2366492772
 40
0.373546191
 40
0.5448160524
 40
0.752814288
 40
1.0
 40
1.0
 40
1.0
 40
1.0
 10
107.8032457043
 20
94.8722497966
 30
0.0
 10
107.8033614124
 20
94.8725452404
 30
0.0
 10
107.8051148443
 20
94.8716546218
 30
0.0
 10
107.8074892077
 20
94.872154594
 30
0.0
 10
107.8125042407
 20
94.8712770905
 30
0.0
 10
107.8190313303
 20
94.8708153229
 30
0.0
 10
107.8276274216
 20
94.8698671882
 30
0.0
 10
107.8428295198
 20
94.8682729613
 30
0.0
 10
107.8666692189
 20
94.8654175612
 30
0.0
 10
107.9010177547
 20
94.8607312079
 30
0.0
 10
107.9431034776
 20
94.8540575301
 30
0.0
 10
107.9929573036
 20
94.8448847554
 30
0.0
 10
108.075420166
 20
94.8273419237
 30
0.0
 10
108.1985258448
 20
94.7948670467
 30
0.0
 10
108.3693825439
 20
94.7370614549
 30
0.0
 10
108.5710029845
 20
94.651748644
 30
0.0
 10
108.7122390684
 20
94.5784304541
 30
0.0
 10
108.7872657967
 20
94.5357762822
 30
0.0
  0
SPLINE
  5
5CD
100
AcDbEntity
  8
0
100
AcDbSpline
 62
7
  6
CONTINUOUS
 70
0
 71
3
 72
37
 73
33
 74
0
 42
0.0000001
 43
0.0000001
 44
0.0000000001
 40
0.0
 40
0.0
 40
0.0
 40
0.0
 40
0.0002419606
 40
0.0007060917
 40
0.001399457
 40
0.0023235832
 40
0.0034788453
 40
0.0048652335
 40
0.008330572
 40
0.0127156931
 40
0.0180122036
 40
0.0242109761
 40
0.0313027396
 40
0.0392757875
 40
0.0481149182
 40
0.0683292971
 40
0.0918071401
 40
0.1183819581
 40
0.1478679267
 40
0.1800558757
 40
0.2147178367
 40
0.2516074961
 40
0.3309999003
 40
0.4159606964
 40
0.5040480707
 40
0.5927147088
 40
0.679385511
 40
0.7615345812
 40
0.8367536163
 40
0.9028239935
 40
0.9577843099
 40
1.0
 40
1.0
 40
1.0
 40
1.0
 10
96.0467553931
 20
93.0431540331
 30
0.0
 10
96.0485252565
 20
93.0413841698
 30
0.0
 10
96.050682557
 20
93.0339664726
 30
0.0
 10
96.0537637109
 20
93.0201118667
 30
0.0
 10
96.0567025791
 20
92.9986192442
 30
0.0
 10
96.0598289975
 20
92.9701689387
 30
0.0
 10
96.0629377506
 20
92.9344262355
 30
0.0
 10
96.0674747272
 20
92.8724625789
 30
0.0
 10
96.072926798
 20
92.7770555381
 30
0.0
 10
96.0791677251
 20
92.6412018648
 30
0.0
 10
96.0854410638
 20
92.4770441563
 30
0.0
 10
96.0917464205
 20
92.2848734411
 30
0.0
 10
96.0980683604
 20
92.0650022881
 30
0.0
 10
96.1044043173
 20
91.8178085843
 30
0.0
 10
96.1132685541
 20
91.4348891583
 30
0.0
 10
96.1241673533
 20
90.8915860677
 30
0.0
 10
96.1367919706
 20
90.1648169177
 30
0.0
 10
96.1494576437
 20
89.3421256328
 30
0.0
 10
96.1621563622
 20
88.4293235685
 30
0.0
 10
96.1748809673
 20
87.4328569378
 30
0.0
 10
96.1876276763
 20
86.3597972592
 30
0.0
 10
96.2050769892
 20
84.798452311
 30
0.0
 10
96.2266032649
 20
82.7168040214
 30
0.0
 10
96.2519389662
 20
80.1055521828
 30
0.0
 10
96.2773370832
 20
77.3983591911
 30
0.0
 10
96.302778604
 20
74.6734766627
 30
0.0
 10
96.3282421183
 20
72.0100259228
 30
0.0
 10
96.3536993417
 20
69.4856904596
 30
0.0
 10
96.3791225731
 20
67.1744679107
 30
0.0
 10
96.4044148631
 20
65.1445156811
 30
0.0
 10
96.4295431884
 20
63.4559983203
 30
0.0
 10
96.4484649397
 20
62.4509291421
 30
0.0
 10
96.4588387062
 20
62.0143516387
 30
0.0
  0
SPLINE
  5
5CE
100
AcDbEntity
  8
0
100
AcDbSpline
 62
7
  6
CONTINUOUS
 70
0
 71
3
 72
22
 73
18
 74
0
 42
0.0000001
 43
0.0000001
 44
0.0000000001
 40
0.0
 40
0.0
 40
0.0
 40
0.0
 40
0.000978654
 40
0.0039120648
 40
0.0087976348
 40
0.015632907
 40
0.0244155354
 40
0.0351417657
 40
0.062403282
 40
0.0973826674
 40
0.1400530197
 40
0.1904061718
 40
0.2484566305
 40
0.3878317695
 40
0.5588774252
 40
0.7625923229
 40
1.0
 40
1.0
 40
1.0
 40
1.0
 10
108.158838672
 20
95.4816624615
 30
0.0
 10
108.158880099
 20
95.4820753632
 30
0.0
 10
108.1614404612
 20
95.4812717435
 30
0.0
 10
108.1642875114
 20
95.4824199219
 30
0.0
 10
108.1709870654
 20
95.482306447
 30
0.0
 10
108.1794460153
 20
95.483041302
 30
0.0
 10
108.1906855599
 20
95.4835574757
 30
0.0
 10
108.2104540924
 20
95.4845515364
 30
0.0
 10
108.2414048242
 20
95.4855751154
 30
0.0
 10
108.2858787272
 20
95.4861579358
 30
0.0
 10
108.3401618655
 20
95.4854433757
 30
0.0
 10
108.4041717497
 20
95.4826899159
 30
0.0
 10
108.5089480799
 20
95.4746600371
 30
0.0
 10
108.6639467201
 20
95.4536700521
 30
0.0
 10
108.8771098222
 20
95.4067166956
 30
0.0
 10
109.125028151
 20
95.3286683848
 30
0.0
 10
109.2978288034
 20
95.2562223157
 30
0.0
 10
109.3888637875
 20
95.2132516265
 30
0.0
  0
SPLINE
  5
5CF
100
AcDbEntity
  8
0
100
AcDbSpline
 62
7
  6
CONTINUOUS
 70
0
 71
3
 72
23
 73
19
 74
0
 42
0.0000001
 43
0.0000001
 44
0.0000000001
 40
0.0
 40
0.0
 40
0.0
 40
0.0
 40
0.0028327364
 40
0.0076307885
 40
0.014427659
 40
0.0232288758
 40
0.0340326803
 40
0.0468343338
 40
0.0783798952
 40
0.1177329431
 40
0.1647474044
 40
0.2192318853
 40
0.2809614947
 40
0.3496979089
 40
0.4251473091
 40
0.594931826
 40
0.7876379632
 40
1.0
 40
1.0
 40
1.0
 40
1.0
 10
92.6650071685
 20
92.6257297635
 30
0.0
 10
92.6687870258
 20
92.6191881124
 30
0.0
 10
92.6742574852
 20
92.5992362794
 30
0.0
 10
92.6815593556
 20
92.5616306956
 30
0.0
 10
92.6887885853
 20
92.5076066713
 30
0.0
 10
92.6962584578
 20
92.4376206343
 30
0.0
 10
92.703739571
 20
92.351495654
 30
0.0
 10
92.714546975
 20
92.204803951
 30
0.0
 10
92.7275893463
 20
91.981934839
 30
0.0
 10
92.7425380143
 20
91.667804636
 30
0.0
 10
92.7575498653
 20
91.2924360371
 30
0.0
 10
92.7726245149
 20
90.8573506599
 30
0.0
 10
92.787735093
 20
90.3643012537
 30
0.0
 10
92.8028684753
 20
89.8153140424
 30
0.0
 10
92.8239090625
 20
88.9781904071
 30
0.0
 10
92.8497704627
 20
87.8104485497
 30
0.0
 10
92.879827042
 20
86.2775580189
 30
0.0
 10
92.8990818002
 20
85.1973755335
 30
0.0
 10
92.908838672
 20
84.6310707542
 30
0.0
  0
SPLINE
  5
5D0
100
AcDbEntity
  8
0
100
AcDbSpline
 62
7
  6
CONTINUOUS
 70
0
 71
3
 72
21
 73
17
 74
0
 42
0.0000001
 43
0.0000001
 44
0.0000000001
 40
0.0
 40
0.0
 40
0.0
 40
0.0
 40
0.0024557985
 40
0.0068159994
 40
0.0131150752
 40
0.021358004
 40
0.0436638667
 40
0.0736969975
 40
0.1114096686
 40
0.1567318762
 40
0.2095548958
 40
0.2697650751
 40
0.4118683689
 40
0.5819129326
 40
0.7785770093
 40
1.0
 40
1.0
 40
1.0
 40
1.0
 10
95.5675699536
 20
59.7448849018
 30
0.0
 10
95.5657785405
 20
59.7479793186
 30
0.0
 10
95.5634182743
 20
59.7578229466
 30
0.0
 10
95.5601184591
 20
59.7765118361
 30
0.0
 10
95.5569255143
 20
59.8039157379
 30
0.0
 10
95.5519550178
 20
59.857302495
 30
0.0
 10
95.5461894565
 20
59.9453551534
 30
0.0
 10
95.5395594661
 20
60.0762879703
 30
0.0
 10
95.5329063388
 20
60.2407836174
 30
0.0
 10
95.5261990039
 20
60.4384729682
 30
0.0
 10
95.5194728383
 20
60.6689358015
 30
0.0
 10
95.5099498957
 20
61.0402833904
 30
0.0
 10
95.4983437588
 20
61.5823010263
 30
0.0
 10
95.4849823513
 20
62.3229926946
 30
0.0
 10
95.4715910533
 20
63.1791867445
 30
0.0
 10
95.4631230461
 20
63.7878475159
 30
0.0
 10
95.458838672
 20
64.1102028037
 30
0.0
  0
SPLINE
  5
5D1
100
AcDbEntity
  8
0
100
AcDbSpline
 62
7
  6
CONTINUOUS
 70
0
 71
3
 72
42
 73
38
 74
0
 42
0.0000001
 43
0.0000001
 44
0.0000000001
 40
0.0
 40
0.0
 40
0.0
 40
0.0
 40
0.000230302
 40
0.0006990605
 40
0.0014421221
 40
0.0024664697
 40
0.0053658356
 40
0.0094016349
 40
0.0145672459
 40
0.0208502894
 40
0.0282376404
 40
0.0367144706
 40
0.0462598621
 40
0.0568512639
 40
0.0810775585
 40
0.1091685919
 40
0.1408688446
 40
0.1758832893
 40
0.21389213
 40
0.2545430557
 40
0.2974627075
 40
0.3885071463
 40
0.4836766438
 40
0.5794703235
 40
0.6723643682
 40
0.7589418919
 40
0.8360186988
 40
0.8700926166
 40
0.900760645
 40
0.9277422422
 40
0.9507884575
 40
0.9696872256
 40
0.9842678904
 40
0.9898952271
 40
0.9943971503
 40
0.9977666989
 40
1.0
 40
1.0
 40
1.0
 40
1.0
 10
91.3088387919
 20
92.6310703651
 30
0.0
 10
91.3112937832
 20
92.6310687625
 30
0.0
 10
91.316830055
 20
92.6239967081
 30
0.0
 10
91.3212196172
 20
92.6101250463
 30
0.0
 10
91.3270371722
 20
92.5865441915
 30
0.0
 10
91.3351740751
 20
92.537694062
 30
0.0
 10
91.345045117
 20
92.4532109225
 30
0.0
 10
91.3560601779
 20
92.3247692362
 30
0.0
 10
91.3672674917
 20
92.1600475553
 30
0.0
 10
91.3785455588
 20
91.9595843884
 30
0.0
 10
91.3898786273
 20
91.7237636505
 30
0.0
 10
91.4012383185
 20
91.4531391152
 30
0.0
 10
91.4126225514
 20
91.1483325434
 30
0.0
 10
91.4285447904
 20
90.6756948095
 30
0.0
 10
91.4480910234
 20
90.0053770163
 30
0.0
 10
91.4707285705
 20
89.110044541
 30
0.0
 10
91.4934177115
 20
88.099680427
 30
0.0
 10
91.5161548536
 20
86.9835710371
 30
0.0
 10
91.5389175072
 20
85.7720309567
 30
0.0
 10
91.5617037169
 20
84.4762089809
 30
0.0
 10
91.5927145451
 20
82.6150919178
 30
0.0
 10
91.6308728719
 20
80.172852836
 30
0.0
 10
91.6758889404
 20
77.1670224228
 30
0.0
 10
91.7209130512
 20
74.1414733779
 30
0.0
 10
91.765882665
 20
71.2075229964
 30
0.0
 10
91.810741717
 20
68.4731153797
 30
0.0
 10
91.8493166257
 20
66.3657059162
 30
0.0
 10
91.8809282973
 20
64.8542646653
 30
0.0
 10
91.9036061523
 20
63.8767642638
 30
0.0
 10
91.9262174703
 20
63.0168525399
 30
0.0
 10
91.9486883231
 20
62.2824413236
 30
0.0
 10
91.9710345522
 20
61.6802999762
 30
0.0
 10
91.9905560657
 20
61.2638584232
 30
0.0
 10
92.0070142556
 20
61.0009720902
 30
0.0
 10
92.0180900212
 20
60.8574760236
 30
0.0
 10
92.0291016349
 20
60.7503526974
 30
0.0
 10
92.0375248914
 20
60.6911241196
 30
0.0
 10
92.0426437808
 20
60.6678742377
 30
0.0
  0
SPLINE
  5
5D2
100
AcDbEntity
  8
0
100
AcDbSpline
 62
7
  6
CONTINUOUS
 70
0
 71
3
 72
9
 73
5
 74
0
 42
0.0000001
 43
0.0000001
 44
0.0000000001
 40
0.0
 40
0.0
 40
0.0
 40
0.0
 40
0.3268107215
 40
1.0
 40
1.0
 40
1.0
 40
1.0
 10
92.0426437808
 20
60.6678742377
 30
0.0
 10
92.0434177736
 20
60.6643587796
 30
0.0
 10
92.0460108096
 20
60.6536960318
 30
0.0
 10
92.0489585173
 20
60.6428541375
 30
0.0
 10
92.0526707308
 20
60.6364354699
 30
0.0
  0
SPLINE
  5
5D3
100
AcDbEntity
  8
0
100
AcDbSpline
 62
7
  6
CONTINUOUS
 70
0
 71
3
 72
42
 73
38
 74
0
 42
0.0000001
 43
0.0000001
 44
0.0000000001
 40
0.0
 40
0.0
 40
0.0
 40
0.0
 40
0.00046588
 40
0.0012055822
 40
0.0035259762
 40
0.0069746974
 40
0.0115495873
 40
0.0172401626
 40
0.0240336407
 40
0.0319166559
 40
0.0408713236
 40
0.0619081054
 40
0.086955749
 40
0.1157828241
 40
0.1481278662
 40
0.1836944793
 40
0.2221570102
 40
0.2631649817
 40
0.306341643
 40
0.3976084667
 40
0.4926253066
 40
0.5879231961
 40
0.6800229992
 40
0.7655623629
 40
0.8048828501
 40
0.8414184416
 40
0.8748327292
 40
0.9048223452
 40
0.9311119357
 40
0.9534615694
 40
0.9716689501
 40
0.9791650809
 40
0.9855666208
 40
0.9908606554
 40
0.9950347973
 40
0.9980809219
 40
1.0
 40
1.0
 40
1.0
 40
1.0
 10
90.5872941374
 20
93.6260372818
 30
0.0
 10
90.5899307614
 20
93.6214659137
 30
0.0
 10
90.5941587801
 20
93.6083036235
 30
0.0
 10
90.6027429149
 20
93.5693862963
 30
0.0
 10
90.6121090774
 20
93.4960659721
 30
0.0
 10
90.6231562892
 20
93.3794896581
 30
0.0
 10
90.634177089
 20
93.224490209
 30
0.0
 10
90.6454062714
 20
93.031592824
 30
0.0
 10
90.6566648634
 20
92.8011534534
 30
0.0
 10
90.6679739053
 20
92.5337118785
 30
0.0
 10
90.6839509442
 20
92.1049862823
 30
0.0
 10
90.7034635878
 20
91.4818347466
 30
0.0
 10
90.7259462202
 20
90.6335743971
 30
0.0
 10
90.7485082151
 20
89.6571834345
 30
0.0
 10
90.7711284515
 20
88.5616128868
 30
0.0
 10
90.7937861658
 20
87.356876976
 30
0.0
 10
90.8164712703
 20
86.053996786
 30
0.0
 10
90.8391747984
 20
84.664902305
 30
0.0
 10
90.8700370472
 20
82.6777239111
 30
0.0
 10
90.9080245895
 20
80.0788004028
 30
0.0
 10
90.9528817084
 20
76.8895144772
 30
0.0
 10
90.9977376818
 20
73.690791995
 30
0.0
 10
91.0425462398
 20
70.5994353029
 30
0.0
 10
91.0807604242
 20
68.1421313663
 30
0.0
 10
91.1118961445
 20
66.3141970848
 30
0.0
 10
91.1345639489
 20
65.0766494711
 30
0.0
 10
91.1571979214
 20
63.9448152126
 30
0.0
 10
91.179783707
 20
62.9290666741
 30
0.0
 10
91.2022853232
 20
62.0386840807
 30
0.0
 10
91.2246925857
 20
61.2818125164
 30
0.0
 10
91.2442099803
 20
60.7378334333
 30
0.0
 10
91.2603349844
 20
60.3745227694
 30
0.0
 10
91.2715718634
 20
60.1574121167
 30
0.0
 10
91.2827775285
 20
59.9780087457
 30
0.0
 10
91.2937165141
 20
59.8366295077
 30
0.0
 10
91.3046908954
 20
59.733750662
 30
0.0
 10
91.3129735646
 20
59.6779608515
 30
0.0
 10
91.3183418431
 20
59.6568958641
 30
0.0
  0
SPLINE
  5
5D4
100
AcDbEntity
  8
0
100
AcDbSpline
 62
7
  6
CONTINUOUS
 70
0
 71
3
 72
9
 73
5
 74
0
 42
0.0000001
 43
0.0000001
 44
0.0000000001
 40
0.0
 40
0.0
 40
0.0
 40
0.0
 40
0.6893377199
 40
1.0
 40
1.0
 40
1.0
 40
1.0
 10
91.3183418431
 20
59.6568958641
 30
0.0
 10
91.3200252052
 20
59.6502903943
 30
0.0
 10
91.3221362426
 20
59.6418254521
 30
0.0
 10
91.328416708
 20
59.6310707542
 30
0.0
 10
91.3314887265
 20
59.6310707542
 30
0.0
  0
SPLINE
  5
5D5
100
AcDbEntity
  8
0
100
AcDbSpline
 62
7
  6
CONTINUOUS
 70
0
 71
3
 72
9
 73
5
 74
0
 42
0.0000001
 43
0.0000001
 44
0.0000000001
 40
0.0
 40
0.0
 40
0.0
 40
0.0
 40
0.3565932311
 40
1.0
 40
1.0
 40
1.0
 40
1.0
 10
91.1650070886
 20
92.6257225785
 30
0.0
 10
91.1701193365
 20
92.6168828581
 30
0.0
 10
91.1765565411
 20
92.5883348395
 30
0.0
 10
91.1814309773
 20
92.560390933
 30
0.0
 10
91.1840159995
 20
92.542148316
 30
0.0
  0
SPLINE
  5
5D6
100
AcDbEntity
  8
0
100
AcDbSpline
 62
7
  6
CONTINUOUS
 70
0
 71
3
 72
39
 73
35
 74
0
 42
0.0000001
 43
0.0000001
 44
0.0000000001
 40
0.0
 40
0.0
 40
0.0
 40
0.0
 40
0.0072732168
 40
0.0189526544
 40
0.0349373575
 40
0.0550900255
 40
0.0792270837
 40
0.1071350508
 40
0.173224712
 40
0.2509889963
 40
0.3376376482
 40
0.430060847
 40
0.5249412602
 40
0.6188734318
 40
0.7084860641
 40
0.7506586232
 40
0.7905630772
 40
0.8278417945
 40
0.862159141
 40
0.8932062832
 40
0.9207057309
 40
0.9444081393
 40
0.9547690659
 40
0.9641044011
 40
0.9723919246
 40
0.9796150501
 40
0.9857584345
 40
0.9908072082
 40
0.9947513796
 40
0.9975866575
 40
0.9985886279
 40
0.9993153653
 40
0.9997737141
 40
1.0
 40
1.0
 40
1.0
 40
1.0
 10
91.1840159995
 20
92.542148316
 30
0.0
 10
91.1948757487
 20
92.4655105815
 30
0.0
 10
91.2110832387
 20
92.2642698814
 30
0.0
 10
91.2328426713
 20
91.8931798315
 30
0.0
 10
91.2544404559
 20
91.3847026612
 30
0.0
 10
91.2766379493
 20
90.7436462287
 30
0.0
 10
91.2988826389
 20
89.9756135503
 30
0.0
 10
91.3305194822
 20
88.7187945552
 30
0.0
 10
91.3687657571
 20
86.8912546073
 30
0.0
 10
91.4129225021
 20
84.4385871552
 30
0.0
 10
91.4572546045
 20
81.7056330004
 30
0.0
 10
91.5017105774
 20
78.7905055462
 30
0.0
 10
91.5462032248
 20
75.7978568498
 30
0.0
 10
91.5906851936
 20
72.8351221147
 30
0.0
 10
91.6284071972
 20
70.4332788939
 30
0.0
 10
91.6590583386
 20
68.6063729765
 30
0.0
 10
91.6815667105
 20
67.3363595649
 30
0.0
 10
91.7040529252
 20
66.1499567072
 30
0.0
 10
91.7265109148
 20
65.0578331393
 30
0.0
 10
91.7489264104
 20
64.0698057764
 30
0.0
 10
91.7712838591
 20
63.1947763144
 30
0.0
 10
91.7905973803
 20
62.5398918142
 30
0.0
 10
91.8063243275
 20
62.0782998404
 30
0.0
 10
91.8175682632
 20
61.7807006824
 30
0.0
 10
91.8287919534
 20
61.5165220835
 30
0.0
 10
91.8399858483
 20
61.286340767
 30
0.0
 10
91.8511231958
 20
61.0906862318
 30
0.0
 10
91.8621943872
 20
60.9299445506
 30
0.0
 10
91.8730796914
 20
60.8046118004
 30
0.0
 10
91.8828274945
 20
60.7221753648
 30
0.0
 10
91.890863362
 20
60.6744855666
 30
0.0
 10
91.896608569
 20
60.6514921244
 30
0.0
 10
91.9009497876
 20
60.6379240861
 30
0.0
 10
91.9064308684
 20
60.6310855024
 30
0.0
 10
91.9088390499
 20
60.631091546
 30
0.0
  0
SPLINE
  5
5D7
100
AcDbEntity
  8
0
100
AcDbSpline
 62
7
  6
CONTINUOUS
 70
0
 71
3
 72
22
 73
18
 74
0
 42
0.0000001
 43
0.0000001
 44
0.0000000001
 40
0.0
 40
0.0
 40
0.0
 40
0.0
 40
0.1875538587
 40
0.3676784671
 40
0.5345604431
 40
0.6112930299
 40
0.6826832701
 40
0.748130304
 40
0.8070689623
 40
0.858993072
 40
0.9034466896
 40
0.9400393226
 40
0.9684533718
 40
0.9795162494
 40
0.9884573845
 40
0.995276442
 40
1.0
 40
1.0
 40
1.0
 40
1.0
 10
95.458838672
 20
76.4637359099
 30
0.0
 10
95.4919700947
 20
75.4669656133
 30
0.0
 10
95.5573386014
 20
73.5129218869
 30
0.0
 10
95.6567530762
 20
70.6721254419
 30
0.0
 10
95.742022859
 20
68.4204925636
 30
0.0
 10
95.8117369227
 20
66.7468984909
 30
0.0
 10
95.8626589372
 20
65.6123768094
 30
0.0
 10
95.9136586125
 20
64.5725815076
 30
0.0
 10
95.9647120946
 20
63.6364349658
 30
0.0
 10
96.0157782718
 20
62.8121112822
 30
0.0
 10
96.0667072458
 20
62.1068481133
 30
0.0
 10
96.117500731
 20
61.5270064978
 30
0.0
 10
96.1620497445
 20
61.1248503527
 30
0.0
 10
96.1995509325
 20
60.8701291899
 30
0.0
 10
96.2250629606
 20
60.7296992345
 30
0.0
 10
96.2503443953
 20
60.6238088194
 30
0.0
 10
96.2699512178
 20
60.565255256
 30
0.0
 10
96.2811271192
 20
60.5427609682
 30
0.0
  0
SPLINE
  5
5D8
100
AcDbEntity
  8
0
100
AcDbSpline
 62
7
  6
CONTINUOUS
 70
0
 71
3
 72
11
 73
7
 74
0
 42
0.0000001
 43
0.0000001
 44
0.0000000001
 40
0.0
 40
0.0
 40
0.0
 40
0.0
 40
0.3521811062
 40
0.5973744296
 40
0.7829406787
 40
1.0
 40
1.0
 40
1.0
 40
1.0
 10
96.2811271192
 20
60.5427609682
 30
0.0
 10
96.2853439047
 20
60.5342736361
 30
0.0
 10
96.2933456117
 20
60.5204035827
 30
0.0
 10
96.308273716
 20
60.5044260667
 30
0.0
 10
96.3270707389
 20
60.5014079934
 30
0.0
 10
96.3363959099
 20
60.5086255737
 30
0.0
 10
96.3405279201
 20
60.5127540268
 30
0.0
  0
SPLINE
  5
5D9
100
AcDbEntity
  8
0
100
AcDbSpline
 62
7
  6
CONTINUOUS
 70
0
 71
3
 72
22
 73
18
 74
0
 42
0.0000001
 43
0.0000001
 44
0.0000000001
 40
0.0
 40
0.0
 40
0.0
 40
0.0
 40
0.2119397776
 40
0.4051217417
 40
0.5764021946
 40
0.7227887482
 40
0.7856770906
 40
0.8411581788
 40
0.8888419784
 40
0.9284017156
 40
0.9595255739
 40
0.9718293688
 40
0.9819291923
 40
0.9898106106
 40
0.9954591845
 40
0.9988604664
 40
1.0
 40
1.0
 40
1.0
 40
1.0
 10
122.6987881657
 20
94.2127253326
 30
0.0
 10
122.96413016
 20
94.294012971
 30
0.0
 10
123.4686762252
 20
94.4581902725
 30
0.0
 10
124.1789855779
 20
94.713599096
 30
0.0
 10
124.8024727546
 20
94.9560470788
 30
0.0
 10
125.2630498724
 20
95.1463128276
 30
0.0
 10
125.5817188858
 20
95.2828162305
 30
0.0
 10
125.7809584976
 20
95.369880374
 30
0.0
 10
125.951765878
 20
95.4457141505
 30
0.0
 10
126.0930998565
 20
95.5093279574
 30
0.0
 10
126.191985936
 20
95.5543804016
 30
0.0
 10
126.2557217876
 20
95.5835329114
 30
0.0
 10
126.2917390792
 20
95.6001369892
 30
0.0
 10
126.3198949822
 20
95.6129351193
 30
0.0
 10
126.3399034853
 20
95.6225594696
 30
0.0
 10
126.3522192244
 20
95.6275862603
 30
0.0
 10
126.3573956996
 20
95.6306910033
 30
0.0
 10
126.358838672
 20
95.6310707542
 30
0.0
  0
SPLINE
  5
5DA
100
AcDbEntity
  8
0
100
AcDbSpline
 62
7
  6
CONTINUOUS
 70
0
 71
3
 72
11
 73
7
 74
0
 42
0.0000001
 43
0.0000001
 44
0.0000000001
 40
0.0
 40
0.0
 40
0.0
 40
0.0
 40
0.2113897888
 40
0.4564300637
 40
0.7248066823
 40
1.0
 40
1.0
 40
1.0
 40
1.0
 10
122.6987881657
 20
94.2127252172
 30
0.0
 10
122.6473526123
 20
94.2360006688
 30
0.0
 10
122.5465152818
 20
94.3088382747
 30
0.0
 10
122.4232834478
 20
94.4599785986
 30
0.0
 10
122.3262758087
 20
94.6484232388
 30
0.0
 10
122.2842047011
 20
94.788378461
 30
0.0
 10
122.2699027028
 20
94.8604705013
 30
0.0
  0
SPLINE
  5
5DB
100
AcDbEntity
  8
0
100
AcDbSpline
 62
7
  6
CONTINUOUS
 70
0
 71
3
 72
25
 73
21
 74
0
 42
0.0000001
 43
0.0000001
 44
0.0000000001
 40
0.0
 40
0.0
 40
0.0
 40
0.0
 40
0.2128611049
 40
0.4064472104
 40
0.5777410322
 40
0.6541415195
 40
0.7238904329
 40
0.7866043027
 40
0.8418946481
 40
0.8893872731
 40
0.9287691339
 40
0.9453248285
 40
0.9597402272
 40
0.9719808866
 40
0.9820280129
 40
0.989867553
 40
0.9954854455
 40
0.9974568776
 40
0.9988676208
 40
1.0
 40
1.0
 40
1.0
 40
1.0
 10
122.269903018
 20
94.8604705013
 30
0.0
 10
122.5180611977
 20
94.9455959892
 30
0.0
 10
122.9888349315
 20
95.1172325631
 30
0.0
 10
123.6493467639
 20
95.3835216698
 30
0.0
 10
124.1479796738
 20
95.6008698275
 30
0.0
 10
124.5038200486
 20
95.7635313508
 30
0.0
 10
124.736881522
 20
95.872857228
 30
0.0
 10
124.9455000942
 20
95.9730002911
 30
0.0
 10
125.1286980199
 20
96.0626958209
 30
0.0
 10
125.2855864498
 20
96.1407220148
 30
0.0
 10
125.3994111297
 20
96.1981216615
 30
0.0
 10
125.4766954838
 20
96.2374399081
 30
0.0
 10
125.5241152281
 20
96.2616830306
 30
0.0
 10
125.5643800471
 20
96.2823095024
 30
0.0
 10
125.5973756126
 20
96.2993194042
 30
0.0
 10
125.623194814
 20
96.3125146444
 30
0.0
 10
125.6399385997
 20
96.3214179785
 30
0.0
 10
125.6499856781
 20
96.32629573
 30
0.0
 10
125.6545734274
 20
96.329260383
 30
0.0
 10
125.6580332279
 20
96.3299309574
 30
0.0
 10
125.658838672
 20
96.3310707542
 30
0.0
  0
SPLINE
  5
5DC
100
AcDbEntity
  8
0
100
AcDbSpline
 62
7
  6
CONTINUOUS
 70
0
 71
3
 72
9
 73
5
 74
0
 42
0.0000001
 43
0.0000001
 44
0.0000000001
 40
0.0
 40
0.0
 40
0.0
 40
0.0
 40
0.5328453442
 40
1.0
 40
1.0
 40
1.0
 40
1.0
 10
122.2038134188
 20
93.6705983822
 30
0.0
 10
122.2670355801
 20
93.7858413259
 30
0.0
 10
122.410808218
 20
93.9893696905
 30
0.0
 10
122.6004929455
 20
94.1525715869
 30
0.0
 10
122.6987881657
 20
94.2127253326
 30
0.0
  0
SPLINE
  5
5DD
100
AcDbEntity
  8
0
100
AcDbSpline
 62
7
  6
CONTINUOUS
 70
0
 71
3
 72
12
 73
8
 74
0
 42
0.0000001
 43
0.0000001
 44
0.0000000001
 40
0.0
 40
0.0
 40
0.0
 40
0.0
 40
0.0756978294
 40
0.1723928314
 40
0.419487753
 40
0.7100352042
 40
1.0
 40
1.0
 40
1.0
 40
1.0
 10
122.2038134495
 20
93.6705983544
 30
0.0
 10
122.1793117813
 20
93.6669166299
 30
0.0
 10
122.1221143806
 20
93.6691175782
 30
0.0
 10
121.9880177873
 20
93.6999362356
 30
0.0
 10
121.7970626159
 20
93.7858151197
 30
0.0
 10
121.5678644211
 20
93.9309398712
 30
0.0
 10
121.4211230962
 20
94.0529694119
 30
0.0
 10
121.3532831139
 20
94.1193425805
 30
0.0
  0
SPLINE
  5
5DE
100
AcDbEntity
  8
0
100
AcDbSpline
 62
7
  6
CONTINUOUS
 70
0
 71
3
 72
29
 73
25
 74
0
 42
0.0000001
 43
0.0000001
 44
0.0000000001
 40
0.0
 40
0.0
 40
0.0
 40
0.0
 40
0.1587132101
 40
0.3290233618
 40
0.4150056655
 40
0.4996243878
 40
0.5814685485
 40
0.6591723485
 40
0.7314385323
 40
0.7970610782
 40
0.8549465641
 40
0.8806812201
 40
0.904130329
 40
0.9251953798
 40
0.9437918896
 40
0.9598386403
 40
0.9732721453
 40
0.9840379702
 40
0.9884052241
 40
0.9920907301
 40
0.9950922592
 40
0.9974084985
 40
0.9990406042
 40
1.0
 40
1.0
 40
1.0
 40
1.0
 10
93.058838672
 20
84.6310707542
 30
0.0
 10
93.0807141292
 20
83.3613834745
 30
0.0
 10
93.1226640244
 20
80.7291766105
 30
0.0
 10
93.1722381188
 20
77.409057014
 30
0.0
 10
93.2129165012
 20
74.6817056765
 30
0.0
 10
93.2435154442
 20
72.6621054921
 30
0.0
 10
93.2740965301
 20
70.7087496768
 30
0.0
 10
93.3046477462
 20
68.8542395298
 30
0.0
 10
93.335149273
 20
67.129537354
 30
0.0
 10
93.3655845062
 20
65.5634287078
 30
0.0
 10
93.3917648367
 20
64.3696120544
 30
0.0
 10
93.4130666357
 20
63.5132075806
 30
0.0
 10
93.4283920705
 20
62.9513501373
 30
0.0
 10
93.4436931187
 20
62.4466279302
 30
0.0
 10
93.458956272
 20
62.0011620831
 30
0.0
 10
93.4741599357
 20
61.6167933724
 30
0.0
 10
93.4892950265
 20
61.2951367716
 30
0.0
 10
93.5025006368
 20
61.0669408052
 30
0.0
 10
93.5134478223
 20
60.916774255
 30
0.0
 10
93.5210221842
 20
60.828634537
 30
0.0
 10
93.5285863598
 20
60.7570315875
 30
0.0
 10
93.535900572
 20
60.7017956714
 30
0.0
 10
93.5432950882
 20
60.6634145042
 30
0.0
 10
93.5488266345
 20
60.6430701231
 30
0.0
 10
93.5526700779
 20
60.6364254332
 30
0.0
  0
SPLINE
  5
5DF
100
AcDbEntity
  8
0
100
AcDbSpline
 62
7
  6
CONTINUOUS
 70
0
 71
3
 72
9
 73
5
 74
0
 42
0.0000001
 43
0.0000001
 44
0.0000000001
 40
0.0
 40
0.0
 40
0.0
 40
0.0
 40
0.5210185702
 40
1.0
 40
1.0
 40
1.0
 40
1.0
 10
121.3532831164
 20
94.1193425805
 30
0.0
 10
121.4689626198
 20
94.2914252849
 30
0.0
 10
121.7381409285
 20
94.5928587885
 30
0.0
 10
122.0895958894
 20
94.7986186372
 30
0.0
 10
122.269903018
 20
94.8604705013
 30
0.0
  0
SPLINE
  5
5E0
100
AcDbEntity
  8
0
100
AcDbSpline
 62
7
  6
CONTINUOUS
 70
0
 71
3
 72
32
 73
28
 74
0
 42
0.0000001
 43
0.0000001
 44
0.0000000001
 40
0.0
 40
0.0
 40
0.0
 40
0.0
 40
0.1607386031
 40
0.2462305479
 40
0.3332185692
 40
0.4202051918
 40
0.5057032075
 40
0.5882510712
 40
0.6664367522
 40
0.7389223195
 40
0.804467491
 40
0.8342834523
 40
0.861952765
 40
0.8873607975
 40
0.91039634
 40
0.9309611889
 40
0.948970306
 40
0.964342848
 40
0.9770176928
 40
0.9823267383
 40
0.9869415249
 40
0.9908577873
 40
0.9940733711
 40
0.9965869533
 40
0.9983991869
 40
0.999517713
 40
1.0
 40
1.0
 40
1.0
 40
1.0
 10
92.908838672
 20
84.6310707542
 30
0.0
 10
92.9310006682
 20
83.3447522805
 30
0.0
 10
92.9623742357
 20
81.3742362617
 30
0.0
 10
93.0028587852
 20
78.7075502219
 30
0.0
 10
93.0338378143
 20
76.6310791167
 30
0.0
 10
93.0648214202
 20
74.5545595542
 30
0.0
 10
93.0957947322
 20
72.5135816428
 30
0.0
 10
93.1267490623
 20
70.5430521648
 30
0.0
 10
93.1576688713
 20
68.6766836547
 30
0.0
 10
93.1885403105
 20
66.9464193073
 30
0.0
 10
93.214962526
 20
65.6032771203
 30
0.0
 10
93.2363820515
 20
64.6188065253
 30
0.0
 10
93.2519268893
 20
63.95553211
 30
0.0
 10
93.2674534711
 20
63.3465420484
 30
0.0
 10
93.2829600045
 20
62.7944336252
 30
0.0
 10
93.2984403458
 20
62.301569716
 30
0.0
 10
93.313869525
 20
61.8700687124
 30
0.0
 10
93.329245493
 20
61.5017663734
 30
0.0
 10
93.3426274476
 20
61.2351118094
 30
0.0
 10
93.353605976
 20
61.0545823852
 30
0.0
 10
93.3613414501
 20
60.94404843
 30
0.0
 10
93.3689963763
 20
60.8504289489
 30
0.0
 10
93.3767303525
 20
60.7733648155
 30
0.0
 10
93.3840106149
 20
60.7140815297
 30
0.0
 10
93.3919250285
 20
60.6696941275
 30
0.0
 10
93.3977391539
 20
60.6458170263
 30
0.0
 10
93.4049783086
 20
60.6310811532
 30
0.0
 10
93.4088383933
 20
60.6310912731
 30
0.0
  0
ELLIPSE
  5
5E1
100
AcDbEntity
  8
0
100
AcDbEllipse
 62
7
  6
CONTINUOUS
 10
128.8780335908
 20
155.2683385355
 30
0.0
 11
0.5486916773
 21
1.2874646535
 31
0.0
 40
0.7145358838
 41
-1.5707963268
 42
-1.3028918007
  0
ELLIPSE
  5
5E2
100
AcDbEntity
  8
0
100
AcDbEllipse
 62
7
  6
CONTINUOUS
 10
130.3330426194
 20
155.2310707542
 30
0.0
 11
0.0
 21
1.0
 31
0.0
 40
0.383864035
 41
0.0
 42
1.0906723322
  0
ELLIPSE
  5
5E3
100
AcDbEntity
  8
0
100
AcDbEllipse
 62
7
  6
CONTINUOUS
 10
129.9491785844
 20
156.2310707542
 30
0.0
 11
-0.0
 21
3.0
 31
0.0
 40
0.383864035
 41
0.0
 42
1.5707963268
  0
ELLIPSE
  5
5E4
100
AcDbEntity
  8
0
100
AcDbEllipse
 62
7
  6
CONTINUOUS
 10
111.4282254172
 20
156.2310707542
 30
0.0
 11
3.0
 21
0.0
 31
0.0
 40
1.0
 41
-0.0
 42
1.5707963268
  0
ELLIPSE
  5
5E5
100
AcDbEntity
  8
0
100
AcDbEllipse
 62
7
  6
CONTINUOUS
 10
127.7264414857
 20
152.5662123838
 30
0.0
 11
-0.5486916773
 21
-1.2874646535
 31
0.0
 40
0.7145358838
 41
1.5707963268
 42
2.1085963504
  0
ELLIPSE
  5
5E6
100
AcDbEntity
  8
0
100
AcDbEllipse
 62
7
  6
CONTINUOUS
 10
115.8424389796
 20
154.5218453775
 30
0.0
 11
-1.2104221425
 21
1.2980188316
 31
0.0
 40
0.563438437
 41
0.5435120867
 42
1.5707963268
  0
ENDSEC
  0
SECTION
  2
OBJECTS
  0
DICTIONARY
  5
5E7
100
AcDbDictionary
  3
ACAD_GROUP
350
5E8
  3
ACAD_MLINESTYLE
350
5E9
  0
DICTIONARY
  5
5E8
102
{ACAD_REACTORS
330
5E7
102
}
100
AcDbDictionary
  0
DICTIONARY
  5
5E9
102
{ACAD_REACTORS
330
5E7
102
}
100
AcDbDictionary
  3
STANDARD
350
5EA
  0
MLINESTYLE
  5
5EA
102
{ACAD_REACTORS
330
5E9
102
}
100
AcDbMlineStyle
  2
STANDARD
 70
0
  3

 62
256
 51
90.0
 52
90.0
 71
2
 49
0.5
 62
256
  6
BYLAYER
 49
-0.5
 62
256
  6
BYLAYER
  0
ENDSEC
  0
EOF
