999
DXF file: C:\Users\64ciro\Desktop\FILE 3D-2D\ARMATEC\h36nll032_3080.dxf
999
Pro/ENGINEER 2017260 by Parametric Technology Corporation
  0
SECTION
  2
HEADER
  9
$ACADVER
  1
AC1014
  9
$DWGCODEPAGE
  3
ANSI_1252
  9
$EXTMAX
 10
297.0
 20
210.0
 30
0.0
  9
$EXTMIN
 10
0.0
 20
0.0
 30
0.0
  9
$LIMMIN
 10
0.0
 20
0.0
  9
$LIMMAX
 10
297.0
 20
210.0
  9
$VIEWCTR
 10
148.5
 20
105.0
  9
$VIEWSIZE
 40
210.0
  9
$CLAYER
  8
0
  9
$LTSCALE
 40
16.335
  9
$CELTYPE
  6
BYLAYER
  9
$DIMSCALE
 40
1.0
  9
$DIMASZ
 40
1.5
  9
$DIMEXO
 40
0.0625
  9
$DIMDLI
 40
11.286
  9
$DIMEXE
 40
0.125
  9
$DIMCEN
 40
2.673
  9
$DIMLFAC
 40
1.0
  9
$DIMBLK
  1
_CLOSED
  9
$DIMALT
 70
0
  9
$DIMALTF
 40
25.4
  9
$DIMTXT
 40
2.0
  9
$DIMTOL
 70
1
  9
$DIMLIM
 70
0
  9
$DIMTFAC
 40
1.0
  9
$DIMTP
 40
0.01
  9
$DIMTM
 40
0.01
  9
$DIMGAP
 40
0.625
  9
$AUNITS
 70
0
  9
$PDMODE
 70
3
  9
$PDSIZE
 40
0.3125
  9
$HANDSEED
  5
561
  9
$TILEMODE
 70
1
  9
$MEASUREMENT
 70
1
  0
ENDSEC
  0
SECTION
  2
CLASSES
  0
ENDSEC
  0
SECTION
  2
TABLES
  0
TABLE
  2
VPORT
  5
8
100
AcDbSymbolTable
 70
2
  0
VPORT
  5
1F4
100
AcDbSymbolTableRecord
100
AcDbViewportTableRecord
  2
*ACTIVE
 70
0
 10
0.0
 20
0.0
 11
1.0
 21
1.0
 12
148.5
 22
105.0
 13
0.0
 23
0.0
 14
1.0
 24
1.0
 15
0.0
 25
0.0
 16
0.0
 26
0.0
 36
1.0
 17
0.0
 27
0.0
 37
0.0
 40
210.0
 41
1.4142857143
 42
50.0
 43
0.0
 44
0.0
 50
0.0
 51
0.0
 71
0
 72
100
 73
1
 74
1
 75
0
 76
0
 77
0
 78
0
  0
ENDTAB
  0
TABLE
  2
LTYPE
  5
5
100
AcDbSymbolTable
 70
6
  0
LTYPE
  5
14
100
AcDbSymbolTableRecord
100
AcDbLinetypeTableRecord
  2
BYBLOCK
 70
0
  3

 72
65
 73
0
 40
0.0
  0
LTYPE
  5
15
100
AcDbSymbolTableRecord
100
AcDbLinetypeTableRecord
  2
BYLAYER
 70
0
  3

 72
65
 73
0
 40
0.0
  0
LTYPE
  5
16
100
AcDbSymbolTableRecord
100
AcDbLinetypeTableRecord
  2
CONTINUOUS
 70
64
  3
Solid line
 72
65
 73
0
 40
0.0
  0
LTYPE
  5
1F5
100
AcDbSymbolTableRecord
100
AcDbLinetypeTableRecord
  2
CENTER
 70
64
  3
____ _ ____ _ ____ _ ____ _ ____ _ ____ _ ____
 72
65
 73
4
 40
0.6
 49
0.375
 74
0
 49
-0.075
 74
0
 49
0.075
 74
0
 49
-0.075
 74
0
  0
LTYPE
  5
1F6
100
AcDbSymbolTableRecord
100
AcDbLinetypeTableRecord
  2
HIDDEN
 70
64
  3
- - - - - - - - - - - - - - - - - - - -
 72
65
 73
2
 40
0.2
 49
0.1
 74
0
 49
-0.1
 74
0
  0
LTYPE
  5
1F7
100
AcDbSymbolTableRecord
100
AcDbLinetypeTableRecord
  2
PHANTOM
 70
64
  3
_____ _ _ _____ _ _ _____ _ _ _____
 72
65
 73
6
 40
0.8
 49
0.45
 74
0
 49
-0.05
 74
0
 49
0.1
 74
0
 49
-0.05
 74
0
 49
0.1
 74
0
 49
-0.05
 74
0
  0
LTYPE
  5
1F8
100
AcDbSymbolTableRecord
100
AcDbLinetypeTableRecord
  2
DOT
 70
64
  3
. . . . . . . . . . . . . . . . . . . .
 72
65
 73
2
 40
0.2
 49
0.1
 74
0
 49
-0.1
 74
0
  0
LTYPE
  5
1F9
100
AcDbSymbolTableRecord
100
AcDbLinetypeTableRecord
  2
DASHED
 70
64
  3
- - - - - - - - - - - - - - - - - - - -
 72
65
 73
2
 40
0.2
 49
0.1
 74
0
 49
-0.1
 74
0
  0
ENDTAB
  0
TABLE
  2
LAYER
  5
2
100
AcDbSymbolTable
 70
36
  0
LAYER
  5
10
100
AcDbSymbolTableRecord
100
AcDbLayerTableRecord
  2
0
 70
0
 62
7
  6
CONTINUOUS
  0
LAYER
  5
1FA
100
AcDbSymbolTableRecord
100
AcDbLayerTableRecord
  2
DEFAULT_1
 70
0
 62
7
  6
CENTER
  0
LAYER
  5
1FB
100
AcDbSymbolTableRecord
100
AcDbLayerTableRecord
  2
DEFAULT_2
 70
0
 62
8
  6
HIDDEN
  0
LAYER
  5
1FC
100
AcDbSymbolTableRecord
100
AcDbLayerTableRecord
  2
DEFAULT_3
 70
0
 62
7
  6
PHANTOM
  0
LAYER
  5
1FD
100
AcDbSymbolTableRecord
100
AcDbLayerTableRecord
  2
ASSI
 70
0
 62
7
  6
CONTINUOUS
  0
LAYER
  5
1FE
100
AcDbSymbolTableRecord
100
AcDbLayerTableRecord
  2
COSMETICA
 70
0
 62
7
  6
CONTINUOUS
  0
LAYER
  5
1FF
100
AcDbSymbolTableRecord
100
AcDbLayerTableRecord
  2
CSYS
 70
0
 62
7
  6
CONTINUOUS
  0
LAYER
  5
200
100
AcDbSymbolTableRecord
100
AcDbLayerTableRecord
  2
CURVE
 70
0
 62
7
  6
CONTINUOUS
  0
LAYER
  5
201
100
AcDbSymbolTableRecord
100
AcDbLayerTableRecord
  2
DETTAGLI
 70
0
 62
7
  6
CONTINUOUS
  0
LAYER
  5
202
100
AcDbSymbolTableRecord
100
AcDbLayerTableRecord
  2
GEOM
 70
0
 62
7
  6
CONTINUOUS
  0
LAYER
  5
203
100
AcDbSymbolTableRecord
100
AcDbLayerTableRecord
  2
GEOMETRIA_SOLIDA
 70
0
 62
7
  6
CONTINUOUS
  0
LAYER
  5
204
100
AcDbSymbolTableRecord
100
AcDbLayerTableRecord
  2
LAY0001
 70
0
 62
7
  6
CONTINUOUS
  0
LAYER
  5
205
100
AcDbSymbolTableRecord
100
AcDbLayerTableRecord
  2
LAY0002
 70
0
 62
7
  6
CONTINUOUS
  0
LAYER
  5
206
100
AcDbSymbolTableRecord
100
AcDbLayerTableRecord
  2
NOGEOM
 70
0
 62
7
  6
CONTINUOUS
  0
LAYER
  5
207
100
AcDbSymbolTableRecord
100
AcDbLayerTableRecord
  2
PIANI
 70
0
 62
7
  6
CONTINUOUS
  0
LAYER
  5
208
100
AcDbSymbolTableRecord
100
AcDbLayerTableRecord
  2
QUOTE
 70
0
 62
7
  6
CONTINUOUS
  0
LAYER
  5
209
100
AcDbSymbolTableRecord
100
AcDbLayerTableRecord
  2
RACCORDI
 70
0
 62
7
  6
CONTINUOUS
  0
LAYER
  5
20A
100
AcDbSymbolTableRecord
100
AcDbLayerTableRecord
  2
SMUSSI
 70
0
 62
7
  6
CONTINUOUS
  0
LAYER
  5
20B
100
AcDbSymbolTableRecord
100
AcDbLayerTableRecord
  2
TABELLE
 70
0
 62
7
  6
CONTINUOUS
  0
ENDTAB
  0
TABLE
  2
STYLE
  5
3
100
AcDbSymbolTable
 70
1
  0
STYLE
  5
11
100
AcDbSymbolTableRecord
100
AcDbTextStyleTableRecord
  2
STANDARD
 70
0
 40
0.0
 41
0.8
 50
0.0
 71
0
 42
0.2
  3
txt
  4

  0
STYLE
  5
20C
100
AcDbSymbolTableRecord
100
AcDbTextStyleTableRecord
  2
TEXTSTYLE_1
 70
0
 40
0.0
 41
0.8
 50
0.0
 71
0
 42
0.2
  3
gdt
  4

  0
ENDTAB
  0
TABLE
  2
VIEW
  5
6
100
AcDbSymbolTable
 70
0
  0
ENDTAB
  0
TABLE
  2
UCS
  5
7
100
AcDbSymbolTable
 70
0
  0
ENDTAB
  0
TABLE
  2
APPID
  5
9
100
AcDbSymbolTable
 70
1
  0
APPID
  5
20D
100
AcDbSymbolTableRecord
100
AcDbRegAppTableRecord
  2
ACAD
 70
0
  0
ENDTAB
  0
TABLE
  2
BLOCK_RECORD
  5
1
100
AcDbSymbolTable
 70
0
  0
BLOCK_RECORD
  5
1F
100
AcDbSymbolTableRecord
100
AcDbBlockTableRecord
  2
*MODEL_SPACE
  0
BLOCK_RECORD
  5
1B
100
AcDbSymbolTableRecord
100
AcDbBlockTableRecord
  2
*PAPER_SPACE
  0
ENDTAB
  0
TABLE
  2
DIMSTYLE
  5
A
100
AcDbSymbolTable
 70
1
  0
DIMSTYLE
105
20E
100
AcDbSymbolTableRecord
100
AcDbDimStyleTableRecord
  2
STANDARD
 70
0
  3

  4

  5
_CLOSED
  6
_CLOSED
  7
_CLOSED
 40
1.0
 41
1.5
 42
0.0625
 43
0.38
 44
0.125
 45
0.0
 46
0.0
 47
0.01
 48
0.01
140
2.0
141
0.09
142
0.0
143
25.4
144
1.0
145
0.0
146
1.0
147
0.625
 71
1.0
 72
0.0
 73
0
 74
0
 75
0
 76
0
 77
1
 78
8
 79
2
170
0
171
1
172
0
173
0
174
0
175
0
176
0
177
0
178
0
270
2
179
2
271
2
272
2
273
2
274
2
275
0
280
0
281
0
282
0
283
1
284
8
285
0
286
0
287
3
288
0
340
11
  0
ENDTAB
  0
ENDSEC
  0
SECTION
  2
BLOCKS
  0
BLOCK
  5
20
100
AcDbEntity
  8
0
100
AcDbBlockBegin
  2
*MODEL_SPACE
 70
0
 10
0.0
 20
0.0
 30
0.0
  3
*MODEL_SPACE
  1

  0
ENDBLK
  5
21
100
AcDbEntity
  8
0
100
AcDbBlockEnd
  0
BLOCK
  5
1C
100
AcDbEntity
  8
0
100
AcDbBlockBegin
  2
*PAPER_SPACE
 70
0
 10
0.0
 20
0.0
 30
0.0
  3
*PAPER_SPACE
  1

  0
ENDBLK
  5
1D
100
AcDbEntity
  8
0
100
AcDbBlockEnd
  0
ENDSEC
  0
SECTION
  2
ENTITIES
  0
LINE
  5
20F
100
AcDbEntity
  8
0
100
AcDbLine
 62
7
  6
CONTINUOUS
 10
0.0
 20
0.0
 11
0.0
 21
210.0
  0
LINE
  5
210
100
AcDbEntity
  8
0
100
AcDbLine
 62
7
  6
CONTINUOUS
 10
0.0
 20
0.0
 11
297.0
 21
0.0
  0
LINE
  5
211
100
AcDbEntity
  8
0
100
AcDbLine
 62
7
  6
CONTINUOUS
 10
0.0
 20
210.0
 11
297.0
 21
210.0
  0
LINE
  5
212
100
AcDbEntity
  8
0
100
AcDbLine
 62
7
  6
CONTINUOUS
 10
297.0
 20
0.0
 11
297.0
 21
210.0
  0
LINE
  5
213
100
AcDbEntity
  8
0
100
AcDbLine
 62
7
  6
CONTINUOUS
 10
73.026747347
 20
42.3414126218
 11
73.0337659514
 21
42.3353355639
  0
LINE
  5
214
100
AcDbEntity
  8
0
100
AcDbLine
 62
7
  6
CONTINUOUS
 10
75.0267479446
 20
42.3414126171
 11
75.0337665435
 21
42.3353355639
  0
LINE
  5
215
100
AcDbEntity
  8
0
100
AcDbLine
 62
7
  6
CONTINUOUS
 10
70.1332107988
 20
43.5353355639
 11
71.3332107988
 21
42.3353355639
  0
LINE
  5
216
100
AcDbEntity
  8
0
100
AcDbLine
 62
7
  6
CONTINUOUS
 10
72.2758071455
 20
43.6417456992
 11
73.026747347
 21
42.3414126218
  0
LINE
  5
217
100
AcDbEntity
  8
0
100
AcDbLine
 62
7
  6
CONTINUOUS
 10
77.0267471551
 20
42.341412617
 11
77.033765754
 21
42.3353355639
  0
LINE
  5
218
100
AcDbEntity
  8
0
100
AcDbLine
 62
7
  6
CONTINUOUS
 10
74.2758077434
 20
43.6417456943
 11
75.0267479446
 21
42.3414126171
  0
LINE
  5
219
100
AcDbEntity
  8
0
100
AcDbLine
 62
7
  6
CONTINUOUS
 10
76.2758069539
 20
43.6417456941
 11
77.0267471552
 21
42.341412617
  0
LINE
  5
21A
100
AcDbEntity
  8
0
100
AcDbLine
 62
7
  6
CONTINUOUS
 10
78.2758075402
 20
43.6417456993
 11
78.8543373111
 21
42.6399627805
  0
LINE
  5
21B
100
AcDbEntity
  8
0
100
AcDbLine
 62
7
  6
CONTINUOUS
 10
92.9009777518
 20
40.0675686109
 11
89.3654438459
 21
43.6031025168
  0
LINE
  5
21C
100
AcDbEntity
  8
0
100
AcDbLine
 62
7
  6
CONTINUOUS
 10
70.1332107988
 20
43.5353355639
 11
70.1332107988
 21
91.1353212367
  0
LINE
  5
21D
100
AcDbEntity
  8
0
100
AcDbLine
 62
7
  6
CONTINUOUS
 10
71.3332107988
 20
42.3353355639
 11
71.3332107988
 21
42.46926435
  0
LINE
  5
21E
100
AcDbEntity
  8
0
100
AcDbLine
 62
7
  6
CONTINUOUS
 10
71.1406138542
 20
91.0289254335
 11
70.7351412377
 21
91.7310401176
  0
LINE
  5
21F
100
AcDbEntity
  8
0
100
AcDbLine
 62
7
  6
CONTINUOUS
 10
78.5558605296
 20
88.7246738282
 11
78.5558605296
 21
65.6014407513
  0
LINE
  5
220
100
AcDbEntity
  8
0
100
AcDbLine
 62
7
  6
CONTINUOUS
 10
79.5558605296
 20
43.3353355639
 11
79.5558605296
 21
60.2168096449
  0
LINE
  5
221
100
AcDbEntity
  8
0
100
AcDbLine
 62
7
  6
CONTINUOUS
 10
79.5558605296
 20
90.1736054958
 11
79.5558605296
 21
91.3353355639
  0
LINE
  5
222
100
AcDbEntity
  8
0
100
AcDbLine
 62
7
  6
CONTINUOUS
 10
79.7290656104
 20
71.3473658628
 11
79.7290656104
 21
60.3057912189
  0
LINE
  5
223
100
AcDbEntity
  8
0
100
AcDbLine
 62
7
  6
CONTINUOUS
 10
92.1332107988
 20
159.5492972198
 11
93.4257124646
 21
160.9353355639
  0
LINE
  5
224
100
AcDbEntity
  8
0
100
AcDbLine
 62
7
  6
CONTINUOUS
 10
102.5144086453
 20
168.778069974
 11
103.1332107988
 21
169.1353355639
  0
LINE
  5
225
100
AcDbEntity
  8
0
100
AcDbLine
 62
7
  6
CONTINUOUS
 10
127.8658838108
 20
38.3353355639
 11
126.1332107988
 21
38.3353355639
  0
LINE
  5
226
100
AcDbEntity
  8
0
100
AcDbLine
 62
7
  6
CONTINUOUS
 10
125.9332107988
 20
38.3353355639
 11
117.6302670737
 21
38.3353355639
  0
LINE
  5
227
100
AcDbEntity
  8
0
100
AcDbLine
 62
7
  6
CONTINUOUS
 10
116.7817389362
 20
38.6868074265
 11
116.4846826614
 21
38.9838637013
  0
LINE
  5
228
100
AcDbEntity
  8
0
100
AcDbLine
 62
7
  6
CONTINUOUS
 10
73.1406144522
 20
91.0289254285
 11
72.3896742506
 21
92.3292585059
  0
LINE
  5
229
100
AcDbEntity
  8
0
100
AcDbLine
 62
7
  6
CONTINUOUS
 10
75.1406142374
 20
91.0289254436
 11
74.3896740367
 21
92.3292585202
  0
LINE
  5
22A
100
AcDbEntity
  8
0
100
AcDbLine
 62
7
  6
CONTINUOUS
 10
77.1406140574
 20
91.0289254285
 11
76.3896738559
 21
92.3292585059
  0
LINE
  5
22B
100
AcDbEntity
  8
0
100
AcDbLine
 62
7
  6
CONTINUOUS
 10
79.1406146437
 20
91.0289254336
 11
78.3896744425
 21
92.3292585108
  0
LINE
  5
22C
100
AcDbEntity
  8
0
100
AcDbLine
 62
7
  6
CONTINUOUS
 10
80.1332107988
 20
90.3353355639
 11
79.5558605296
 21
91.3353355639
  0
LINE
  5
22D
100
AcDbEntity
  8
0
100
AcDbLine
 62
7
  6
CONTINUOUS
 10
80.1332107988
 20
44.3353355639
 11
80.1332107988
 21
90.3353355639
  0
LINE
  5
22E
100
AcDbEntity
  8
0
100
AcDbLine
 62
7
  6
CONTINUOUS
 10
98.1332107988
 20
155.1298827605
 11
98.142479218
 21
155.1395407196
  0
LINE
  5
22F
100
AcDbEntity
  8
0
100
AcDbLine
 62
7
  6
CONTINUOUS
 10
95.8332107988
 20
154.0353355639
 11
96.1332107988
 21
154.3353355639
  0
LINE
  5
230
100
AcDbEntity
  8
0
100
AcDbLine
 62
7
  6
CONTINUOUS
 10
98.8332107988
 20
156.6353355639
 11
98.2827961574
 21
156.0849209225
  0
LINE
  5
231
100
AcDbEntity
  8
0
100
AcDbLine
 62
7
  6
CONTINUOUS
 10
102.5144086453
 20
165.9327705123
 11
101.4332107988
 21
165.3085406446
  0
LINE
  5
232
100
AcDbEntity
  8
0
100
AcDbLine
 62
7
  6
CONTINUOUS
 10
115.636154524
 20
39.3353355639
 11
94.6687447048
 21
39.3353355639
  0
LINE
  5
233
100
AcDbEntity
  8
GEOM
100
AcDbLine
 62
7
  6
CONTINUOUS
 10
129.2590872071
 20
41.3353355639
 11
135.1135955565
 21
41.3353355639
  0
LINE
  5
234
100
AcDbEntity
  8
GEOM
100
AcDbLine
 62
7
  6
CONTINUOUS
 10
129.2590872298
 20
41.9211221861
 11
134.0383114803
 21
41.9211220015
  0
LINE
  5
235
100
AcDbEntity
  8
0
100
AcDbLine
 62
7
  6
CONTINUOUS
 10
71.3332107988
 20
42.3353355639
 11
71.3826552515
 21
42.3353355639
  0
LINE
  5
236
100
AcDbEntity
  8
0
100
AcDbLine
 62
7
  6
CONTINUOUS
 10
73.0337659514
 20
42.3353355639
 11
73.3826558436
 21
42.3353355639
  0
LINE
  5
237
100
AcDbEntity
  8
0
100
AcDbLine
 62
7
  6
CONTINUOUS
 10
75.0337665435
 20
42.3353355639
 11
75.3826550541
 21
42.3353355639
  0
LINE
  5
238
100
AcDbEntity
  8
0
100
AcDbLine
 62
7
  6
CONTINUOUS
 10
77.033765754
 20
42.3353355639
 11
77.3826556463
 21
42.3353355639
  0
LINE
  5
239
100
AcDbEntity
  8
0
100
AcDbLine
 62
7
  6
CONTINUOUS
 10
141.8837657713
 20
42.3353355639
 11
142.2326557817
 21
42.3353355639
  0
LINE
  5
23A
100
AcDbEntity
  8
0
100
AcDbLine
 62
7
  6
CONTINUOUS
 10
143.8837665212
 20
42.3353355639
 11
144.232655242
 21
42.3353355639
  0
LINE
  5
23B
100
AcDbEntity
  8
0
100
AcDbLine
 62
7
  6
CONTINUOUS
 10
145.883765965
 20
42.3353355639
 11
146.2326552449
 21
42.3353355639
  0
LINE
  5
23C
100
AcDbEntity
  8
0
100
AcDbLine
 62
7
  6
CONTINUOUS
 10
147.8837660196
 20
42.3353355639
 11
148.2326558954
 21
42.3353355639
  0
LINE
  5
23D
100
AcDbEntity
  8
0
100
AcDbLine
 62
7
  6
CONTINUOUS
 10
72.1332106014
 20
43.6353355639
 11
72.2832106014
 21
43.6353355639
  0
LINE
  5
23E
100
AcDbEntity
  8
0
100
AcDbLine
 62
7
  6
CONTINUOUS
 10
74.1332111936
 20
43.6353355639
 11
74.2832111936
 21
43.6353355639
  0
LINE
  5
23F
100
AcDbEntity
  8
0
100
AcDbLine
 62
7
  6
CONTINUOUS
 10
76.133210404
 20
43.6353355639
 11
76.283210404
 21
43.6353355639
  0
LINE
  5
240
100
AcDbEntity
  8
0
100
AcDbLine
 62
7
  6
CONTINUOUS
 10
78.1332109962
 20
43.6353355639
 11
78.2832109962
 21
43.6353355639
  0
LINE
  5
241
100
AcDbEntity
  8
0
100
AcDbLine
 62
7
  6
CONTINUOUS
 10
140.9832103824
 20
43.6353356278
 11
141.1332103824
 21
43.6353356278
  0
LINE
  5
242
100
AcDbEntity
  8
0
100
AcDbLine
 62
7
  6
CONTINUOUS
 10
142.9832111516
 20
43.6353355964
 11
143.1332111516
 21
43.6353355964
  0
LINE
  5
243
100
AcDbEntity
  8
0
100
AcDbLine
 62
7
  6
CONTINUOUS
 10
144.9832106032
 20
43.6353355828
 11
145.1332106032
 21
43.6353355828
  0
LINE
  5
244
100
AcDbEntity
  8
0
100
AcDbLine
 62
7
  6
CONTINUOUS
 10
146.9832106323
 20
43.6353356253
 11
147.1332106323
 21
43.6353356253
  0
LINE
  5
245
100
AcDbEntity
  8
0
100
AcDbLine
 62
7
  6
CONTINUOUS
 10
148.9832112533
 20
43.6353355768
 11
149.1332112533
 21
43.6353355768
  0
LINE
  5
246
100
AcDbEntity
  8
0
100
AcDbLine
 62
7
  6
CONTINUOUS
 10
140.1332107988
 20
44.0853355639
 11
136.0332107988
 21
44.0853355639
  0
LINE
  5
247
100
AcDbEntity
  8
0
100
AcDbLine
 62
7
  6
CONTINUOUS
 10
87.5976768929
 20
44.3353355639
 11
80.1332107988
 21
44.3353355639
  0
LINE
  5
248
100
AcDbEntity
  8
0
100
AcDbLine
 62
7
  6
CONTINUOUS
 10
149.4214369913
 20
43.1298365002
 11
149.4260314147
 21
43.1281561798
  0
LINE
  5
249
100
AcDbEntity
  8
0
100
AcDbLine
 62
7
  6
CONTINUOUS
 10
72.3896742507
 20
92.3292585059
 11
72.3826556463
 21
92.3353355639
  0
LINE
  5
24A
100
AcDbEntity
  8
0
100
AcDbLine
 62
7
  6
CONTINUOUS
 10
74.3896740367
 20
92.3292585202
 11
74.3826554489
 21
92.3353355639
  0
LINE
  5
24B
100
AcDbEntity
  8
0
100
AcDbLine
 62
7
  6
CONTINUOUS
 10
79.5558605296
 20
91.3353355639
 11
79.492815398
 21
91.3983806955
  0
LINE
  5
24C
100
AcDbEntity
  8
0
100
AcDbLine
 62
7
  6
CONTINUOUS
 10
99.9198317914
 20
64.9471201233
 11
97.9132107988
 21
68.8853355639
  0
LINE
  5
24D
100
AcDbEntity
  8
0
100
AcDbLine
 62
7
  6
CONTINUOUS
 10
100.4529367543
 20
65.993397524
 11
98.9794207246
 21
68.8853355639
  0
LINE
  5
24E
100
AcDbEntity
  8
0
100
AcDbLine
 62
7
  6
CONTINUOUS
 10
87.5976768929
 20
44.3353355639
 11
87.5976768929
 21
90.3353355639
  0
LINE
  5
24F
100
AcDbEntity
  8
0
100
AcDbLine
 62
7
  6
CONTINUOUS
 10
89.3654438459
 20
43.6031025168
 11
89.3654438459
 21
91.0675686109
  0
LINE
  5
250
100
AcDbEntity
  8
0
100
AcDbLine
 62
7
  6
CONTINUOUS
 10
92.1332107988
 20
145.8353355639
 11
92.1332107988
 21
160.9353355639
  0
LINE
  5
251
100
AcDbEntity
  8
0
100
AcDbLine
 62
7
  6
CONTINUOUS
 10
92.9009777518
 20
94.6031025168
 11
92.9009777518
 21
40.0675686109
  0
LINE
  5
252
100
AcDbEntity
  8
0
100
AcDbLine
 62
7
  6
CONTINUOUS
 10
108.9873127651
 20
164.1353355639
 11
108.9073750159
 21
163.9353355639
  0
LINE
  5
253
100
AcDbEntity
  8
0
100
AcDbLine
 62
7
  6
CONTINUOUS
 10
113.1332107988
 20
164.1353355639
 11
113.0329861449
 21
163.9353355639
  0
LINE
  5
254
100
AcDbEntity
  8
0
100
AcDbLine
 62
7
  6
CONTINUOUS
 10
110.6599223126
 20
164.1353355639
 11
110.5593582375
 21
163.9353355639
  0
LINE
  5
255
100
AcDbEntity
  8
0
100
AcDbLine
 62
7
  6
CONTINUOUS
 10
112.8395498966
 20
164.1353355639
 11
112.7283203645
 21
163.9353355639
  0
LINE
  5
256
100
AcDbEntity
  8
0
100
AcDbLine
 62
7
  6
CONTINUOUS
 10
111.9873127651
 20
164.1353355639
 11
111.8759662765
 21
163.9353355639
  0
LINE
  5
257
100
AcDbEntity
  8
0
100
AcDbLine
 62
7
  6
CONTINUOUS
 10
72.0267471552
 20
92.3292585108
 11
71.2758069539
 21
91.0289254336
  0
LINE
  5
258
100
AcDbEntity
  8
0
100
AcDbLine
 62
7
  6
CONTINUOUS
 10
74.0267477417
 20
92.3292585059
 11
73.2758075402
 21
91.0289254285
  0
LINE
  5
259
100
AcDbEntity
  8
0
100
AcDbLine
 62
7
  6
CONTINUOUS
 10
98.9433803208
 20
155.5569351573
 11
98.142479218
 21
155.1395407196
  0
LINE
  5
25A
100
AcDbEntity
  8
0
100
AcDbLine
 62
7
  6
CONTINUOUS
 10
144.8832107988
 20
50.5769048498
 11
144.7332107988
 21
50.5769048498
  0
LINE
  5
25B
100
AcDbEntity
  8
0
100
AcDbLine
 62
7
  6
CONTINUOUS
 10
76.3896738559
 20
92.3292585059
 11
76.3826552515
 21
92.3353355639
  0
LINE
  5
25C
100
AcDbEntity
  8
0
100
AcDbLine
 62
7
  6
CONTINUOUS
 10
94.6687447048
 20
95.3353355639
 11
94.6687447048
 21
39.3353355639
  0
LINE
  5
25D
100
AcDbEntity
  8
0
100
AcDbLine
 62
7
  6
CONTINUOUS
 10
95.1332107988
 20
150.3353355639
 11
95.1332107988
 21
160.4353355639
  0
LINE
  5
25E
100
AcDbEntity
  8
0
100
AcDbLine
 62
7
  6
CONTINUOUS
 10
95.6332107988
 20
61.6653355639
 11
95.6332107988
 21
73.0653355639
  0
LINE
  5
25F
100
AcDbEntity
  8
0
100
AcDbLine
 62
7
  6
CONTINUOUS
 10
95.8332107988
 20
151.1353355639
 11
95.8332107988
 21
154.0353355639
  0
LINE
  5
260
100
AcDbEntity
  8
0
100
AcDbLine
 62
7
  6
CONTINUOUS
 10
96.1332107988
 20
150.6696501389
 11
96.1332107988
 21
150.3353355639
  0
LINE
  5
261
100
AcDbEntity
  8
0
100
AcDbLine
 62
7
  6
CONTINUOUS
 10
96.421068156
 20
150.3353355639
 11
96.421068156
 21
144.0010209888
  0
LINE
  5
262
100
AcDbEntity
  8
0
100
AcDbLine
 62
7
  6
CONTINUOUS
 10
96.5832107988
 20
62.6153355639
 11
96.5832107988
 21
72.1153355639
  0
LINE
  5
263
100
AcDbEntity
  8
0
100
AcDbLine
 62
7
  6
CONTINUOUS
 10
96.6332107988
 20
143.1696501389
 11
96.6332107988
 21
96.5353355639
  0
LINE
  5
264
100
AcDbEntity
  8
0
100
AcDbLine
 62
7
  6
CONTINUOUS
 10
96.9351717716
 20
143.1696501389
 11
96.9351717716
 21
143.0629221036
  0
LINE
  5
265
100
AcDbEntity
  8
0
100
AcDbLine
 62
7
  6
CONTINUOUS
 10
98.1332107988
 20
155.1298827605
 11
98.1332107988
 21
154.8257894112
  0
LINE
  5
266
100
AcDbEntity
  8
0
100
AcDbLine
 62
7
  6
CONTINUOUS
 10
98.9332108784
 20
155.7463364466
 11
98.9332108784
 21
155.5516347514
  0
LINE
  5
267
100
AcDbEntity
  8
0
100
AcDbLine
 62
7
  6
CONTINUOUS
 10
98.933210882
 20
154.4093357231
 11
98.933210882
 21
154.3353355639
  0
LINE
  5
268
100
AcDbEntity
  8
0
100
AcDbLine
 62
7
  6
CONTINUOUS
 10
100.1332107988
 20
119.1696501389
 11
100.1332107988
 21
124.1696501389
  0
LINE
  5
269
100
AcDbEntity
  8
0
100
AcDbLine
 62
7
  6
CONTINUOUS
 10
100.1332107988
 20
156.6353355639
 11
100.1332107988
 21
160.1353355621
  0
LINE
  5
26A
100
AcDbEntity
  8
0
100
AcDbLine
 62
7
  6
CONTINUOUS
 10
100.2791088326
 20
159.5579852947
 11
100.2791088326
 21
156.6353355639
  0
LINE
  5
26B
100
AcDbEntity
  8
0
100
AcDbLine
 62
7
  6
CONTINUOUS
 10
100.6957107988
 20
123.6377353087
 11
100.6957107988
 21
122.0419905201
  0
LINE
  5
26C
100
AcDbEntity
  8
0
100
AcDbLine
 62
7
  6
CONTINUOUS
 10
100.6957107988
 20
121.4036927238
 11
100.6957107988
 21
119.1696501389
  0
LINE
  5
26D
100
AcDbEntity
  8
0
100
AcDbLine
 62
7
  6
CONTINUOUS
 10
101.1332107988
 20
164.7889254024
 11
101.1332107988
 21
164.1353355639
  0
LINE
  5
26E
100
AcDbEntity
  8
0
100
AcDbLine
 62
7
  6
CONTINUOUS
 10
105.2791088326
 20
164.1353355639
 11
105.261113326
 21
163.9353355639
  0
LINE
  5
26F
100
AcDbEntity
  8
0
100
AcDbLine
 62
7
  6
CONTINUOUS
 10
101.1665441421
 20
113.6802886143
 11
100.9998774705
 21
112.829224886
  0
LINE
  5
270
100
AcDbEntity
  8
0
100
AcDbLine
 62
7
  6
CONTINUOUS
 10
107.1332107988
 20
164.1353355639
 11
107.0817242394
 21
163.9353355639
  0
LINE
  5
271
100
AcDbEntity
  8
0
100
AcDbLine
 62
7
  6
CONTINUOUS
 10
75.2832107988
 20
91.0353355639
 11
76.0337661488
 21
92.3353355639
  0
LINE
  5
272
100
AcDbEntity
  8
0
100
AcDbLine
 62
7
  6
CONTINUOUS
 10
76.0267475609
 20
92.3292585202
 11
75.2758073603
 21
91.0289254436
  0
LINE
  5
273
100
AcDbEntity
  8
0
100
AcDbLine
 62
7
  6
CONTINUOUS
 10
78.026747347
 20
92.3292585059
 11
77.2758071454
 21
91.0289254285
  0
LINE
  5
274
100
AcDbEntity
  8
0
100
AcDbLine
 62
7
  6
CONTINUOUS
 10
79.4881934744
 20
91.3966903339
 11
79.2758077434
 21
91.0289254335
  0
LINE
  5
275
100
AcDbEntity
  8
0
100
AcDbLine
 62
7
  6
CONTINUOUS
 10
140.9758514859
 20
181.7637626886
 11
123.44031758
 21
164.2282287827
  0
LINE
  5
276
100
AcDbEntity
  8
0
100
AcDbLine
 62
7
  6
CONTINUOUS
 10
125.5616379236
 20
162.1069084391
 11
142.8042786107
 21
179.3495491262
  0
LINE
  5
277
100
AcDbEntity
  8
0
100
AcDbLine
 62
7
  6
CONTINUOUS
 10
118.4332107988
 20
151.1353355639
 11
118.2503680863
 21
150.9524928514
  0
LINE
  5
278
100
AcDbEntity
  8
GEOM
100
AcDbLine
 62
7
  6
CONTINUOUS
 10
129.2590874677
 20
55.9799943828
 11
134.0383114803
 21
55.9799965046
  0
LINE
  5
279
100
AcDbEntity
  8
GEOM
100
AcDbLine
 62
7
  6
CONTINUOUS
 10
129.2590872071
 20
57.3942100669
 11
134.0383114803
 21
57.3942100669
  0
LINE
  5
27A
100
AcDbEntity
  8
GEOM
100
AcDbLine
 62
7
  6
CONTINUOUS
 10
129.2590872071
 20
57.3942100669
 11
128.8727168766
 21
57.4306933269
  0
LINE
  5
27B
100
AcDbEntity
  8
GEOM
100
AcDbLine
 62
7
  6
CONTINUOUS
 10
134.0383114803
 20
57.3942100669
 11
134.3847216418
 21
57.3218121075
  0
LINE
  5
27C
100
AcDbEntity
  8
0
100
AcDbLine
 62
7
  6
CONTINUOUS
 10
143.8767479176
 20
42.3414126213
 11
143.8837665212
 21
42.3353355639
  0
LINE
  5
27D
100
AcDbEntity
  8
0
100
AcDbLine
 62
7
  6
CONTINUOUS
 10
145.8767473742
 20
42.3414126102
 11
145.883765965
 21
42.3353355639
  0
LINE
  5
27E
100
AcDbEntity
  8
0
100
AcDbLine
 62
7
  6
CONTINUOUS
 10
140.8368003497
 20
43.381746013
 11
140.1332107988
 21
44.0853355639
  0
LINE
  5
27F
100
AcDbEntity
  8
0
100
AcDbLine
 62
7
  6
CONTINUOUS
 10
100.9998774705
 20
106.8717777446
 11
100.8332107988
 21
107.5100756899
  0
LINE
  5
280
100
AcDbEntity
  8
0
100
AcDbLine
 62
7
  6
CONTINUOUS
 10
103.6064992851
 20
164.1353355639
 11
103.623756357
 21
163.9353355639
  0
LINE
  5
281
100
AcDbEntity
  8
0
100
AcDbLine
 62
7
  6
CONTINUOUS
 10
101.7332107988
 20
160.9353355639
 11
101.7332107988
 21
160.1353355639
  0
LINE
  5
282
100
AcDbEntity
  8
0
100
AcDbLine
 62
7
  6
CONTINUOUS
 10
102.5144086453
 20
165.9327705123
 11
102.5144086453
 21
168.778069974
  0
LINE
  5
283
100
AcDbEntity
  8
0
100
AcDbLine
 62
7
  6
CONTINUOUS
 10
103.0394607094
 20
122.9994375125
 11
103.0394607094
 21
122.6802883163
  0
LINE
  5
284
100
AcDbEntity
  8
0
100
AcDbLine
 62
7
  6
CONTINUOUS
 10
103.1332107988
 20
140.7696501389
 11
103.1332107988
 21
138.5696501389
  0
LINE
  5
285
100
AcDbEntity
  8
0
100
AcDbLine
 62
7
  6
CONTINUOUS
 10
103.4655917755
 20
160.9353355639
 11
103.4655917755
 21
159.5492972198
  0
LINE
  5
286
100
AcDbEntity
  8
0
100
AcDbLine
 62
7
  6
CONTINUOUS
 10
103.499877545
 20
110.7015649691
 11
103.499877545
 21
109.8505012408
  0
LINE
  5
287
100
AcDbEntity
  8
0
100
AcDbLine
 62
7
  6
CONTINUOUS
 10
103.6019607094
 20
122.9994375125
 11
103.6019607094
 21
122.5739053503
  0
LINE
  5
288
100
AcDbEntity
  8
0
100
AcDbLine
 62
7
  6
CONTINUOUS
 10
103.6332107988
 20
140.7696501389
 11
103.6332107988
 21
138.5696501389
  0
LINE
  5
289
100
AcDbEntity
  8
0
100
AcDbLine
 62
7
  6
CONTINUOUS
 10
104.3519607988
 20
124.1696501389
 11
104.3519607988
 21
119.1696501389
  0
LINE
  5
28A
100
AcDbEntity
  8
0
100
AcDbLine
 62
7
  6
CONTINUOUS
 10
104.8238097221
 20
165.9327705123
 11
104.8238097221
 21
168.778069974
  0
LINE
  5
28B
100
AcDbEntity
  8
0
100
AcDbLine
 62
7
  6
CONTINUOUS
 10
104.9144607988
 20
123.5313523427
 11
104.9144607988
 21
119.1696501389
  0
LINE
  5
28C
100
AcDbEntity
  8
0
100
AcDbLine
 62
7
  6
CONTINUOUS
 10
105.1756306503
 20
64.0453355639
 11
105.1756306503
 21
68.8853355639
  0
LINE
  5
28D
100
AcDbEntity
  8
0
100
AcDbLine
 62
7
  6
CONTINUOUS
 10
105.1756306503
 20
69.8353355639
 11
105.1756306503
 21
70.7853355639
  0
LINE
  5
28E
100
AcDbEntity
  8
0
100
AcDbLine
 62
7
  6
CONTINUOUS
 10
105.8332107988
 20
112.829224886
 11
105.8332107988
 21
112.4036924258
  0
LINE
  5
28F
100
AcDbEntity
  8
0
100
AcDbLine
 62
7
  6
CONTINUOUS
 10
105.9998773065
 20
108.3611394182
 11
105.9998773065
 21
107.5100756899
  0
LINE
  5
290
100
AcDbEntity
  8
0
100
AcDbLine
 62
7
  6
CONTINUOUS
 10
106.1256306503
 20
64.0453355639
 11
106.1256306503
 21
68.8853355639
  0
LINE
  5
291
100
AcDbEntity
  8
0
100
AcDbLine
 62
7
  6
CONTINUOUS
 10
106.1256306503
 20
69.8353355639
 11
106.1256306503
 21
70.7853355639
  0
LINE
  5
292
100
AcDbEntity
  8
0
100
AcDbLine
 62
7
  6
CONTINUOUS
 10
106.6665442911
 20
112.829224886
 11
106.6665442911
 21
112.4036924258
  0
LINE
  5
293
100
AcDbEntity
  8
0
100
AcDbLine
 62
7
  6
CONTINUOUS
 10
106.8332107988
 20
108.3611394182
 11
106.8332107988
 21
107.5100756899
  0
LINE
  5
294
100
AcDbEntity
  8
0
100
AcDbLine
 62
7
  6
CONTINUOUS
 10
106.9532107988
 20
142.1696501389
 11
106.9532107988
 21
141.6696501389
  0
LINE
  5
295
100
AcDbEntity
  8
0
100
AcDbLine
 62
7
  6
CONTINUOUS
 10
106.9732107988
 20
137.6696501389
 11
106.9732107988
 21
137.1696501389
  0
LINE
  5
296
100
AcDbEntity
  8
0
100
AcDbLine
 62
7
  6
CONTINUOUS
 10
107.1332107988
 20
142.1696501389
 11
107.1332107988
 21
137.1696501389
  0
LINE
  5
297
100
AcDbEntity
  8
0
100
AcDbLine
 62
7
  6
CONTINUOUS
 10
107.4556306503
 20
64.0453355639
 11
107.4556306503
 21
64.2953355639
  0
LINE
  5
298
100
AcDbEntity
  8
0
100
AcDbLine
 62
7
  6
CONTINUOUS
 10
107.4556306503
 20
67.0828131854
 11
107.4556306503
 21
68.8853355639
  0
LINE
  5
299
100
AcDbEntity
  8
0
100
AcDbLine
 62
7
  6
CONTINUOUS
 10
107.5394609776
 20
124.1696501389
 11
107.5394609776
 21
119.9143309757
  0
LINE
  5
29A
100
AcDbEntity
  8
0
100
AcDbLine
 62
7
  6
CONTINUOUS
 10
107.7582107988
 20
141.6377353087
 11
107.7582107988
 21
140.0419905201
  0
LINE
  5
29B
100
AcDbEntity
  8
0
100
AcDbLine
 62
7
  6
CONTINUOUS
 10
107.7582107988
 20
139.4036927238
 11
107.7582107988
 21
137.1696501389
  0
LINE
  5
29C
100
AcDbEntity
  8
0
100
AcDbLine
 62
7
  6
CONTINUOUS
 10
108.1019609776
 20
124.1696501389
 11
108.1019609776
 21
119.1696501389
  0
LINE
  5
29D
100
AcDbEntity
  8
0
100
AcDbLine
 62
7
  6
CONTINUOUS
 10
108.1665442911
 20
106.2334799484
 11
108.1665442911
 21
105.1696501389
  0
LINE
  5
29E
100
AcDbEntity
  8
0
100
AcDbLine
 62
7
  6
CONTINUOUS
 10
108.4056306503
 20
67.9353355639
 11
108.4056306503
 21
68.8853355639
  0
LINE
  5
29F
100
AcDbEntity
  8
0
100
AcDbLine
 62
7
  6
CONTINUOUS
 10
108.8519607988
 20
123.4249693766
 11
108.8519607988
 21
122.5739053503
  0
LINE
  5
2A0
100
AcDbEntity
  8
0
100
AcDbLine
 62
7
  6
CONTINUOUS
 10
106.6665442911
 20
112.4036924258
 11
106.4998773065
 21
111.5526286975
  0
LINE
  5
2A1
100
AcDbEntity
  8
0
100
AcDbLine
 62
7
  6
CONTINUOUS
 10
108.4998773065
 20
113.6802886143
 11
108.3332107988
 21
112.829224886
  0
LINE
  5
2A2
100
AcDbEntity
  8
0
100
AcDbLine
 62
7
  6
CONTINUOUS
 10
103.0394607094
 20
122.6802883163
 11
102.9457107988
 21
122.3611394182
  0
LINE
  5
2A3
100
AcDbEntity
  8
0
100
AcDbLine
 62
7
  6
CONTINUOUS
 10
103.6019607094
 20
122.5739053503
 11
103.5082107988
 21
122.2547564522
  0
LINE
  5
2A4
100
AcDbEntity
  8
0
100
AcDbLine
 62
7
  6
CONTINUOUS
 10
110.3623773661
 20
140.6802883163
 11
110.2582107988
 21
140.3611394182
  0
LINE
  5
2A5
100
AcDbEntity
  8
0
100
AcDbLine
 62
7
  6
CONTINUOUS
 10
110.9873773661
 20
140.5739053503
 11
110.8832107988
 21
140.2547564522
  0
LINE
  5
2A6
100
AcDbEntity
  8
0
100
AcDbLine
 62
7
  6
CONTINUOUS
 10
121.1332107988
 20
159.6727226611
 11
116.1332107988
 21
145.9353355639
  0
LINE
  5
2A7
100
AcDbEntity
  8
0
100
AcDbLine
 62
7
  6
CONTINUOUS
 10
105.8332107988
 20
112.4036924258
 11
105.4998773065
 21
111.5526286975
  0
LINE
  5
2A8
100
AcDbEntity
  8
0
100
AcDbLine
 62
7
  6
CONTINUOUS
 10
102.1665441719
 20
113.4675226823
 11
101.8332107988
 21
112.829224886
  0
LINE
  5
2A9
100
AcDbEntity
  8
0
100
AcDbLine
 62
7
  6
CONTINUOUS
 10
103.5082107988
 20
122.2547564522
 11
103.2269607988
 21
121.829224588
  0
LINE
  5
2AA
100
AcDbEntity
  8
0
100
AcDbLine
 62
7
  6
CONTINUOUS
 10
110.8832107988
 20
140.2547564522
 11
110.5707107988
 21
139.829224588
  0
LINE
  5
2AB
100
AcDbEntity
  8
0
100
AcDbLine
 62
7
  6
CONTINUOUS
 10
102.9457107988
 20
122.3611394182
 11
102.7582107094
 21
122.1483734861
  0
LINE
  5
2AC
100
AcDbEntity
  8
0
100
AcDbLine
 62
7
  6
CONTINUOUS
 10
110.2582107988
 20
140.3611394182
 11
110.0498773661
 21
140.1483734861
  0
LINE
  5
2AD
100
AcDbEntity
  8
0
100
AcDbLine
 62
7
  6
CONTINUOUS
 10
118.0160535113
 20
143.7181782764
 11
117.7503680863
 21
143.4524928514
  0
LINE
  5
2AE
100
AcDbEntity
  8
0
100
AcDbLine
 62
7
  6
CONTINUOUS
 10
70.1332107988
 20
91.1353355639
 11
70.7305826044
 21
91.7327073695
  0
LINE
  5
2AF
100
AcDbEntity
  8
0
100
AcDbLine
 62
7
  6
CONTINUOUS
 10
110.5707107988
 20
139.829224588
 11
110.1540442315
 21
139.6164586559
  0
LINE
  5
2B0
100
AcDbEntity
  8
0
100
AcDbLine
 62
7
  6
CONTINUOUS
 10
114.6332107988
 20
61.6653355639
 11
95.6332107988
 21
61.6653355639
  0
LINE
  5
2B1
100
AcDbEntity
  8
0
100
AcDbLine
 62
7
  6
CONTINUOUS
 10
113.6832107988
 20
62.6153355639
 11
96.5832107988
 21
62.6153355639
  0
LINE
  5
2B2
100
AcDbEntity
  8
0
100
AcDbLine
 62
7
  6
CONTINUOUS
 10
108.4056306503
 20
64.0453355639
 11
107.4556306503
 21
64.0453355639
  0
LINE
  5
2B3
100
AcDbEntity
  8
0
100
AcDbLine
 62
7
  6
CONTINUOUS
 10
106.1256306503
 20
64.0453355639
 11
105.1756306503
 21
64.0453355639
  0
LINE
  5
2B4
100
AcDbEntity
  8
0
100
AcDbLine
 62
7
  6
CONTINUOUS
 10
101.3795274748
 20
64.0453355639
 11
100.313317549
 21
64.0453355639
  0
LINE
  5
2B5
100
AcDbEntity
  8
0
100
AcDbLine
 62
7
  6
CONTINUOUS
 10
111.0656306503
 20
67.3353355639
 11
110.4956306503
 21
67.3353355639
  0
LINE
  5
2B6
100
AcDbEntity
  8
0
100
AcDbLine
 62
7
  6
CONTINUOUS
 10
112.0156306503
 20
68.3153355639
 11
111.0656306503
 21
68.3153355639
  0
LINE
  5
2B7
100
AcDbEntity
  8
0
100
AcDbLine
 62
7
  6
CONTINUOUS
 10
70.7305834532
 20
91.732708218
 11
70.7351412377
 21
91.7310401176
  0
LINE
  5
2B8
100
AcDbEntity
  8
0
100
AcDbLine
 62
7
  6
CONTINUOUS
 10
145.6337661488
 20
49.6576660342
 11
144.8832107988
 21
50.5769048498
  0
LINE
  5
2B9
100
AcDbEntity
  8
0
100
AcDbLine
 62
7
  6
CONTINUOUS
 10
141.1258069286
 20
43.6417457614
 11
141.8467672989
 21
42.3933266294
  0
LINE
  5
2BA
100
AcDbEntity
  8
0
100
AcDbLine
 62
7
  6
CONTINUOUS
 10
101.3332107988
 20
106.2334799484
 11
100.9998774705
 21
106.8717777446
  0
LINE
  5
2BB
100
AcDbEntity
  8
0
100
AcDbLine
 62
7
  6
CONTINUOUS
 10
101.8332107988
 20
107.0845438257
 11
101.6665441123
 21
107.5100756899
  0
LINE
  5
2BC
100
AcDbEntity
  8
0
100
AcDbLine
 62
7
  6
CONTINUOUS
 10
105.9998773065
 20
108.3611394182
 11
105.6665442911
 21
109.2122034446
  0
LINE
  5
2BD
100
AcDbEntity
  8
0
100
AcDbLine
 62
7
  6
CONTINUOUS
 10
103.0394607094
 20
122.9994375125
 11
102.9457107988
 21
123.3185864106
  0
LINE
  5
2BE
100
AcDbEntity
  8
0
100
AcDbLine
 62
7
  6
CONTINUOUS
 10
103.6019607094
 20
122.9994375125
 11
103.5082107988
 21
123.3185864106
  0
LINE
  5
2BF
100
AcDbEntity
  8
0
100
AcDbLine
 62
7
  6
CONTINUOUS
 10
106.8332107988
 20
108.3611394182
 11
106.6665442911
 21
109.2122034446
  0
LINE
  5
2C0
100
AcDbEntity
  8
0
100
AcDbLine
 62
7
  6
CONTINUOUS
 10
106.6665442911
 20
112.829224886
 11
106.4998773065
 21
113.6802886143
  0
LINE
  5
2C1
100
AcDbEntity
  8
0
100
AcDbLine
 62
7
  6
CONTINUOUS
 10
109.4144607988
 20
123.3185864106
 11
109.4144607988
 21
119.1696501389
  0
LINE
  5
2C2
100
AcDbEntity
  8
0
100
AcDbLine
 62
7
  6
CONTINUOUS
 10
109.4426118756
 20
165.9327705123
 11
109.4426118756
 21
168.778069974
  0
LINE
  5
2C3
100
AcDbEntity
  8
0
100
AcDbLine
 62
7
  6
CONTINUOUS
 10
109.6332107988
 20
145.9353355639
 11
109.6332107988
 21
152.9353355639
  0
LINE
  5
2C4
100
AcDbEntity
  8
0
100
AcDbLine
 62
7
  6
CONTINUOUS
 10
109.9769607988
 20
124.1696501389
 11
109.9769607988
 21
119.1696501389
  0
LINE
  5
2C5
100
AcDbEntity
  8
0
100
AcDbLine
 62
7
  6
CONTINUOUS
 10
110.3623773661
 20
140.9994375125
 11
110.3623773661
 21
140.6802883163
  0
LINE
  5
2C6
100
AcDbEntity
  8
0
100
AcDbLine
 62
7
  6
CONTINUOUS
 10
110.7269611564
 20
122.0419905201
 11
110.7269611564
 21
121.2973097578
  0
LINE
  5
2C7
100
AcDbEntity
  8
0
100
AcDbLine
 62
7
  6
CONTINUOUS
 10
110.9873773661
 20
140.9994375125
 11
110.9873773661
 21
140.5739053503
  0
LINE
  5
2C8
100
AcDbEntity
  8
0
100
AcDbLine
 62
7
  6
CONTINUOUS
 10
111.0656306503
 20
67.3353355639
 11
111.0656306503
 21
68.3153355639
  0
LINE
  5
2C9
100
AcDbEntity
  8
0
100
AcDbLine
 62
7
  6
CONTINUOUS
 10
111.1957104412
 20
122.0419905201
 11
111.1957104412
 21
121.829224588
  0
LINE
  5
2CA
100
AcDbEntity
  8
0
100
AcDbLine
 62
7
  6
CONTINUOUS
 10
111.2894611564
 20
120.9781607106
 11
111.2894611564
 21
120.6590118125
  0
LINE
  5
2CB
100
AcDbEntity
  8
0
100
AcDbLine
 62
7
  6
CONTINUOUS
 10
111.7520129523
 20
165.9327705123
 11
111.7520129523
 21
168.778069974
  0
LINE
  5
2CC
100
AcDbEntity
  8
0
100
AcDbLine
 62
7
  6
CONTINUOUS
 10
112.0156306503
 20
67.0555016722
 11
112.0156306503
 21
68.3153355639
  0
LINE
  5
2CD
100
AcDbEntity
  8
0
100
AcDbLine
 62
7
  6
CONTINUOUS
 10
113.1332107988
 20
164.7889254024
 11
113.1332107988
 21
164.1353355639
  0
LINE
  5
2CE
100
AcDbEntity
  8
0
100
AcDbLine
 62
7
  6
CONTINUOUS
 10
113.1665438143
 20
112.829224886
 11
113.1665438143
 21
112.4036924258
  0
LINE
  5
2CF
100
AcDbEntity
  8
0
100
AcDbLine
 62
7
  6
CONTINUOUS
 10
113.6332107988
 20
120.9781607106
 11
113.6332107988
 21
120.6590118125
  0
LINE
  5
2D0
100
AcDbEntity
  8
0
100
AcDbLine
 62
7
  6
CONTINUOUS
 10
113.6832107988
 20
62.6153355639
 11
113.6832107988
 21
72.1153355639
  0
LINE
  5
2D1
100
AcDbEntity
  8
0
100
AcDbLine
 62
7
  6
CONTINUOUS
 10
114.1019611564
 20
121.0845438257
 11
114.1019611564
 21
120.5526288465
  0
LINE
  5
2D2
100
AcDbEntity
  8
0
100
AcDbLine
 62
7
  6
CONTINUOUS
 10
114.1665438143
 20
112.829224886
 11
114.1665438143
 21
112.4036924258
  0
LINE
  5
2D3
100
AcDbEntity
  8
0
100
AcDbLine
 62
7
  6
CONTINUOUS
 10
114.1665438143
 20
106.2334799484
 11
114.1665438143
 21
105.1696501389
  0
LINE
  5
2D4
100
AcDbEntity
  8
0
100
AcDbLine
 62
7
  6
CONTINUOUS
 10
114.6332107988
 20
61.6653355639
 11
114.6332107988
 21
73.0653355639
  0
LINE
  5
2D5
100
AcDbEntity
  8
0
100
AcDbLine
 62
7
  6
CONTINUOUS
 10
115.636154524
 20
39.3353355639
 11
115.636154524
 21
94.2539115046
  0
LINE
  5
2D6
100
AcDbEntity
  8
0
100
AcDbLine
 62
7
  6
CONTINUOUS
 10
110.8207107988
 20
122.7866712824
 11
110.7269611564
 21
122.0419905201
  0
LINE
  5
2D7
100
AcDbEntity
  8
0
100
AcDbLine
 62
7
  6
CONTINUOUS
 10
111.2894611564
 20
122.6802883163
 11
111.1957104412
 21
122.0419905201
  0
LINE
  5
2D8
100
AcDbEntity
  8
0
100
AcDbLine
 62
7
  6
CONTINUOUS
 10
114.1665438143
 20
112.4036924258
 11
113.9998777834
 21
111.5526286975
  0
LINE
  5
2D9
100
AcDbEntity
  8
0
100
AcDbLine
 62
7
  6
CONTINUOUS
 10
106.8332107988
 20
107.5100756899
 11
106.6665442911
 21
106.8717777446
  0
LINE
  5
2DA
100
AcDbEntity
  8
0
100
AcDbLine
 62
7
  6
CONTINUOUS
 10
111.3832107988
 20
122.9994375125
 11
111.2894611564
 21
122.6802883163
  0
LINE
  5
2DB
100
AcDbEntity
  8
0
100
AcDbLine
 62
7
  6
CONTINUOUS
 10
111.3832107988
 20
121.2973097578
 11
111.2894611564
 21
120.9781607106
  0
LINE
  5
2DC
100
AcDbEntity
  8
0
100
AcDbLine
 62
7
  6
CONTINUOUS
 10
113.6332107988
 20
120.6590118125
 11
113.5394611564
 21
120.3398629144
  0
LINE
  5
2DD
100
AcDbEntity
  8
0
100
AcDbLine
 62
7
  6
CONTINUOUS
 10
111.0082111564
 20
123.3185864106
 11
110.8207107988
 21
122.7866712824
  0
LINE
  5
2DE
100
AcDbEntity
  8
0
100
AcDbLine
 62
7
  6
CONTINUOUS
 10
114.1019611564
 20
120.5526288465
 11
113.9144607988
 21
120.0207139418
  0
LINE
  5
2DF
100
AcDbEntity
  8
0
100
AcDbLine
 62
7
  6
CONTINUOUS
 10
105.9998773065
 20
107.5100756899
 11
105.8332107988
 21
107.0845438257
  0
LINE
  5
2E0
100
AcDbEntity
  8
0
100
AcDbLine
 62
7
  6
CONTINUOUS
 10
113.1665438143
 20
112.4036924258
 11
112.8332107988
 21
111.5526286975
  0
LINE
  5
2E1
100
AcDbEntity
  8
0
100
AcDbLine
 62
7
  6
CONTINUOUS
 10
106.4998773065
 20
111.5526286975
 11
106.1665442911
 21
110.9143309012
  0
LINE
  5
2E2
100
AcDbEntity
  8
0
100
AcDbLine
 62
7
  6
CONTINUOUS
 10
109.4998777834
 20
113.4675226823
 11
109.1665438143
 21
112.829224886
  0
LINE
  5
2E3
100
AcDbEntity
  8
0
100
AcDbLine
 62
7
  6
CONTINUOUS
 10
106.6665442911
 20
106.8717777446
 11
106.3332107988
 21
106.2334799484
  0
LINE
  5
2E4
100
AcDbEntity
  8
0
100
AcDbLine
 62
7
  6
CONTINUOUS
 10
111.5707111564
 20
123.3185864106
 11
111.3832107988
 21
122.9994375125
  0
LINE
  5
2E5
100
AcDbEntity
  8
0
100
AcDbLine
 62
7
  6
CONTINUOUS
 10
113.5394611564
 20
120.3398629144
 11
113.3519607988
 21
120.0207139418
  0
LINE
  5
2E6
100
AcDbEntity
  8
0
100
AcDbLine
 62
7
  6
CONTINUOUS
 10
111.2894611564
 20
123.7441182748
 11
111.0082111564
 21
123.3185864106
  0
LINE
  5
2E7
100
AcDbEntity
  8
0
100
AcDbLine
 62
7
  6
CONTINUOUS
 10
113.9144607988
 20
120.0207139418
 11
113.6332107988
 21
119.5951820403
  0
LINE
  5
2E8
100
AcDbEntity
  8
0
100
AcDbLine
 62
7
  6
CONTINUOUS
 10
109.4144607988
 20
124.1696501389
 11
108.8519607988
 21
123.4249693766
  0
LINE
  5
2E9
100
AcDbEntity
  8
0
100
AcDbLine
 62
7
  6
CONTINUOUS
 10
109.4144607988
 20
123.3185864106
 11
108.8519607988
 21
122.5739053503
  0
LINE
  5
2EA
100
AcDbEntity
  8
0
100
AcDbLine
 62
7
  6
CONTINUOUS
 10
101.8332107988
 20
114.5313523427
 11
101.1665441421
 21
113.6802886143
  0
LINE
  5
2EB
100
AcDbEntity
  8
0
100
AcDbLine
 62
7
  6
CONTINUOUS
 10
105.4998773065
 20
111.5526286975
 11
105.1665442911
 21
111.1270968333
  0
LINE
  5
2EC
100
AcDbEntity
  8
0
100
AcDbLine
 62
7
  6
CONTINUOUS
 10
111.5707111564
 20
121.5100756899
 11
111.3832107988
 21
121.2973097578
  0
LINE
  5
2ED
100
AcDbEntity
  8
0
100
AcDbLine
 62
7
  6
CONTINUOUS
 10
103.2269607988
 20
121.829224588
 11
102.8519608882
 21
121.5100756899
  0
LINE
  5
2EE
100
AcDbEntity
  8
0
100
AcDbLine
 62
7
  6
CONTINUOUS
 10
110.0498773661
 20
140.1483734861
 11
109.7373773661
 21
140.0419905201
  0
LINE
  5
2EF
100
AcDbEntity
  8
0
100
AcDbLine
 62
7
  6
CONTINUOUS
 10
108.4056306503
 20
68.8853355639
 11
107.4556306503
 21
68.8853355639
  0
LINE
  5
2F0
100
AcDbEntity
  8
0
100
AcDbLine
 62
7
  6
CONTINUOUS
 10
106.1256306503
 20
68.8853355639
 11
105.1756306503
 21
68.8853355639
  0
LINE
  5
2F1
100
AcDbEntity
  8
0
100
AcDbLine
 62
7
  6
CONTINUOUS
 10
103.8456306503
 20
68.8853355639
 11
102.7794207246
 21
68.8853355639
  0
LINE
  5
2F2
100
AcDbEntity
  8
0
100
AcDbLine
 62
7
  6
CONTINUOUS
 10
98.9794207246
 20
68.8853355639
 11
97.9132107988
 21
68.8853355639
  0
LINE
  5
2F3
100
AcDbEntity
  8
0
100
AcDbLine
 62
7
  6
CONTINUOUS
 10
106.1256306503
 20
69.8353355639
 11
105.1756306503
 21
69.8353355639
  0
LINE
  5
2F4
100
AcDbEntity
  8
0
100
AcDbLine
 62
7
  6
CONTINUOUS
 10
106.1256306503
 20
70.7853355639
 11
105.1756306503
 21
70.7853355639
  0
LINE
  5
2F5
100
AcDbEntity
  8
0
100
AcDbLine
 62
7
  6
CONTINUOUS
 10
113.6832107988
 20
72.1153355639
 11
96.5832107988
 21
72.1153355639
  0
LINE
  5
2F6
100
AcDbEntity
  8
0
100
AcDbLine
 62
7
  6
CONTINUOUS
 10
114.6332107988
 20
73.0653355639
 11
95.6332107988
 21
73.0653355639
  0
LINE
  5
2F7
100
AcDbEntity
  8
0
100
AcDbLine
 62
7
  6
CONTINUOUS
 10
101.8332107988
 20
105.8079480097
 11
101.3332107988
 21
106.2334799484
  0
LINE
  5
2F8
100
AcDbEntity
  8
0
100
AcDbLine
 62
7
  6
CONTINUOUS
 10
102.1665441719
 20
106.6590118125
 11
101.8332107988
 21
107.0845438257
  0
LINE
  5
2F9
100
AcDbEntity
  8
0
100
AcDbLine
 62
7
  6
CONTINUOUS
 10
143.1258076962
 20
43.6417457313
 11
143.8767479176
 21
42.3414126213
  0
LINE
  5
2FA
100
AcDbEntity
  8
0
100
AcDbLine
 62
7
  6
CONTINUOUS
 10
145.1258071622
 20
43.6417457053
 11
145.8767473742
 21
42.3414126102
  0
LINE
  5
2FB
100
AcDbEntity
  8
0
100
AcDbLine
 62
7
  6
CONTINUOUS
 10
147.1258071752
 20
43.6417457618
 11
147.8767474142
 21
42.3414126228
  0
LINE
  5
2FC
100
AcDbEntity
  8
0
100
AcDbLine
 62
7
  6
CONTINUOUS
 10
149.1258078035
 20
43.641745707
 11
149.4214369913
 21
43.1298365002
  0
LINE
  5
2FD
100
AcDbEntity
  8
0
100
AcDbLine
 62
7
  6
CONTINUOUS
 10
107.2582109776
 20
119.1696501389
 11
104.9144607988
 21
123.5313523427
  0
LINE
  5
2FE
100
AcDbEntity
  8
0
100
AcDbLine
 62
7
  6
CONTINUOUS
 10
106.6665442911
 20
109.2122034446
 11
106.3332107988
 21
109.8505012408
  0
LINE
  5
2FF
100
AcDbEntity
  8
0
100
AcDbLine
 62
7
  6
CONTINUOUS
 10
105.8332107988
 20
112.829224886
 11
105.4998773065
 21
113.4675226823
  0
LINE
  5
300
100
AcDbEntity
  8
0
100
AcDbLine
 62
7
  6
CONTINUOUS
 10
111.0082111564
 20
120.0207139418
 11
110.8207107988
 21
120.5526288465
  0
LINE
  5
301
100
AcDbEntity
  8
0
100
AcDbLine
 62
7
  6
CONTINUOUS
 10
111.3832107988
 20
120.3398629144
 11
111.2894611564
 21
120.6590118125
  0
LINE
  5
302
100
AcDbEntity
  8
0
100
AcDbLine
 62
7
  6
CONTINUOUS
 10
114.1665438143
 20
112.829224886
 11
113.9998777834
 21
113.6802886143
  0
LINE
  5
303
100
AcDbEntity
  8
0
100
AcDbLine
 62
7
  6
CONTINUOUS
 10
110.8207107988
 20
120.5526288465
 11
110.7269611564
 21
121.2973097578
  0
LINE
  5
304
100
AcDbEntity
  8
0
100
AcDbLine
 62
7
  6
CONTINUOUS
 10
116.4846826614
 20
94.5918087197
 11
116.4846826614
 21
38.9838637013
  0
LINE
  5
305
100
AcDbEntity
  8
0
100
AcDbLine
 62
7
  6
CONTINUOUS
 10
116.7817389362
 20
38.6868074265
 11
116.7817389362
 21
94.9878094118
  0
LINE
  5
306
100
AcDbEntity
  8
0
100
AcDbLine
 62
7
  6
CONTINUOUS
 10
117.6302670737
 20
95.9076653542
 11
117.6302670737
 21
38.3353355639
  0
LINE
  5
307
100
AcDbEntity
  8
0
100
AcDbLine
 62
7
  6
CONTINUOUS
 10
117.6332107988
 20
143.1696501389
 11
117.6332107988
 21
97.5353355639
  0
LINE
  5
308
100
AcDbEntity
  8
0
100
AcDbLine
 62
7
  6
CONTINUOUS
 10
118.1332107988
 20
150.6696501389
 11
118.1332107988
 21
144.0010209888
  0
LINE
  5
309
100
AcDbEntity
  8
0
100
AcDbLine
 62
7
  6
CONTINUOUS
 10
118.4332107988
 20
151.1353355639
 11
118.4332107988
 21
152.2545336286
  0
LINE
  5
30A
100
AcDbEntity
  8
0
100
AcDbLine
 62
7
  6
CONTINUOUS
 10
119.5577843183
 20
160.9353355639
 11
119.5577843183
 21
155.3442739798
  0
LINE
  5
30B
100
AcDbEntity
  8
0
100
AcDbLine
 62
7
  6
CONTINUOUS
 10
121.1064158796
 20
163.9184668282
 11
121.1064158796
 21
159.5991042256
  0
LINE
  5
30C
100
AcDbEntity
  8
0
100
AcDbLine
 62
7
  6
CONTINUOUS
 10
121.1332107988
 20
163.9274268778
 11
121.1332107988
 21
159.6727226611
  0
LINE
  5
30D
100
AcDbEntity
  8
0
100
AcDbLine
 62
7
  6
CONTINUOUS
 10
113.9998777834
 20
111.5526286975
 11
113.6665438143
 21
110.9143309012
  0
LINE
  5
30E
100
AcDbEntity
  8
0
100
AcDbLine
 62
7
  6
CONTINUOUS
 10
80.1332107988
 20
44.3353355639
 11
79.5558605296
 21
43.3353355639
  0
LINE
  5
30F
100
AcDbEntity
  8
0
100
AcDbLine
 62
7
  6
CONTINUOUS
 10
71.3896738559
 20
42.3414126219
 11
72.1406140574
 21
43.6417456993
  0
LINE
  5
310
100
AcDbEntity
  8
0
100
AcDbLine
 62
7
  6
CONTINUOUS
 10
73.3896744425
 20
42.341412617
 11
74.1406146437
 21
43.6417456942
  0
LINE
  5
311
100
AcDbEntity
  8
0
100
AcDbLine
 62
7
  6
CONTINUOUS
 10
75.389673653
 20
42.3414126171
 11
76.1406138542
 21
43.6417456943
  0
LINE
  5
312
100
AcDbEntity
  8
0
100
AcDbLine
 62
7
  6
CONTINUOUS
 10
77.3896742507
 20
42.3414126218
 11
78.1406144522
 21
43.6417456992
  0
LINE
  5
313
100
AcDbEntity
  8
0
100
AcDbLine
 62
7
  6
CONTINUOUS
 10
109.1665438143
 20
114.5313523427
 11
108.4998773065
 21
113.6802886143
  0
LINE
  5
314
100
AcDbEntity
  8
0
100
AcDbLine
 62
7
  6
CONTINUOUS
 10
105.8332107988
 20
107.0845438257
 11
105.4998773065
 21
106.6590118125
  0
LINE
  5
315
100
AcDbEntity
  8
0
100
AcDbLine
 62
7
  6
CONTINUOUS
 10
112.8332107988
 20
111.5526286975
 11
108.1665442911
 21
106.2334799484
  0
LINE
  5
316
100
AcDbEntity
  8
0
100
AcDbLine
 62
7
  6
CONTINUOUS
 10
92.9009777518
 20
94.6031025168
 11
89.3654438459
 21
91.0675686109
  0
LINE
  5
317
100
AcDbEntity
  8
0
100
AcDbLine
 62
7
  6
CONTINUOUS
 10
106.1665442911
 20
110.9143309012
 11
105.4998773065
 21
110.276033105
  0
LINE
  5
318
100
AcDbEntity
  8
0
100
AcDbLine
 62
7
  6
CONTINUOUS
 10
102.6665441719
 20
113.8930545464
 11
102.1665441719
 21
113.4675226823
  0
LINE
  5
319
100
AcDbEntity
  8
0
100
AcDbLine
 62
7
  6
CONTINUOUS
 10
109.9998777834
 20
113.8930545464
 11
109.4998777834
 21
113.4675226823
  0
LINE
  5
31A
100
AcDbEntity
  8
0
100
AcDbLine
 62
7
  6
CONTINUOUS
 10
111.8519611564
 20
123.5313523427
 11
111.5707111564
 21
123.3185864106
  0
LINE
  5
31B
100
AcDbEntity
  8
0
100
AcDbLine
 62
7
  6
CONTINUOUS
 10
111.7582104412
 20
122.2547564522
 11
111.1957104412
 21
121.829224588
  0
LINE
  5
31C
100
AcDbEntity
  8
0
100
AcDbLine
 62
7
  6
CONTINUOUS
 10
111.8519611564
 20
121.7228416219
 11
111.5707111564
 21
121.5100756899
  0
LINE
  5
31D
100
AcDbEntity
  8
0
100
AcDbLine
 62
7
  6
CONTINUOUS
 10
113.3519607988
 20
120.0207139418
 11
113.0707107988
 21
119.8079480097
  0
LINE
  5
31E
100
AcDbEntity
  8
0
100
AcDbLine
 62
7
  6
CONTINUOUS
 10
111.7582104412
 20
124.0632671729
 11
111.2894611564
 21
123.7441182748
  0
LINE
  5
31F
100
AcDbEntity
  8
0
100
AcDbLine
 62
7
  6
CONTINUOUS
 10
113.6332107988
 20
119.5951820403
 11
113.1644604412
 21
119.2760331143
  0
LINE
  5
320
100
AcDbEntity
  8
0
100
AcDbLine
 62
7
  6
CONTINUOUS
 10
102.4998774257
 20
114.9568842068
 11
101.8332107988
 21
114.5313523427
  0
LINE
  5
321
100
AcDbEntity
  8
GEOM
100
AcDbLine
 62
7
  6
CONTINUOUS
 10
134.0383123699
 20
77.276461247
 11
134.3847216418
 21
77.3488590203
  0
LINE
  5
322
100
AcDbEntity
  8
GEOM
100
AcDbLine
 62
7
  6
CONTINUOUS
 10
129.2590872071
 20
77.2764610608
 11
128.8727168766
 21
77.2399778009
  0
LINE
  5
323
100
AcDbEntity
  8
GEOM
100
AcDbLine
 62
7
  6
CONTINUOUS
 10
129.2590872071
 20
77.2764610608
 11
134.0383114803
 21
77.2764610608
  0
LINE
  5
324
100
AcDbEntity
  8
GEOM
100
AcDbLine
 62
7
  6
CONTINUOUS
 10
129.2590872071
 20
78.6906746232
 11
134.0383114803
 21
78.6906746232
  0
LINE
  5
325
100
AcDbEntity
  8
0
100
AcDbLine
 62
7
  6
CONTINUOUS
 10
102.4998774257
 20
105.3824160896
 11
101.8332107988
 21
105.8079480097
  0
LINE
  5
326
100
AcDbEntity
  8
0
100
AcDbLine
 62
7
  6
CONTINUOUS
 10
102.4998774257
 20
106.4462458804
 11
102.1665441719
 21
106.6590118125
  0
LINE
  5
327
100
AcDbEntity
  8
0
100
AcDbLine
 62
7
  6
CONTINUOUS
 10
105.6665442911
 20
109.2122034446
 11
105.1665442911
 21
109.6377353087
  0
LINE
  5
328
100
AcDbEntity
  8
0
100
AcDbLine
 62
7
  6
CONTINUOUS
 10
105.4998773065
 20
113.4675226823
 11
104.9998773065
 21
113.8930545464
  0
LINE
  5
329
100
AcDbEntity
  8
0
100
AcDbLine
 62
7
  6
CONTINUOUS
 10
126.1332107988
 20
96.1353355639
 11
125.9332107988
 21
96.3353355639
  0
LINE
  5
32A
100
AcDbEntity
  8
0
100
AcDbLine
 62
7
  6
CONTINUOUS
 10
102.9457107988
 20
123.3185864106
 11
102.7582107094
 21
123.5313523427
  0
LINE
  5
32B
100
AcDbEntity
  8
0
100
AcDbLine
 62
7
  6
CONTINUOUS
 10
106.4998773065
 20
113.6802886143
 11
105.8332107988
 21
114.5313523427
  0
LINE
  5
32C
100
AcDbEntity
  8
0
100
AcDbLine
 62
7
  6
CONTINUOUS
 10
113.9998777834
 20
113.6802886143
 11
113.3332107988
 21
114.5313523427
  0
LINE
  5
32D
100
AcDbEntity
  8
0
100
AcDbLine
 62
7
  6
CONTINUOUS
 10
103.5082107988
 20
123.3185864106
 11
103.2269607988
 21
123.7441182748
  0
LINE
  5
32E
100
AcDbEntity
  8
0
100
AcDbLine
 62
7
  6
CONTINUOUS
 10
111.2894611564
 20
119.5951820403
 11
111.0082111564
 21
120.0207139418
  0
LINE
  5
32F
100
AcDbEntity
  8
0
100
AcDbLine
 62
7
  6
CONTINUOUS
 10
111.5707111564
 20
120.0207139418
 11
111.3832107988
 21
120.3398629144
  0
LINE
  5
330
100
AcDbEntity
  8
0
100
AcDbLine
 62
7
  6
CONTINUOUS
 10
105.1957107988
 20
124.1696501389
 11
107.5394609776
 21
119.9143309757
  0
LINE
  5
331
100
AcDbEntity
  8
0
100
AcDbLine
 62
7
  6
CONTINUOUS
 10
113.1665438143
 20
112.829224886
 11
112.8332107988
 21
113.4675226823
  0
LINE
  5
332
100
AcDbEntity
  8
0
100
AcDbLine
 62
7
  6
CONTINUOUS
 10
98.2827946974
 20
156.084919462
 11
98.2857598332
 21
156.0784668727
  0
LINE
  5
333
100
AcDbEntity
  8
0
100
AcDbLine
 62
7
  6
CONTINUOUS
 10
111.0915442315
 20
137.1696501389
 11
110.1540442315
 21
139.6164586559
  0
LINE
  5
334
100
AcDbEntity
  8
0
100
AcDbLine
 62
7
  6
CONTINUOUS
 10
110.3623773661
 20
137.1696501389
 11
109.5290440825
 21
139.4036927238
  0
LINE
  5
335
100
AcDbEntity
  8
0
100
AcDbLine
 62
7
  6
CONTINUOUS
 10
114.1019611564
 20
121.0845438257
 11
113.9144607988
 21
121.6164586559
  0
LINE
  5
336
100
AcDbEntity
  8
0
100
AcDbLine
 62
7
  6
CONTINUOUS
 10
110.3623773661
 20
140.9994375125
 11
110.2582107988
 21
141.3185864106
  0
LINE
  5
337
100
AcDbEntity
  8
0
100
AcDbLine
 62
7
  6
CONTINUOUS
 10
110.9873773661
 20
140.9994375125
 11
110.8832107988
 21
141.3185864106
  0
LINE
  5
338
100
AcDbEntity
  8
0
100
AcDbLine
 62
7
  6
CONTINUOUS
 10
113.6332107988
 20
120.9781607106
 11
113.5394611564
 21
121.2973097578
  0
LINE
  5
339
100
AcDbEntity
  8
0
100
AcDbLine
 62
7
  6
CONTINUOUS
 10
113.9144607988
 20
122.9994375125
 11
113.8207111564
 21
123.3185864106
  0
LINE
  5
33A
100
AcDbEntity
  8
0
100
AcDbLine
 62
7
  6
CONTINUOUS
 10
102.2791088326
 20
164.1353355639
 11
102.3299292405
 21
163.9353355639
  0
LINE
  5
33B
100
AcDbEntity
  8
0
100
AcDbLine
 62
7
  6
CONTINUOUS
 10
125.9332107988
 20
38.3353355639
 11
125.9332107988
 21
96.3353355639
  0
LINE
  5
33C
100
AcDbEntity
  8
0
100
AcDbLine
 62
7
  6
CONTINUOUS
 10
126.1332107988
 20
38.3353355639
 11
126.1332107988
 21
96.3353355639
  0
LINE
  5
33D
100
AcDbEntity
  8
0
100
AcDbLine
 62
7
  6
CONTINUOUS
 10
127.8658838108
 20
96.3353355639
 11
127.8658838108
 21
38.3353355639
  0
LINE
  5
33E
100
AcDbEntity
  8
GEOM
100
AcDbLine
 62
7
  6
CONTINUOUS
 10
128.8318096371
 20
95.594154609
 11
128.8318096371
 21
93.5487719353
  0
LINE
  5
33F
100
AcDbEntity
  8
GEOM
100
AcDbLine
 62
7
  6
CONTINUOUS
 10
128.8318096371
 20
93.3348337296
 11
128.8318096371
 21
78.4072346311
  0
LINE
  5
340
100
AcDbEntity
  8
GEOM
100
AcDbLine
 62
7
  6
CONTINUOUS
 10
128.8318096371
 20
77.8907421133
 11
128.8318096371
 21
56.7799290145
  0
LINE
  5
341
100
AcDbEntity
  8
GEOM
100
AcDbLine
 62
7
  6
CONTINUOUS
 10
128.8318096371
 20
56.2634364967
 11
128.8318096371
 21
41.3358373981
  0
LINE
  5
342
100
AcDbEntity
  8
GEOM
100
AcDbLine
 62
7
  6
CONTINUOUS
 10
128.8318096371
 20
41.1218991924
 11
128.8318096371
 21
39.0765165188
  0
LINE
  5
343
100
AcDbEntity
  8
0
100
AcDbLine
 62
7
  6
CONTINUOUS
 10
99.9198317914
 20
64.9471201233
 11
100.4529367543
 21
65.993397524
  0
LINE
  5
344
100
AcDbEntity
  8
0
100
AcDbLine
 62
7
  6
CONTINUOUS
 10
100.313317549
 20
64.0453355639
 11
102.7794207246
 21
68.8853355639
  0
LINE
  5
345
100
AcDbEntity
  8
0
100
AcDbLine
 62
7
  6
CONTINUOUS
 10
101.3795274748
 20
64.0453355639
 11
103.8456306503
 21
68.8853355639
  0
LINE
  5
346
100
AcDbEntity
  8
0
100
AcDbLine
 62
7
  6
CONTINUOUS
 10
113.6665438143
 20
110.9143309012
 11
109.4998777834
 21
106.2334799484
  0
LINE
  5
347
100
AcDbEntity
  8
0
100
AcDbLine
 62
7
  6
CONTINUOUS
 10
106.3332107988
 20
106.2334799484
 11
105.8332107988
 21
105.8079480097
  0
LINE
  5
348
100
AcDbEntity
  8
0
100
AcDbLine
 62
7
  6
CONTINUOUS
 10
109.8332107988
 20
114.9568842068
 11
109.1665438143
 21
114.5313523427
  0
LINE
  5
349
100
AcDbEntity
  8
0
100
AcDbLine
 62
7
  6
CONTINUOUS
 10
105.4998773065
 20
106.6590118125
 11
105.1665442911
 21
106.4462458804
  0
LINE
  5
34A
100
AcDbEntity
  8
0
100
AcDbLine
 62
7
  6
CONTINUOUS
 10
102.7582107094
 20
122.1483734861
 11
102.4769607094
 21
122.0419905201
  0
LINE
  5
34B
100
AcDbEntity
  8
0
100
AcDbLine
 62
7
  6
CONTINUOUS
 10
112.1332111564
 20
123.6377353087
 11
111.8519611564
 21
123.5313523427
  0
LINE
  5
34C
100
AcDbEntity
  8
0
100
AcDbLine
 62
7
  6
CONTINUOUS
 10
112.1332111564
 20
121.829224588
 11
111.8519611564
 21
121.7228416219
  0
LINE
  5
34D
100
AcDbEntity
  8
0
100
AcDbLine
 62
7
  6
CONTINUOUS
 10
113.0707107988
 20
119.8079480097
 11
112.7894607988
 21
119.7015650436
  0
LINE
  5
34E
100
AcDbEntity
  8
0
100
AcDbLine
 62
7
  6
CONTINUOUS
 10
87.5976768929
 20
90.3353355639
 11
80.1332107988
 21
90.3353355639
  0
LINE
  5
34F
100
AcDbEntity
  8
0
100
AcDbLine
 62
7
  6
CONTINUOUS
 10
141.4752985759
 20
91.9212455553
 11
141.4707751759
 21
91.922899941
  0
LINE
  5
350
100
AcDbEntity
  8
0
100
AcDbLine
 62
7
  6
CONTINUOUS
 10
106.3332107988
 20
109.8505012408
 11
105.4998773065
 21
110.276033105
  0
LINE
  5
351
100
AcDbEntity
  8
0
100
AcDbLine
 62
7
  6
CONTINUOUS
 10
105.8332107988
 20
114.5313523427
 11
105.1665442911
 21
114.9568842068
  0
LINE
  5
352
100
AcDbEntity
  8
0
100
AcDbLine
 62
7
  6
CONTINUOUS
 10
112.8332107988
 20
113.4675226823
 11
112.3332107988
 21
113.8930545464
  0
LINE
  5
353
100
AcDbEntity
  8
0
100
AcDbLine
 62
7
  6
CONTINUOUS
 10
103.2269607988
 20
123.7441182748
 11
102.8519608882
 21
124.0632671729
  0
LINE
  5
354
100
AcDbEntity
  8
0
100
AcDbLine
 62
7
  6
CONTINUOUS
 10
113.5394611564
 20
121.2973097578
 11
113.3519607988
 21
121.5100756899
  0
LINE
  5
355
100
AcDbEntity
  8
0
100
AcDbLine
 62
7
  6
CONTINUOUS
 10
113.6332107988
 20
121.935607554
 11
113.9144607988
 21
121.6164586559
  0
LINE
  5
356
100
AcDbEntity
  8
0
100
AcDbLine
 62
7
  6
CONTINUOUS
 10
113.8207111564
 20
123.3185864106
 11
113.5394611564
 21
123.7441182748
  0
LINE
  5
357
100
AcDbEntity
  8
0
100
AcDbLine
 62
7
  6
CONTINUOUS
 10
113.4457104412
 20
122.9994375125
 11
113.2582111564
 21
123.3185864106
  0
LINE
  5
358
100
AcDbEntity
  8
0
100
AcDbLine
 62
7
  6
CONTINUOUS
 10
135.4600057181
 20
93.1353355639
 11
135.5796209603
 21
92.9281558869
  0
LINE
  5
359
100
AcDbEntity
  8
0
100
AcDbLine
 62
7
  6
CONTINUOUS
 10
101.1332107988
 20
164.1353355639
 11
101.2334354527
 21
163.9353355639
  0
LINE
  5
35A
100
AcDbEntity
  8
0
100
AcDbLine
 62
7
  6
CONTINUOUS
 10
101.426871701
 20
164.1353355639
 11
101.5062807894
 21
163.9353355639
  0
LINE
  5
35B
100
AcDbEntity
  8
0
100
AcDbLine
 62
7
  6
CONTINUOUS
 10
129.3576188408
 20
93.6318079458
 11
128.8318096371
 21
95.594154609
  0
LINE
  5
35C
100
AcDbEntity
  8
GEOM
100
AcDbLine
 62
7
  6
CONTINUOUS
 10
135.5796209603
 20
92.9281558869
 11
135.5796209603
 21
41.7425152408
  0
LINE
  5
35D
100
AcDbEntity
  8
GEOM
100
AcDbLine
 62
7
  6
CONTINUOUS
 10
135.6332107988
 20
92.7281558869
 11
135.6332107988
 21
41.9425152408
  0
LINE
  5
35E
100
AcDbEntity
  8
GEOM
100
AcDbLine
 62
7
  6
CONTINUOUS
 10
136.0332107988
 20
44.0853355639
 11
136.0332107988
 21
90.5853355639
  0
LINE
  5
35F
100
AcDbEntity
  8
0
100
AcDbLine
 62
7
  6
CONTINUOUS
 10
105.8332107988
 20
105.8079480097
 11
105.1665442911
 21
105.3824160896
  0
LINE
  5
360
100
AcDbEntity
  8
0
100
AcDbLine
 62
7
  6
CONTINUOUS
 10
105.1665442911
 20
111.1270968333
 11
104.1665440527
 21
110.7015649691
  0
LINE
  5
361
100
AcDbEntity
  8
0
100
AcDbLine
 62
7
  6
CONTINUOUS
 10
140.1332107988
 20
90.5853355639
 11
136.0332107988
 21
90.5853355639
  0
LINE
  5
362
100
AcDbEntity
  8
0
100
AcDbLine
 62
7
  6
CONTINUOUS
 10
148.1332110662
 20
91.0353355245
 11
147.9832110662
 21
91.0353355245
  0
LINE
  5
363
100
AcDbEntity
  8
0
100
AcDbLine
 62
7
  6
CONTINUOUS
 10
146.1332103464
 20
91.0353355032
 11
145.9832103464
 21
91.0353355032
  0
LINE
  5
364
100
AcDbEntity
  8
0
100
AcDbLine
 62
7
  6
CONTINUOUS
 10
144.1332112153
 20
91.0353355562
 11
143.9832112153
 21
91.0353355562
  0
LINE
  5
365
100
AcDbEntity
  8
0
100
AcDbLine
 62
7
  6
CONTINUOUS
 10
142.1332107424
 20
91.0353355066
 11
141.9832107424
 21
91.0353355066
  0
LINE
  5
366
100
AcDbEntity
  8
0
100
AcDbLine
 62
7
  6
CONTINUOUS
 10
79.2832111936
 20
91.0353355639
 11
79.1332111936
 21
91.0353355639
  0
LINE
  5
367
100
AcDbEntity
  8
0
100
AcDbLine
 62
7
  6
CONTINUOUS
 10
77.2832106014
 20
91.0353355639
 11
77.1332106014
 21
91.0353355639
  0
LINE
  5
368
100
AcDbEntity
  8
0
100
AcDbLine
 62
7
  6
CONTINUOUS
 10
73.2832109962
 20
91.0353355639
 11
73.1332109962
 21
91.0353355639
  0
LINE
  5
369
100
AcDbEntity
  8
0
100
AcDbLine
 62
7
  6
CONTINUOUS
 10
71.283210404
 20
91.0353355639
 11
71.133210404
 21
91.0353355639
  0
LINE
  5
36A
100
AcDbEntity
  8
0
100
AcDbLine
 62
7
  6
CONTINUOUS
 10
75.1332107988
 20
91.0353355639
 11
75.2832107988
 21
91.0353355639
  0
LINE
  5
36B
100
AcDbEntity
  8
0
100
AcDbLine
 62
7
  6
CONTINUOUS
 10
72.033765754
 20
92.3353355639
 11
72.3826556463
 21
92.3353355639
  0
LINE
  5
36C
100
AcDbEntity
  8
0
100
AcDbLine
 62
7
  6
CONTINUOUS
 10
74.0337663462
 20
92.3353355639
 11
74.3826554489
 21
92.3353355639
  0
LINE
  5
36D
100
AcDbEntity
  8
0
100
AcDbLine
 62
7
  6
CONTINUOUS
 10
76.0337661488
 20
92.3353355639
 11
76.3826552515
 21
92.3353355639
  0
LINE
  5
36E
100
AcDbEntity
  8
0
100
AcDbLine
 62
7
  6
CONTINUOUS
 10
78.0337659514
 20
92.3353355639
 11
78.3826558435
 21
92.3353355639
  0
LINE
  5
36F
100
AcDbEntity
  8
0
100
AcDbLine
 62
7
  6
CONTINUOUS
 10
142.8837661271
 20
92.3353355639
 11
143.2326558606
 21
92.3353355639
  0
LINE
  5
370
100
AcDbEntity
  8
0
100
AcDbLine
 62
7
  6
CONTINUOUS
 10
144.8837665698
 20
92.3353355639
 11
145.2326549596
 21
92.3353355639
  0
LINE
  5
371
100
AcDbEntity
  8
0
100
AcDbLine
 62
7
  6
CONTINUOUS
 10
146.8837657333
 20
92.3353355639
 11
147.2326556922
 21
92.3353355639
  0
LINE
  5
372
100
AcDbEntity
  8
GEOM
100
AcDbLine
 62
7
  6
CONTINUOUS
 10
129.2590872071
 20
92.7495491262
 11
134.0383114803
 21
92.7495491262
  0
LINE
  5
373
100
AcDbEntity
  8
GEOM
100
AcDbLine
 62
7
  6
CONTINUOUS
 10
129.2590872071
 20
93.3353355639
 11
135.1135955565
 21
93.3353355639
  0
LINE
  5
374
100
AcDbEntity
  8
0
100
AcDbLine
 62
7
  6
CONTINUOUS
 10
129.2590872071
 20
93.3353355639
 11
134.0383126906
 21
93.3353355639
  0
LINE
  5
375
100
AcDbEntity
  8
0
100
AcDbLine
 62
7
  6
CONTINUOUS
 10
95.4332107988
 20
95.3353355639
 11
94.6687447048
 21
95.3353355639
  0
LINE
  5
376
100
AcDbEntity
  8
0
100
AcDbLine
 62
7
  6
CONTINUOUS
 10
127.8658838108
 20
96.3353355639
 11
126.1332107988
 21
96.3353355639
  0
LINE
  5
377
100
AcDbEntity
  8
0
100
AcDbLine
 62
7
  6
CONTINUOUS
 10
125.9332107988
 20
96.3353355639
 11
118.8332107988
 21
96.3353355639
  0
LWPOLYLINE
  5
378
100
AcDbEntity
  8
GEOM
100
AcDbPolyline
 62
7
  6
CONTINUOUS
 90
11
 70
0
 10
129.7439799379
 20
93.335335564
 10
129.6896296502
 20
93.3390464741
 10
129.6362806386
 20
93.3501098222
 10
129.5849252957
 20
93.3683223713
 10
129.5365172553
 20
93.3933481313
 10
129.4919559763
 20
93.4247244426
 10
129.4520699704
 20
93.4618704288
 10
129.417601187
 20
93.5040978427
 10
129.3891912522
 20
93.5506237977
 10
129.3673695737
 20
93.6005851326
 10
129.3576188408
 20
93.6318079458
  0
LINE
  5
379
100
AcDbEntity
  8
0
100
AcDbLine
 62
7
  6
CONTINUOUS
 10
103.3332107988
 20
106.2334799484
 11
102.4998774257
 21
106.4462458804
  0
LINE
  5
37A
100
AcDbEntity
  8
0
100
AcDbLine
 62
7
  6
CONTINUOUS
 10
103.1665440527
 20
105.1696501389
 11
102.4998774257
 21
105.3824160896
  0
LINE
  5
37B
100
AcDbEntity
  8
0
100
AcDbLine
 62
7
  6
CONTINUOUS
 10
113.3332107988
 20
114.5313523427
 11
112.6665438143
 21
114.9568842068
  0
LINE
  5
37C
100
AcDbEntity
  8
0
100
AcDbLine
 62
7
  6
CONTINUOUS
 10
111.7582104412
 20
119.2760331143
 11
111.2894611564
 21
119.5951820403
  0
LINE
  5
37D
100
AcDbEntity
  8
0
100
AcDbLine
 62
7
  6
CONTINUOUS
 10
111.8519611564
 20
119.8079480097
 11
111.5707111564
 21
120.0207139418
  0
LINE
  5
37E
100
AcDbEntity
  8
0
100
AcDbLine
 62
7
  6
CONTINUOUS
 10
113.3519607988
 20
121.5100756899
 11
113.0707107988
 21
121.7228416219
  0
LINE
  5
37F
100
AcDbEntity
  8
0
100
AcDbLine
 62
7
  6
CONTINUOUS
 10
113.2582111564
 20
123.3185864106
 11
112.9769611564
 21
123.5313523427
  0
LINE
  5
380
100
AcDbEntity
  8
0
100
AcDbLine
 62
7
  6
CONTINUOUS
 10
143.2396744568
 20
92.3292585128
 11
143.2326558606
 21
92.3353355639
  0
LINE
  5
381
100
AcDbEntity
  8
0
100
AcDbLine
 62
7
  6
CONTINUOUS
 10
145.2396735601
 20
92.3292585091
 11
145.2326549596
 21
92.3353355639
  0
LINE
  5
382
100
AcDbEntity
  8
0
100
AcDbLine
 62
7
  6
CONTINUOUS
 10
147.2326556922
 20
92.3353355639
 11
147.2396742972
 21
92.3292585052
  0
LINE
  5
383
100
AcDbEntity
  8
0
100
AcDbLine
 62
7
  6
CONTINUOUS
 10
148.7920567102
 20
92.1764896525
 11
150.1332107988
 21
90.8353355639
  0
LINE
  5
384
100
AcDbEntity
  8
0
100
AcDbLine
 62
7
  6
CONTINUOUS
 10
110.8832107988
 20
141.3185864106
 11
110.5707107988
 21
141.7441182748
  0
LINE
  5
385
100
AcDbEntity
  8
0
100
AcDbLine
 62
7
  6
CONTINUOUS
 10
141.9906141998
 20
91.0289253698
 11
141.4752985759
 21
91.9212455553
  0
LINE
  5
386
100
AcDbEntity
  8
0
100
AcDbLine
 62
7
  6
CONTINUOUS
 10
143.9906146625
 20
91.0289254283
 11
143.2396744568
 21
92.3292585128
  0
LINE
  5
387
100
AcDbEntity
  8
0
100
AcDbLine
 62
7
  6
CONTINUOUS
 10
145.9906137984
 20
91.0289253711
 11
145.2396735601
 21
92.3292585091
  0
LINE
  5
388
100
AcDbEntity
  8
0
100
AcDbLine
 62
7
  6
CONTINUOUS
 10
140.1332107988
 20
90.5853355639
 11
140.1332107988
 21
44.0853355639
  0
LINE
  5
389
100
AcDbEntity
  8
0
100
AcDbLine
 62
7
  6
CONTINUOUS
 10
140.5832107414
 20
60.0116044454
 11
140.5832107456
 21
71.0428031844
  0
LINE
  5
38A
100
AcDbEntity
  8
0
100
AcDbLine
 62
7
  6
CONTINUOUS
 10
141.8832107988
 20
55.9467414583
 11
141.8832107988
 21
42.3353735611
  0
LINE
  5
38B
100
AcDbEntity
  8
0
100
AcDbLine
 62
7
  6
CONTINUOUS
 10
144.6332107988
 20
179.7353355639
 11
144.6332107988
 21
179.9353355639
  0
LINE
  5
38C
100
AcDbEntity
  8
0
100
AcDbLine
 62
7
  6
CONTINUOUS
 10
144.6332107988
 20
180.2720106058
 11
144.6332107988
 21
182.5986605219
  0
LINE
  5
38D
100
AcDbEntity
  8
0
100
AcDbLine
 62
7
  6
CONTINUOUS
 10
144.6332107988
 20
182.9353355639
 11
144.6332107988
 21
183.1353355639
  0
LINE
  5
38E
100
AcDbEntity
  8
0
100
AcDbLine
 62
7
  6
CONTINUOUS
 10
105.1665442911
 20
105.3824160896
 11
104.499877545
 21
105.1696501389
  0
LINE
  5
38F
100
AcDbEntity
  8
0
100
AcDbLine
 62
7
  6
CONTINUOUS
 10
105.1665442911
 20
109.6377353087
 11
104.1665440527
 21
109.8505012408
  0
LINE
  5
390
100
AcDbEntity
  8
0
100
AcDbLine
 62
7
  6
CONTINUOUS
 10
104.9998773065
 20
113.8930545464
 11
104.1665440527
 21
114.1058204785
  0
LINE
  5
391
100
AcDbEntity
  8
0
100
AcDbLine
 62
7
  6
CONTINUOUS
 10
112.3332107988
 20
113.8930545464
 11
111.4998777834
 21
114.1058204785
  0
LINE
  5
392
100
AcDbEntity
  8
0
100
AcDbLine
 62
7
  6
CONTINUOUS
 10
113.6332107988
 20
121.935607554
 11
113.1644604412
 21
122.2547564522
  0
LINE
  5
393
100
AcDbEntity
  8
0
100
AcDbLine
 62
7
  6
CONTINUOUS
 10
113.5394611564
 20
123.7441182748
 11
113.0707107988
 21
124.0632671729
  0
LINE
  5
394
100
AcDbEntity
  8
0
100
AcDbLine
 62
7
  6
CONTINUOUS
 10
95.8332107988
 20
151.1353355639
 11
96.0160535113
 21
150.9524928514
  0
LINE
  5
395
100
AcDbEntity
  8
0
100
AcDbLine
 62
7
  6
CONTINUOUS
 10
110.2582107988
 20
141.3185864106
 11
110.0498773661
 21
141.5313523427
  0
LINE
  5
396
100
AcDbEntity
  8
0
100
AcDbLine
 62
7
  6
CONTINUOUS
 10
98.1424792368
 20
154.8161314326
 11
98.1332107988
 21
154.8257894112
  0
LINE
  5
397
100
AcDbEntity
  8
0
100
AcDbLine
 62
7
  6
CONTINUOUS
 10
147.9906145226
 20
91.0289253886
 11
147.2396742972
 21
92.3292585052
  0
LINE
  5
398
100
AcDbEntity
  8
0
100
AcDbLine
 62
7
  6
CONTINUOUS
 10
145.9332107988
 20
178.4353355639
 11
145.9332107988
 21
184.4353355639
  0
LINE
  5
399
100
AcDbEntity
  8
0
100
AcDbLine
 62
7
  6
CONTINUOUS
 10
150.1332107988
 20
90.8353355639
 11
150.1332107988
 21
43.8353355639
  0
LINE
  5
39A
100
AcDbEntity
  8
0
100
AcDbLine
 62
7
  6
CONTINUOUS
 10
129.3576188408
 20
41.0388631819
 11
128.8318096371
 21
39.0765165188
  0
LWPOLYLINE
  5
39B
100
AcDbEntity
  8
GEOM
100
AcDbPolyline
 62
7
  6
CONTINUOUS
 90
11
 70
0
 10
129.3576188408
 20
41.0388631819
 10
129.3673695737
 20
41.0700859951
 10
129.3891912522
 20
41.1200473301
 10
129.417601187
 20
41.166573285
 10
129.4520699704
 20
41.208800699
 10
129.4919559763
 20
41.2459466851
 10
129.5365172553
 20
41.2773229965
 10
129.5849252957
 20
41.3023487564
 10
129.6362806386
 20
41.3205613055
 10
129.6896296502
 20
41.3316246536
 10
129.7439799379
 20
41.3353355638
  0
LINE
  5
39C
100
AcDbEntity
  8
0
100
AcDbLine
 62
7
  6
CONTINUOUS
 10
79.5558605296
 20
43.3353355639
 11
78.8588406767
 21
42.6383157109
  0
LINE
  5
39D
100
AcDbEntity
  8
0
100
AcDbLine
 62
7
  6
CONTINUOUS
 10
71.3826550647
 20
42.3353355639
 11
71.3896738559
 21
42.3414126219
  0
LINE
  5
39E
100
AcDbEntity
  8
0
100
AcDbLine
 62
7
  6
CONTINUOUS
 10
114.1665438143
 20
105.1696501389
 11
108.1665442911
 21
105.1696501389
  0
LINE
  5
39F
100
AcDbEntity
  8
0
100
AcDbLine
 62
7
  6
CONTINUOUS
 10
104.499877545
 20
105.1696501389
 11
103.1665440527
 21
105.1696501389
  0
LINE
  5
3A0
100
AcDbEntity
  8
0
100
AcDbLine
 62
7
  6
CONTINUOUS
 10
114.1665438143
 20
106.2334799484
 11
109.4998777834
 21
106.2334799484
  0
LINE
  5
3A1
100
AcDbEntity
  8
0
100
AcDbLine
 62
7
  6
CONTINUOUS
 10
104.3332107988
 20
106.2334799484
 11
103.3332107988
 21
106.2334799484
  0
LINE
  5
3A2
100
AcDbEntity
  8
0
100
AcDbLine
 62
7
  6
CONTINUOUS
 10
101.6665441123
 20
107.5100756899
 11
100.8332107988
 21
107.5100756899
  0
LINE
  5
3A3
100
AcDbEntity
  8
0
100
AcDbLine
 62
7
  6
CONTINUOUS
 10
104.1665440527
 20
109.8505012408
 11
103.499877545
 21
109.8505012408
  0
LINE
  5
3A4
100
AcDbEntity
  8
0
100
AcDbLine
 62
7
  6
CONTINUOUS
 10
104.1665440527
 20
110.7015649691
 11
103.499877545
 21
110.7015649691
  0
LINE
  5
3A5
100
AcDbEntity
  8
0
100
AcDbLine
 62
7
  6
CONTINUOUS
 10
105.1665442911
 20
114.9568842068
 11
103.999877545
 21
115.1696501389
  0
LINE
  5
3A6
100
AcDbEntity
  8
0
100
AcDbLine
 62
7
  6
CONTINUOUS
 10
112.6665438143
 20
114.9568842068
 11
111.6665438143
 21
115.1696501389
  0
LINE
  5
3A7
100
AcDbEntity
  8
0
100
AcDbLine
 62
7
  6
CONTINUOUS
 10
112.2269607988
 20
119.1696501389
 11
111.7582104412
 21
119.2760331143
  0
LINE
  5
3A8
100
AcDbEntity
  8
0
100
AcDbLine
 62
7
  6
CONTINUOUS
 10
112.1332111564
 20
119.7015650436
 11
111.8519611564
 21
119.8079480097
  0
LINE
  5
3A9
100
AcDbEntity
  8
0
100
AcDbLine
 62
7
  6
CONTINUOUS
 10
102.7582107094
 20
123.5313523427
 11
102.4769607094
 21
123.6377353087
  0
LINE
  5
3AA
100
AcDbEntity
  8
0
100
AcDbLine
 62
7
  6
CONTINUOUS
 10
113.0707107988
 20
121.7228416219
 11
112.7894607988
 21
121.829224588
  0
LINE
  5
3AB
100
AcDbEntity
  8
0
100
AcDbLine
 62
7
  6
CONTINUOUS
 10
112.9769611564
 20
123.5313523427
 11
112.6957111564
 21
123.6377353087
  0
LINE
  5
3AC
100
AcDbEntity
  8
0
100
AcDbLine
 62
7
  6
CONTINUOUS
 10
92.1332107988
 20
145.8353355639
 11
96.9351717716
 21
143.0629221036
  0
LINE
  5
3AD
100
AcDbEntity
  8
0
100
AcDbLine
 62
7
  6
CONTINUOUS
 10
110.5707107988
 20
141.7441182748
 11
110.1540442315
 21
142.0632671729
  0
LINE
  5
3AE
100
AcDbEntity
  8
0
100
AcDbLine
 62
7
  6
CONTINUOUS
 10
109.6332107988
 20
152.9353355639
 11
102.1730901097
 21
160.9353355639
  0
LINE
  5
3AF
100
AcDbEntity
  8
GEOM
100
AcDbLine
 62
7
  6
CONTINUOUS
 10
153.0555259522
 20
184.4353355639
 11
153.0555259522
 21
184.4853355639
  0
LINE
  5
3B0
100
AcDbEntity
  8
GEOM
100
AcDbLine
 62
7
  6
CONTINUOUS
 10
154.5555259522
 20
184.4353355639
 11
154.5555259522
 21
184.4853355639
  0
LINE
  5
3B1
100
AcDbEntity
  8
GEOM
100
AcDbLine
 62
7
  6
CONTINUOUS
 10
155.6893683755
 20
184.4353355639
 11
155.6893683755
 21
184.4853355639
  0
LINE
  5
3B2
100
AcDbEntity
  8
GEOM
100
AcDbLine
 62
7
  6
CONTINUOUS
 10
159.8693683755
 20
184.4353355639
 11
159.8693683755
 21
184.4853355639
  0
LINE
  5
3B3
100
AcDbEntity
  8
0
100
AcDbLine
 62
7
  6
CONTINUOUS
 10
142.8767475215
 20
92.3292585047
 11
142.1258072849
 21
91.0289253697
  0
LINE
  5
3B4
100
AcDbEntity
  8
0
100
AcDbLine
 62
7
  6
CONTINUOUS
 10
144.8767479738
 20
92.329258513
 11
144.1258077679
 21
91.0289254281
  0
LINE
  5
3B5
100
AcDbEntity
  8
0
100
AcDbLine
 62
7
  6
CONTINUOUS
 10
146.8767471326
 20
92.3292585089
 11
146.1258068944
 21
91.0289253712
  0
LINE
  5
3B6
100
AcDbEntity
  8
0
100
AcDbLine
 62
7
  6
CONTINUOUS
 10
148.7875794563
 20
92.1748521185
 11
148.1258076098
 21
91.0289253886
  0
LINE
  5
3B7
100
AcDbEntity
  8
0
100
AcDbLine
 62
7
  6
CONTINUOUS
 10
141.4707751759
 20
91.922899941
 11
140.1332107988
 21
90.5853355639
  0
LINE
  5
3B8
100
AcDbEntity
  8
0
100
AcDbLine
 62
7
  6
CONTINUOUS
 10
105.1665442911
 20
106.4462458804
 11
104.3332107988
 21
106.2334799484
  0
LINE
  5
3B9
100
AcDbEntity
  8
0
100
AcDbLine
 62
7
  6
CONTINUOUS
 10
109.1665438143
 20
112.829224886
 11
108.3332107988
 21
112.829224886
  0
LINE
  5
3BA
100
AcDbEntity
  8
0
100
AcDbLine
 62
7
  6
CONTINUOUS
 10
101.8332107988
 20
112.829224886
 11
100.9998774705
 21
112.829224886
  0
LINE
  5
3BB
100
AcDbEntity
  8
0
100
AcDbLine
 62
7
  6
CONTINUOUS
 10
111.4998777834
 20
114.1058204785
 11
110.8332107988
 21
114.1058204785
  0
LINE
  5
3BC
100
AcDbEntity
  8
0
100
AcDbLine
 62
7
  6
CONTINUOUS
 10
104.1665440527
 20
114.1058204785
 11
103.499877545
 21
114.1058204785
  0
LINE
  5
3BD
100
AcDbEntity
  8
0
100
AcDbLine
 62
7
  6
CONTINUOUS
 10
111.6665438143
 20
115.1696501389
 11
110.9998777834
 21
115.1696501389
  0
LINE
  5
3BE
100
AcDbEntity
  8
0
100
AcDbLine
 62
7
  6
CONTINUOUS
 10
103.999877545
 20
115.1696501389
 11
103.6665440527
 21
115.1696501389
  0
LINE
  5
3BF
100
AcDbEntity
  8
0
100
AcDbLine
 62
7
  6
CONTINUOUS
 10
112.6957111564
 20
119.1696501389
 11
112.2269607988
 21
119.1696501389
  0
LINE
  5
3C0
100
AcDbEntity
  8
0
100
AcDbLine
 62
7
  6
CONTINUOUS
 10
109.9769607988
 20
119.1696501389
 11
109.4144607988
 21
119.1696501389
  0
LINE
  5
3C1
100
AcDbEntity
  8
0
100
AcDbLine
 62
7
  6
CONTINUOUS
 10
108.1019609776
 20
119.1696501389
 11
107.2582109776
 21
119.1696501389
  0
LINE
  5
3C2
100
AcDbEntity
  8
0
100
AcDbLine
 62
7
  6
CONTINUOUS
 10
104.9144607988
 20
119.1696501389
 11
104.3519607988
 21
119.1696501389
  0
LINE
  5
3C3
100
AcDbEntity
  8
0
100
AcDbLine
 62
7
  6
CONTINUOUS
 10
100.6957107988
 20
119.1696501389
 11
100.1332107988
 21
119.1696501389
  0
LINE
  5
3C4
100
AcDbEntity
  8
0
100
AcDbLine
 62
7
  6
CONTINUOUS
 10
102.8519608882
 20
124.0632671729
 11
102.3832107988
 21
124.1696501389
  0
LINE
  5
3C5
100
AcDbEntity
  8
0
100
AcDbLine
 62
7
  6
CONTINUOUS
 10
112.6957111564
 20
122.3611394182
 11
113.1644604412
 21
122.2547564522
  0
LINE
  5
3C6
100
AcDbEntity
  8
0
100
AcDbLine
 62
7
  6
CONTINUOUS
 10
113.0707107988
 20
124.0632671729
 11
112.6019604412
 21
124.1696501389
  0
LINE
  5
3C7
100
AcDbEntity
  8
0
100
AcDbLine
 62
7
  6
CONTINUOUS
 10
112.8395498966
 20
164.1353355639
 11
113.0311890162
 21
163.9353355639
  0
LINE
  5
3C8
100
AcDbEntity
  8
GEOM
100
AcDbLine
 62
7
  6
CONTINUOUS
 10
161.0032107988
 20
184.4353355639
 11
161.0032107988
 21
184.4853355639
  0
LINE
  5
3C9
100
AcDbEntity
  8
GEOM
100
AcDbLine
 62
7
  6
CONTINUOUS
 10
162.5032107988
 20
184.4353355639
 11
162.5032107988
 21
184.4853355639
  0
LINE
  5
3CA
100
AcDbEntity
  8
GEOM
100
AcDbLine
 62
7
  6
CONTINUOUS
 10
162.9120322531
 20
184.4353355639
 11
162.9120322531
 21
184.4853355639
  0
LINE
  5
3CB
100
AcDbEntity
  8
GEOM
100
AcDbLine
 62
7
  6
CONTINUOUS
 10
163.4932107988
 20
184.4353355639
 11
163.4932107988
 21
184.4853355639
  0
LINE
  5
3CC
100
AcDbEntity
  8
GEOM
100
AcDbLine
 62
7
  6
CONTINUOUS
 10
163.6626530437
 20
184.4853355639
 11
163.6626530437
 21
184.4353355639
  0
LINE
  5
3CD
100
AcDbEntity
  8
GEOM
100
AcDbLine
 62
7
  6
CONTINUOUS
 10
164.6832107988
 20
184.4353355639
 11
164.6832107988
 21
184.4853355639
  0
LINE
  5
3CE
100
AcDbEntity
  8
GEOM
100
AcDbLine
 62
7
  6
CONTINUOUS
 10
165.3032107988
 20
184.4353355639
 11
165.3032107988
 21
184.4853355639
  0
LINE
  5
3CF
100
AcDbEntity
  8
GEOM
100
AcDbLine
 62
7
  6
CONTINUOUS
 10
166.0232107988
 20
184.4353355639
 11
166.0232107988
 21
184.4853355639
  0
LINE
  5
3D0
100
AcDbEntity
  8
GEOM
100
AcDbLine
 62
7
  6
CONTINUOUS
 10
166.8232107988
 20
184.4353355639
 11
166.8232107988
 21
184.4853355639
  0
LINE
  5
3D1
100
AcDbEntity
  8
GEOM
100
AcDbLine
 62
7
  6
CONTINUOUS
 10
167.4132107988
 20
184.4353355639
 11
167.4132107988
 21
184.4853355639
  0
LINE
  5
3D2
100
AcDbEntity
  8
0
100
AcDbLine
 62
7
  6
CONTINUOUS
 10
79.7290656104
 20
60.3057912189
 11
79.5558605296
 21
60.2168096449
  0
LINE
  5
3D3
100
AcDbEntity
  8
0
100
AcDbLine
 62
7
  6
CONTINUOUS
 10
110.8332107988
 20
114.1058204785
 11
109.9998777834
 21
113.8930545464
  0
LINE
  5
3D4
100
AcDbEntity
  8
0
100
AcDbLine
 62
7
  6
CONTINUOUS
 10
103.499877545
 20
114.1058204785
 11
102.6665441719
 21
113.8930545464
  0
LINE
  5
3D5
100
AcDbEntity
  8
0
100
AcDbLine
 62
7
  6
CONTINUOUS
 10
110.9998777834
 20
115.1696501389
 11
109.8332107988
 21
114.9568842068
  0
LINE
  5
3D6
100
AcDbEntity
  8
0
100
AcDbLine
 62
7
  6
CONTINUOUS
 10
103.6665440527
 20
115.1696501389
 11
102.4998774257
 21
114.9568842068
  0
LINE
  5
3D7
100
AcDbEntity
  8
0
100
AcDbLine
 62
7
  6
CONTINUOUS
 10
112.7894607988
 20
119.7015650436
 11
112.1332111564
 21
119.7015650436
  0
LINE
  5
3D8
100
AcDbEntity
  8
0
100
AcDbLine
 62
7
  6
CONTINUOUS
 10
102.3832107988
 20
121.4036927238
 11
100.6957107988
 21
121.4036927238
  0
LINE
  5
3D9
100
AcDbEntity
  8
0
100
AcDbLine
 62
7
  6
CONTINUOUS
 10
112.7894607988
 20
121.829224588
 11
112.1332111564
 21
121.829224588
  0
LINE
  5
3DA
100
AcDbEntity
  8
0
100
AcDbLine
 62
7
  6
CONTINUOUS
 10
102.4769607094
 20
122.0419905201
 11
100.6957107988
 21
122.0419905201
  0
LINE
  5
3DB
100
AcDbEntity
  8
0
100
AcDbLine
 62
7
  6
CONTINUOUS
 10
112.6957111564
 20
122.3611394182
 11
112.2269607988
 21
122.3611394182
  0
LINE
  5
3DC
100
AcDbEntity
  8
0
100
AcDbLine
 62
7
  6
CONTINUOUS
 10
113.9144607988
 20
122.9994375125
 11
113.4457104412
 21
122.9994375125
  0
LINE
  5
3DD
100
AcDbEntity
  8
0
100
AcDbLine
 62
7
  6
CONTINUOUS
 10
112.6957111564
 20
123.6377353087
 11
112.1332111564
 21
123.6377353087
  0
LINE
  5
3DE
100
AcDbEntity
  8
0
100
AcDbLine
 62
7
  6
CONTINUOUS
 10
102.4769607094
 20
123.6377353087
 11
100.6957107988
 21
123.6377353087
  0
LINE
  5
3DF
100
AcDbEntity
  8
0
100
AcDbLine
 62
7
  6
CONTINUOUS
 10
112.6019604412
 20
124.1696501389
 11
112.2269607988
 21
124.1696501389
  0
LINE
  5
3E0
100
AcDbEntity
  8
0
100
AcDbLine
 62
7
  6
CONTINUOUS
 10
109.9769607988
 20
124.1696501389
 11
109.4144607988
 21
124.1696501389
  0
LINE
  5
3E1
100
AcDbEntity
  8
0
100
AcDbLine
 62
7
  6
CONTINUOUS
 10
108.1019609776
 20
124.1696501389
 11
107.5394609776
 21
124.1696501389
  0
LINE
  5
3E2
100
AcDbEntity
  8
0
100
AcDbLine
 62
7
  6
CONTINUOUS
 10
105.1957107988
 20
124.1696501389
 11
104.3519607988
 21
124.1696501389
  0
LINE
  5
3E3
100
AcDbEntity
  8
0
100
AcDbLine
 62
7
  6
CONTINUOUS
 10
102.3832107988
 20
124.1696501389
 11
100.1332107988
 21
124.1696501389
  0
LINE
  5
3E4
100
AcDbEntity
  8
0
100
AcDbLine
 62
7
  6
CONTINUOUS
 10
110.0498773661
 20
141.5313523427
 11
109.7373773661
 21
141.6377353087
  0
LINE
  5
3E5
100
AcDbEntity
  8
0
100
AcDbLine
 62
7
  6
CONTINUOUS
 10
98.1424792368
 20
154.8161314326
 11
98.9310392858
 21
154.4051692665
  0
LINE
  5
3E6
100
AcDbEntity
  8
0
100
AcDbLine
 62
7
  6
CONTINUOUS
 10
98.3080964795
 20
156.066826742
 11
98.9310392865
 21
155.7421699983
  0
LINE
  5
3E7
100
AcDbEntity
  8
0
100
AcDbLine
 62
7
  6
CONTINUOUS
 10
98.2857598332
 20
156.0784668727
 11
98.3080964795
 21
156.066826742
  0
LINE
  5
3E8
100
AcDbEntity
  8
GEOM
100
AcDbLine
 62
7
  6
CONTINUOUS
 10
168.2132107988
 20
184.4353355639
 11
168.2132107988
 21
184.4853355639
  0
LINE
  5
3E9
100
AcDbEntity
  8
GEOM
100
AcDbLine
 62
7
  6
CONTINUOUS
 10
169.3032107988
 20
184.4353355639
 11
169.3032107988
 21
184.4853355639
  0
LINE
  5
3EA
100
AcDbEntity
  8
GEOM
100
AcDbLine
 62
7
  6
CONTINUOUS
 10
169.3532107988
 20
184.4353355639
 11
169.3532107988
 21
184.4853355639
  0
LINE
  5
3EB
100
AcDbEntity
  8
GEOM
100
AcDbLine
 62
7
  6
CONTINUOUS
 10
169.47222675
 20
184.4353355639
 11
169.47222675
 21
184.4853355639
  0
LINE
  5
3EC
100
AcDbEntity
  8
GEOM
100
AcDbLine
 62
7
  6
CONTINUOUS
 10
170.2632107988
 20
184.4353355639
 11
170.2632107988
 21
184.4853355639
  0
LINE
  5
3ED
100
AcDbEntity
  8
0
100
AcDbLine
 62
7
  6
CONTINUOUS
 10
135.4600057181
 20
41.5353355639
 11
135.5796209603
 21
41.7425152408
  0
LINE
  5
3EE
100
AcDbEntity
  8
0
100
AcDbLine
 62
7
  6
CONTINUOUS
 10
113.1644604412
 20
119.2760331143
 11
112.6957111564
 21
119.1696501389
  0
LINE
  5
3EF
100
AcDbEntity
  8
0
100
AcDbLine
 62
7
  6
CONTINUOUS
 10
112.2269607988
 20
122.3611394182
 11
111.7582104412
 21
122.2547564522
  0
LINE
  5
3F0
100
AcDbEntity
  8
0
100
AcDbLine
 62
7
  6
CONTINUOUS
 10
102.8519608882
 20
121.5100756899
 11
102.3832107988
 21
121.4036927238
  0
LINE
  5
3F1
100
AcDbEntity
  8
0
100
AcDbLine
 62
7
  6
CONTINUOUS
 10
112.2269607988
 20
124.1696501389
 11
111.7582104412
 21
124.0632671729
  0
LINE
  5
3F2
100
AcDbEntity
  8
0
100
AcDbLine
 62
7
  6
CONTINUOUS
 10
110.1540442315
 20
142.0632671729
 11
109.6332107988
 21
142.1696501389
  0
LINE
  5
3F3
100
AcDbEntity
  8
0
100
AcDbLine
 62
7
  6
CONTINUOUS
 10
101.1332107988
 20
164.1353355639
 11
101.4761743631
 21
163.9353355639
  0
LINE
  5
3F4
100
AcDbEntity
  8
GEOM
100
AcDbLine
 62
7
  6
CONTINUOUS
 10
175.0632107988
 20
184.4353355639
 11
175.0632107988
 21
184.4853355639
  0
LINE
  5
3F5
100
AcDbEntity
  8
GEOM
100
AcDbLine
 62
7
  6
CONTINUOUS
 10
175.2132107988
 20
184.4353355639
 11
175.2132107988
 21
184.4853355639
  0
LINE
  5
3F6
100
AcDbEntity
  8
GEOM
100
AcDbLine
 62
7
  6
CONTINUOUS
 10
175.3632107988
 20
184.4353355639
 11
175.3632107988
 21
184.4853355639
  0
LINE
  5
3F7
100
AcDbEntity
  8
GEOM
100
AcDbLine
 62
7
  6
CONTINUOUS
 10
176.6532107988
 20
184.4353355639
 11
176.6532107988
 21
184.4853355639
  0
LINE
  5
3F8
100
AcDbEntity
  8
GEOM
100
AcDbLine
 62
7
  6
CONTINUOUS
 10
176.7132107988
 20
184.4353355639
 11
176.7132107988
 21
184.4853355639
  0
LINE
  5
3F9
100
AcDbEntity
  8
GEOM
100
AcDbLine
 62
7
  6
CONTINUOUS
 10
176.7532107988
 20
184.4353355639
 11
176.7532107988
 21
184.4853355639
  0
LINE
  5
3FA
100
AcDbEntity
  8
GEOM
100
AcDbLine
 62
7
  6
CONTINUOUS
 10
177.1232107988
 20
184.4353355639
 11
177.1232107988
 21
184.4853355639
  0
LINE
  5
3FB
100
AcDbEntity
  8
GEOM
100
AcDbLine
 62
7
  6
CONTINUOUS
 10
177.3477881227
 20
184.4353355639
 11
177.3477881227
 21
184.4853355639
  0
LINE
  5
3FC
100
AcDbEntity
  8
GEOM
100
AcDbLine
 62
7
  6
CONTINUOUS
 10
178.2377881227
 20
184.4353355639
 11
178.2377881227
 21
184.4853355639
  0
LINE
  5
3FD
100
AcDbEntity
  8
GEOM
100
AcDbLine
 62
7
  6
CONTINUOUS
 10
178.4728542972
 20
184.4353355639
 11
178.4728542972
 21
184.4853355639
  0
LINE
  5
3FE
100
AcDbEntity
  8
GEOM
100
AcDbLine
 62
7
  6
CONTINUOUS
 10
178.8728542972
 20
184.4353355639
 11
178.8728542972
 21
184.4853355639
  0
LINE
  5
3FF
100
AcDbEntity
  8
GEOM
100
AcDbLine
 62
7
  6
CONTINUOUS
 10
179.0797866845
 20
184.4853355639
 11
179.0797866845
 21
184.4353355639
  0
LINE
  5
400
100
AcDbEntity
  8
GEOM
100
AcDbLine
 62
7
  6
CONTINUOUS
 10
180.1932107988
 20
184.4353355639
 11
180.1932107988
 21
184.4853355639
  0
LINE
  5
401
100
AcDbEntity
  8
GEOM
100
AcDbLine
 62
7
  6
CONTINUOUS
 10
180.9532107988
 20
184.4353355639
 11
180.9532107988
 21
184.4853355639
  0
LINE
  5
402
100
AcDbEntity
  8
GEOM
100
AcDbLine
 62
7
  6
CONTINUOUS
 10
180.9601716456
 20
184.4853355639
 11
180.9601716456
 21
184.4353355639
  0
LINE
  5
403
100
AcDbEntity
  8
GEOM
100
AcDbLine
 62
7
  6
CONTINUOUS
 10
181.5732107988
 20
184.4353355639
 11
181.5732107988
 21
184.4853355639
  0
LINE
  5
404
100
AcDbEntity
  8
0
100
AcDbLine
 62
7
  6
CONTINUOUS
 10
140.8414433796
 20
43.3834440808
 11
140.9906138363
 21
43.6417457615
  0
LINE
  5
405
100
AcDbEntity
  8
0
100
AcDbLine
 62
7
  6
CONTINUOUS
 10
142.2396743857
 20
42.3414126216
 11
142.9906146068
 21
43.6417457313
  0
LINE
  5
406
100
AcDbEntity
  8
0
100
AcDbLine
 62
7
  6
CONTINUOUS
 10
144.2396738318
 20
42.3414126094
 11
144.9906140443
 21
43.6417457055
  0
LINE
  5
407
100
AcDbEntity
  8
0
100
AcDbLine
 62
7
  6
CONTINUOUS
 10
146.2396738506
 20
42.3414126231
 11
146.9906140895
 21
43.6417457618
  0
LINE
  5
408
100
AcDbEntity
  8
0
100
AcDbLine
 62
7
  6
CONTINUOUS
 10
111.0915442315
 20
137.1696501389
 11
110.3623773661
 21
137.1696501389
  0
LINE
  5
409
100
AcDbEntity
  8
0
100
AcDbLine
 62
7
  6
CONTINUOUS
 10
107.7582107988
 20
137.1696501389
 11
107.1332107988
 21
137.1696501389
  0
LINE
  5
40A
100
AcDbEntity
  8
0
100
AcDbLine
 62
7
  6
CONTINUOUS
 10
106.9732107988
 20
137.1696501389
 11
104.5332107988
 21
137.1696501389
  0
LINE
  5
40B
100
AcDbEntity
  8
0
100
AcDbLine
 62
7
  6
CONTINUOUS
 10
106.9732107988
 20
137.6696501389
 11
104.5332107988
 21
137.6696501389
  0
LINE
  5
40C
100
AcDbEntity
  8
0
100
AcDbLine
 62
7
  6
CONTINUOUS
 10
109.5290440825
 20
139.4036927238
 11
107.7582107988
 21
139.4036927238
  0
LINE
  5
40D
100
AcDbEntity
  8
0
100
AcDbLine
 62
7
  6
CONTINUOUS
 10
109.7373773661
 20
140.0419905201
 11
107.7582107988
 21
140.0419905201
  0
LINE
  5
40E
100
AcDbEntity
  8
0
100
AcDbLine
 62
7
  6
CONTINUOUS
 10
111.7520129523
 20
165.9327705123
 11
112.8332107988
 21
165.3085406446
  0
LINE
  5
40F
100
AcDbEntity
  8
0
100
AcDbLine
 62
7
  6
CONTINUOUS
 10
111.7520129523
 20
168.778069974
 11
111.1332107988
 21
169.1353355639
  0
LINE
  5
410
100
AcDbEntity
  8
GEOM
100
AcDbLine
 62
7
  6
CONTINUOUS
 10
182.3532107988
 20
184.4353355639
 11
182.3532107988
 21
184.4853355639
  0
LINE
  5
411
100
AcDbEntity
  8
GEOM
100
AcDbLine
 62
7
  6
CONTINUOUS
 10
182.7632107988
 20
184.4353355639
 11
182.7632107988
 21
184.4853355639
  0
LINE
  5
412
100
AcDbEntity
  8
GEOM
100
AcDbLine
 62
7
  6
CONTINUOUS
 10
183.280626836
 20
184.4353355639
 11
183.280626836
 21
184.4853355639
  0
LINE
  5
413
100
AcDbEntity
  8
GEOM
100
AcDbLine
 62
7
  6
CONTINUOUS
 10
183.8032107988
 20
184.4353355639
 11
183.8032107988
 21
184.4853355639
  0
LINE
  5
414
100
AcDbEntity
  8
GEOM
100
AcDbLine
 62
7
  6
CONTINUOUS
 10
185.0932107988
 20
184.4353355639
 11
185.0932107988
 21
184.4853355639
  0
LINE
  5
415
100
AcDbEntity
  8
GEOM
100
AcDbLine
 62
7
  6
CONTINUOUS
 10
185.1532107988
 20
184.4353355639
 11
185.1532107988
 21
184.4853355639
  0
LINE
  5
416
100
AcDbEntity
  8
GEOM
100
AcDbLine
 62
7
  6
CONTINUOUS
 10
185.6132107988
 20
184.4353355639
 11
185.6132107988
 21
184.4853355639
  0
LINE
  5
417
100
AcDbEntity
  8
GEOM
100
AcDbLine
 62
7
  6
CONTINUOUS
 10
185.9832107988
 20
184.4353355639
 11
185.9832107988
 21
184.4853355639
  0
LINE
  5
418
100
AcDbEntity
  8
GEOM
100
AcDbLine
 62
7
  6
CONTINUOUS
 10
186.8032107988
 20
184.4353355639
 11
186.8032107988
 21
184.4853355639
  0
LINE
  5
419
100
AcDbEntity
  8
0
100
AcDbLine
 62
7
  6
CONTINUOUS
 10
148.2396744942
 20
42.3414126171
 11
148.9906147031
 21
43.6417457069
  0
LINE
  5
41A
100
AcDbEntity
  8
0
100
AcDbLine
 62
7
  6
CONTINUOUS
 10
144.7332107988
 20
50.5769048498
 11
143.9826554489
 21
49.6576660342
  0
LINE
  5
41B
100
AcDbEntity
  8
0
100
AcDbLine
 62
7
  6
CONTINUOUS
 10
126.1332107988
 20
38.5353355639
 11
125.9332107988
 21
38.3353355639
  0
LINE
  5
41C
100
AcDbEntity
  8
0
100
AcDbLine
 62
7
  6
CONTINUOUS
 10
109.7373773661
 20
141.6377353087
 11
107.7582107988
 21
141.6377353087
  0
LINE
  5
41D
100
AcDbEntity
  8
0
100
AcDbLine
 62
7
  6
CONTINUOUS
 10
106.9532107988
 20
141.6696501389
 11
104.5332107988
 21
141.6696501389
  0
LINE
  5
41E
100
AcDbEntity
  8
0
100
AcDbLine
 62
7
  6
CONTINUOUS
 10
109.6332107988
 20
142.1696501389
 11
107.1332107988
 21
142.1696501389
  0
LINE
  5
41F
100
AcDbEntity
  8
0
100
AcDbLine
 62
7
  6
CONTINUOUS
 10
106.9532107988
 20
142.1696501389
 11
104.5332107988
 21
142.1696501389
  0
LINE
  5
420
100
AcDbEntity
  8
0
100
AcDbLine
 62
7
  6
CONTINUOUS
 10
117.6332107988
 20
143.1696501389
 11
96.9351717716
 21
143.1696501389
  0
LINE
  5
421
100
AcDbEntity
  8
0
100
AcDbLine
 62
7
  6
CONTINUOUS
 10
96.7503133918
 20
143.1696501389
 11
96.6332107988
 21
143.1696501389
  0
LINE
  5
422
100
AcDbEntity
  8
0
100
AcDbLine
 62
7
  6
CONTINUOUS
 10
96.8145854607
 20
143.4524928514
 11
117.7503680863
 21
143.4524928514
  0
LINE
  5
423
100
AcDbEntity
  8
0
100
AcDbLine
 62
7
  6
CONTINUOUS
 10
118.0160535113
 20
143.7181782764
 11
96.5414089925
 21
143.7181782764
  0
LINE
  5
424
100
AcDbEntity
  8
0
100
AcDbLine
 62
7
  6
CONTINUOUS
 10
96.421068156
 20
144.0010209888
 11
118.1332107988
 21
144.0010209888
  0
LINE
  5
425
100
AcDbEntity
  8
0
100
AcDbLine
 62
7
  6
CONTINUOUS
 10
109.6332107988
 20
145.9353355639
 11
116.1332107988
 21
145.9353355639
  0
LINE
  5
426
100
AcDbEntity
  8
0
100
AcDbLine
 62
7
  6
CONTINUOUS
 10
96.421068156
 20
150.3353355639
 11
92.1332107988
 21
150.3353355639
  0
LINE
  5
427
100
AcDbEntity
  8
0
100
AcDbLine
 62
7
  6
CONTINUOUS
 10
118.1332107988
 20
150.6696501389
 11
117.8563603838
 21
150.6696501389
  0
LINE
  5
428
100
AcDbEntity
  8
0
100
AcDbLine
 62
7
  6
CONTINUOUS
 10
109.6332107988
 20
150.6696501389
 11
96.1332107988
 21
150.6696501389
  0
LINE
  5
429
100
AcDbEntity
  8
0
100
AcDbLine
 62
7
  6
CONTINUOUS
 10
118.2503680863
 20
150.9524928514
 11
117.9593069394
 21
150.9524934759
  0
LINE
  5
42A
100
AcDbEntity
  8
0
100
AcDbLine
 62
7
  6
CONTINUOUS
 10
109.6332107988
 20
150.9524928419
 11
96.0160535113
 21
150.9524928514
  0
LINE
  5
42B
100
AcDbEntity
  8
0
100
AcDbLine
 62
7
  6
CONTINUOUS
 10
95.8332107988
 20
151.1353355639
 11
109.6332107988
 21
151.1353355639
  0
LINE
  5
42C
100
AcDbEntity
  8
0
100
AcDbLine
 62
7
  6
CONTINUOUS
 10
118.025856017
 20
151.1353355639
 11
118.4332107988
 21
151.1353355639
  0
LINE
  5
42D
100
AcDbEntity
  8
0
100
AcDbLine
 62
7
  6
CONTINUOUS
 10
92.1332107988
 20
152.9353355639
 11
95.1332107988
 21
152.9353355639
  0
LINE
  5
42E
100
AcDbEntity
  8
0
100
AcDbLine
 62
7
  6
CONTINUOUS
 10
108.6074442041
 20
154.0353355639
 11
95.8332107988
 21
154.0353355639
  0
LINE
  5
42F
100
AcDbEntity
  8
0
100
AcDbLine
 62
7
  6
CONTINUOUS
 10
108.3276896782
 20
154.3353355639
 11
96.1332107988
 21
154.3353355639
  0
LINE
  5
430
100
AcDbEntity
  8
0
100
AcDbLine
 62
7
  6
CONTINUOUS
 10
102.2791088326
 20
164.1353355639
 11
103.5415183677
 21
163.9353355639
  0
LINE
  5
431
100
AcDbEntity
  8
0
100
AcDbLine
 62
7
  6
CONTINUOUS
 10
101.426871701
 20
164.1353355639
 11
102.2708662859
 21
163.9353355639
  0
LINE
  5
432
100
AcDbEntity
  8
0
100
AcDbLine
 62
7
  6
CONTINUOUS
 10
111.9873127651
 20
164.1353355639
 11
112.6947955963
 21
163.9353355639
  0
LINE
  5
433
100
AcDbEntity
  8
0
100
AcDbLine
 62
7
  6
CONTINUOUS
 10
149.4260314147
 20
43.1281561798
 11
150.1332107988
 21
43.8353355639
  0
LINE
  5
434
100
AcDbEntity
  8
0
100
AcDbLine
 62
7
  6
CONTINUOUS
 10
98.8332743862
 20
156.6353355639
 11
106.1829049801
 21
156.6353355639
  0
LINE
  5
435
100
AcDbEntity
  8
0
100
AcDbLine
 62
7
  6
CONTINUOUS
 10
100.2791088326
 20
159.5579852947
 11
100.1332107988
 21
159.5579852947
  0
LINE
  5
436
100
AcDbEntity
  8
0
100
AcDbLine
 62
7
  6
CONTINUOUS
 10
102.9191021786
 20
160.1353355639
 11
100.1332107988
 21
160.1353355639
  0
LINE
  5
437
100
AcDbEntity
  8
0
100
AcDbLine
 62
7
  6
CONTINUOUS
 10
93.4257124646
 20
160.9353355639
 11
102.1730901097
 21
160.9353355639
  0
LINE
  5
438
100
AcDbEntity
  8
0
100
AcDbLine
 62
7
  6
CONTINUOUS
 10
103.4655917755
 20
160.9353355639
 11
119.5577843183
 21
160.9353355639
  0
LINE
  5
439
100
AcDbEntity
  8
0
100
AcDbLine
 62
7
  6
CONTINUOUS
 10
121.1332107988
 20
160.9353355639
 11
122.7332107988
 21
160.9353355639
  0
LINE
  5
43A
100
AcDbEntity
  8
0
100
AcDbLine
 62
7
  6
CONTINUOUS
 10
105.2791088326
 20
164.1353355639
 11
106.9787668038
 21
163.9353355639
  0
LINE
  5
43B
100
AcDbEntity
  8
0
100
AcDbLine
 62
7
  6
CONTINUOUS
 10
107.1332107988
 20
164.1353355639
 11
108.8089013326
 21
163.9353355639
  0
LINE
  5
43C
100
AcDbEntity
  8
0
100
AcDbLine
 62
7
  6
CONTINUOUS
 10
103.6064992851
 20
164.1353355639
 11
105.1637503293
 21
163.9353355639
  0
LINE
  5
43D
100
AcDbEntity
  8
0
100
AcDbLine
 62
7
  6
CONTINUOUS
 10
108.9873127651
 20
164.1353355639
 11
110.4750075967
 21
163.9353355639
  0
LINE
  5
43E
100
AcDbEntity
  8
0
100
AcDbLine
 62
7
  6
CONTINUOUS
 10
110.6599223126
 20
164.1353355639
 11
111.8139955065
 21
163.9353355639
  0
LINE
  5
43F
100
AcDbEntity
  8
GEOM
100
AcDbLine
 62
7
  6
CONTINUOUS
 10
208.0846795674
 20
184.4353355639
 11
208.0846795674
 21
184.4853355639
  0
LINE
  5
440
100
AcDbEntity
  8
GEOM
100
AcDbLine
 62
7
  6
CONTINUOUS
 10
208.3175968139
 20
184.4353355639
 11
208.3175968139
 21
184.4853355639
  0
LINE
  5
441
100
AcDbEntity
  8
GEOM
100
AcDbLine
 62
7
  6
CONTINUOUS
 10
208.9337462551
 20
184.4353355639
 11
208.9337462551
 21
184.4853355639
  0
LINE
  5
442
100
AcDbEntity
  8
GEOM
100
AcDbLine
 62
7
  6
CONTINUOUS
 10
209.545948884
 20
184.4353355639
 11
209.545948884
 21
184.4853355639
  0
LINE
  5
443
100
AcDbEntity
  8
GEOM
100
AcDbLine
 62
7
  6
CONTINUOUS
 10
209.77431008
 20
184.4353355639
 11
209.77431008
 21
184.4853355639
  0
LINE
  5
444
100
AcDbEntity
  8
GEOM
100
AcDbLine
 62
7
  6
CONTINUOUS
 10
210.0646205725
 20
184.4353355639
 11
210.0646205725
 21
184.4853355639
  0
LINE
  5
445
100
AcDbEntity
  8
GEOM
100
AcDbLine
 62
7
  6
CONTINUOUS
 10
210.0791968324
 20
184.4353355639
 11
210.0791968324
 21
184.4853355639
  0
LINE
  5
446
100
AcDbEntity
  8
GEOM
100
AcDbLine
 62
7
  6
CONTINUOUS
 10
210.4436031174
 20
184.4353355639
 11
210.4436031174
 21
184.4853355639
  0
LINE
  5
447
100
AcDbEntity
  8
GEOM
100
AcDbLine
 62
7
  6
CONTINUOUS
 10
211.2246474098
 20
184.4353355639
 11
211.2246474098
 21
184.4853355639
  0
LINE
  5
448
100
AcDbEntity
  8
GEOM
100
AcDbLine
 62
7
  6
CONTINUOUS
 10
211.3363986648
 20
184.4353355639
 11
211.3363986648
 21
184.4853355639
  0
LINE
  5
449
100
AcDbEntity
  8
0
100
AcDbLine
 62
7
  6
CONTINUOUS
 10
122.7332107988
 20
163.9353355639
 11
121.1332107988
 21
163.9353355639
  0
LINE
  5
44A
100
AcDbEntity
  8
0
100
AcDbLine
 62
7
  6
CONTINUOUS
 10
95.1332107988
 20
163.9353355639
 11
121.1064158796
 21
163.9353355639
  0
LINE
  5
44B
100
AcDbEntity
  8
0
100
AcDbLine
 62
7
  6
CONTINUOUS
 10
113.1332107988
 20
164.1353355639
 11
101.1332108075
 21
164.1353355639
  0
LINE
  5
44C
100
AcDbEntity
  8
0
100
AcDbLine
 62
7
  6
CONTINUOUS
 10
101.1332107988
 20
164.7889254024
 11
113.1332107988
 21
164.7889254024
  0
LINE
  5
44D
100
AcDbEntity
  8
0
100
AcDbLine
 62
7
  6
CONTINUOUS
 10
101.4332107988
 20
165.3085406446
 11
112.8332107988
 21
165.3085406446
  0
LINE
  5
44E
100
AcDbEntity
  8
0
100
AcDbLine
 62
7
  6
CONTINUOUS
 10
103.1332578746
 20
169.1353355639
 11
111.133163723
 21
169.1353355639
  0
LINE
  5
44F
100
AcDbEntity
  8
GEOM
100
AcDbLine
 62
7
  6
CONTINUOUS
 10
211.5052402535
 20
184.4353355639
 11
211.5052402535
 21
184.4853355639
  0
LINE
  5
450
100
AcDbEntity
  8
GEOM
100
AcDbLine
 62
7
  6
CONTINUOUS
 10
211.5926975998
 20
184.4353355639
 11
211.5926975998
 21
184.4853355639
  0
LINE
  5
451
100
AcDbEntity
  8
GEOM
100
AcDbLine
 62
7
  6
CONTINUOUS
 10
211.9571038847
 20
184.4353355639
 11
211.9571038847
 21
184.4853355639
  0
LINE
  5
452
100
AcDbEntity
  8
GEOM
100
AcDbLine
 62
7
  6
CONTINUOUS
 10
212.7381481771
 20
184.4353355639
 11
212.7381481771
 21
184.4853355639
  0
LINE
  5
453
100
AcDbEntity
  8
GEOM
100
AcDbLine
 62
7
  6
CONTINUOUS
 10
212.8498994321
 20
184.4353355639
 11
212.8498994321
 21
184.4853355639
  0
LINE
  5
454
100
AcDbEntity
  8
GEOM
100
AcDbLine
 62
7
  6
CONTINUOUS
 10
214.4722868521
 20
184.4353355639
 11
214.4722868521
 21
184.4853355639
  0
LINE
  5
455
100
AcDbEntity
  8
GEOM
100
AcDbLine
 62
7
  6
CONTINUOUS
 10
216.4745260187
 20
184.4353355639
 11
216.4745260187
 21
184.4853355639
  0
LINE
  5
456
100
AcDbEntity
  8
GEOM
100
AcDbLine
 62
7
  6
CONTINUOUS
 10
219.1814302406
 20
184.4353355639
 11
219.1814302406
 21
184.4853355639
  0
LINE
  5
457
100
AcDbEntity
  8
0
100
AcDbLine
 62
7
  6
CONTINUOUS
 10
222.6332107988
 20
178.4353355639
 11
222.6332107988
 21
184.4353355639
  0
LINE
  5
458
100
AcDbEntity
  8
0
100
AcDbLine
 62
7
  6
CONTINUOUS
 10
145.9332107988
 20
178.4353355639
 11
231.1332107988
 21
178.4353355639
  0
LINE
  5
459
100
AcDbEntity
  8
0
100
AcDbLine
 62
7
  6
CONTINUOUS
 10
144.2184921731
 20
179.9353355639
 11
144.6509812758
 21
179.9353355639
  0
LINE
  5
45A
100
AcDbEntity
  8
0
100
AcDbLine
 62
7
  6
CONTINUOUS
 10
144.6332107988
 20
180.9353355639
 11
233.6332107988
 21
180.9353355639
  0
LINE
  5
45B
100
AcDbEntity
  8
0
100
AcDbLine
 62
7
  6
CONTINUOUS
 10
144.6332107988
 20
181.9353355639
 11
233.6332107988
 21
181.9353355639
  0
LINE
  5
45C
100
AcDbEntity
  8
0
100
AcDbLine
 62
7
  6
CONTINUOUS
 10
144.6509812758
 20
182.9353355639
 11
143.8042786107
 21
182.9353355639
  0
LINE
  5
45D
100
AcDbEntity
  8
0
100
AcDbLine
 62
7
  6
CONTINUOUS
 10
145.9332107988
 20
184.4353355639
 11
231.1332107988
 21
184.4353355639
  0
LINE
  5
45E
100
AcDbEntity
  8
GEOM
100
AcDbLine
 62
7
  6
CONTINUOUS
 10
153.0555259522
 20
184.4853355639
 11
162.9119081737
 21
184.4853355639
  0
LINE
  5
45F
100
AcDbEntity
  8
GEOM
100
AcDbLine
 62
7
  6
CONTINUOUS
 10
163.4932107988
 20
184.4853355639
 11
165.3032107988
 21
184.4853355639
  0
LINE
  5
460
100
AcDbEntity
  8
GEOM
100
AcDbLine
 62
7
  6
CONTINUOUS
 10
165.3059562
 20
184.4853355639
 11
169.4721021079
 21
184.4853355639
  0
LINE
  5
461
100
AcDbEntity
  8
GEOM
100
AcDbLine
 62
7
  6
CONTINUOUS
 10
170.2632107988
 20
184.4853355639
 11
176.7451591643
 21
184.4853355639
  0
LINE
  5
462
100
AcDbEntity
  8
GEOM
100
AcDbLine
 62
7
  6
CONTINUOUS
 10
176.7532107988
 20
184.4853355639
 11
180.9532107988
 21
184.4853355639
  0
LINE
  5
463
100
AcDbEntity
  8
GEOM
100
AcDbLine
 62
7
  6
CONTINUOUS
 10
180.9602244519
 20
184.4853355639
 11
186.8032107988
 21
184.4853355639
  0
LINE
  5
464
100
AcDbEntity
  8
GEOM
100
AcDbLine
 62
7
  6
CONTINUOUS
 10
208.0846795674
 20
184.4853355639
 11
209.77431008
 21
184.4853355639
  0
LINE
  5
465
100
AcDbEntity
  8
GEOM
100
AcDbLine
 62
7
  6
CONTINUOUS
 10
210.0646205725
 20
184.4853355639
 11
211.5052402535
 21
184.4853355639
  0
LINE
  5
466
100
AcDbEntity
  8
GEOM
100
AcDbLine
 62
7
  6
CONTINUOUS
 10
211.5926975998
 20
184.4853355639
 11
212.8498994321
 21
184.4853355639
  0
LINE
  5
467
100
AcDbEntity
  8
GEOM
100
AcDbLine
 62
7
  6
CONTINUOUS
 10
214.4722868521
 20
184.4853355639
 11
219.1814302406
 21
184.4853355639
  0
LINE
  5
468
100
AcDbEntity
  8
0
100
AcDbLine
 62
7
  6
CONTINUOUS
 10
233.6332107988
 20
180.9353355639
 11
233.6332107988
 21
181.9353355639
  0
ARC
  5
469
100
AcDbEntity
  8
GEOM
100
AcDbCircle
 62
7
  6
CONTINUOUS
 10
140.3981264722
 20
78.1489883722
 40
11.5691994649
100
AcDbArc
 50
178.720944367
 51
181.279055633
  0
ARC
  5
46A
100
AcDbEntity
  8
GEOM
100
AcDbCircle
 62
7
  6
CONTINUOUS
 10
139.0658031407
 20
78.2073861309
 40
10.2388908806
100
AcDbArc
 50
181.7721898934
 51
185.421604538
  0
ARC
  5
46B
100
AcDbEntity
  8
GEOM
100
AcDbCircle
 62
7
  6
CONTINUOUS
 10
138.8780703688
 20
56.4750859351
 40
10.0508847368
100
AcDbArc
 50
174.5442516526
 51
178.261953916
  0
ARC
  5
46C
100
AcDbEntity
  8
GEOM
100
AcDbCircle
 62
7
  6
CONTINUOUS
 10
136.3912110306
 20
78.0862527698
 40
7.1779490696
100
AcDbArc
 50
182.1210787813
 51
186.4777050393
  0
ARC
  5
46D
100
AcDbEntity
  8
GEOM
100
AcDbCircle
 62
7
  6
CONTINUOUS
 10
136.2546523339
 20
56.5946848005
 40
7.0411058858
100
AcDbArc
 50
173.4799386558
 51
177.9212775237
  0
ARC
  5
46E
100
AcDbEntity
  8
0
100
AcDbCircle
 62
7
  6
CONTINUOUS
 10
111.4656306503
 20
64.0453355639
 40
3.06
100
AcDbArc
 50
79.6454678383
 51
180.0
  0
ARC
  5
46F
100
AcDbEntity
  8
0
100
AcDbCircle
 62
7
  6
CONTINUOUS
 10
110.4956306503
 20
64.2953355639
 40
3.04
100
AcDbArc
 50
90.0
 51
180.0
  0
ARC
  5
470
100
AcDbEntity
  8
0
100
AcDbCircle
 62
7
  6
CONTINUOUS
 10
94.6687447048
 20
41.8353355639
 40
2.5
100
AcDbArc
 50
225.0
 51
270.0
  0
ARC
  5
471
100
AcDbEntity
  8
0
100
AcDbCircle
 62
7
  6
CONTINUOUS
 10
94.6687447048
 20
92.8353355639
 40
2.5
100
AcDbArc
 50
90.0
 51
135.0
  0
ARC
  5
472
100
AcDbEntity
  8
0
100
AcDbCircle
 62
7
  6
CONTINUOUS
 10
87.5976768929
 20
41.8353355639
 40
2.5
100
AcDbArc
 50
45.0
 51
90.0
  0
ARC
  5
473
100
AcDbEntity
  8
0
100
AcDbCircle
 62
7
  6
CONTINUOUS
 10
87.5976768929
 20
92.8353355639
 40
2.5
100
AcDbArc
 50
270.0
 51
315.0
  0
ARC
  5
474
100
AcDbEntity
  8
0
100
AcDbCircle
 62
7
  6
CONTINUOUS
 10
109.196576284
 20
66.0983802012
 40
2.0
100
AcDbArc
 50
113.2954656976
 51
150.5136304302
  0
ARC
  5
475
100
AcDbEntity
  8
0
100
AcDbCircle
 62
7
  6
CONTINUOUS
 10
117.6302670737
 20
39.5353355639
 40
1.2
100
AcDbArc
 50
225.0
 51
270.0
  0
ARC
  5
476
100
AcDbEntity
  8
0
100
AcDbCircle
 62
7
  6
CONTINUOUS
 10
115.636154524
 20
38.1353355639
 40
1.2
100
AcDbArc
 50
45.0
 51
90.0
  0
ARC
  5
477
100
AcDbEntity
  8
0
100
AcDbCircle
 62
7
  6
CONTINUOUS
 10
118.833210284
 20
97.5353352543
 40
1.1999999476
100
AcDbArc
 50
179.9999845006
 51
270.0000216909
  0
ARC
  5
478
100
AcDbEntity
  8
0
100
AcDbCircle
 62
7
  6
CONTINUOUS
 10
95.4332124148
 20
96.5353348153
 40
1.1999998363
100
AcDbArc
 50
269.9999218393
 51
0.0000381635
  0
ARC
  5
479
100
AcDbEntity
  8
0
100
AcDbCircle
 62
7
  6
CONTINUOUS
 10
127.8658838108
 20
95.3353355639
 40
1.0
100
AcDbArc
 50
15.0
 51
90.0
  0
ARC
  5
47A
100
AcDbEntity
  8
0
100
AcDbCircle
 62
7
  6
CONTINUOUS
 10
127.8658838108
 20
39.3353355639
 40
1.0
100
AcDbArc
 50
270.0
 51
345.0
  0
ARC
  5
47B
100
AcDbEntity
  8
GEOM
100
AcDbCircle
 62
7
  6
CONTINUOUS
 10
135.2332107988
 20
92.7281558869
 40
0.4
100
AcDbArc
 50
0.0
 51
29.9999999998
  0
ARC
  5
47C
100
AcDbEntity
  8
GEOM
100
AcDbCircle
 62
7
  6
CONTINUOUS
 10
135.2332107988
 20
41.9425152408
 40
0.4
100
AcDbArc
 50
330.0000000005
 51
360.0
  0
ARC
  5
47D
100
AcDbEntity
  8
GEOM
100
AcDbCircle
 62
7
  6
CONTINUOUS
 10
135.1135955565
 20
92.9353355639
 40
0.4
100
AcDbArc
 50
30.0
 51
90.0
  0
ARC
  5
47E
100
AcDbEntity
  8
GEOM
100
AcDbCircle
 62
7
  6
CONTINUOUS
 10
135.1135955565
 20
41.7353355639
 40
0.4
100
AcDbArc
 50
270.0
 51
330.0
  0
ARC
  5
47F
100
AcDbEntity
  8
GEOM
100
AcDbCircle
 62
7
  6
CONTINUOUS
 10
136.0332107988
 20
43.6853355639
 40
0.4
100
AcDbArc
 50
90.0
 51
180.0
  0
ARC
  5
480
100
AcDbEntity
  8
GEOM
100
AcDbCircle
 62
7
  6
CONTINUOUS
 10
136.0332107988
 20
90.9853355639
 40
0.4
100
AcDbArc
 50
180.0
 51
270.0
  0
ARC
  5
481
100
AcDbEntity
  8
0
100
AcDbCircle
 62
7
  6
CONTINUOUS
 10
51.8670396389
 20
170.0626732384
 40
55.5831179998
100
AcDbArc
 50
353.6709999501
 51
353.8783855052
  0
ARC
  5
482
100
AcDbEntity
  8
0
100
AcDbCircle
 62
7
  6
CONTINUOUS
 10
105.9367317667
 20
121.5004155977
 40
27.5455722136
100
AcDbArc
 50
285.4126955268
 51
288.6909038756
  0
ARC
  5
483
100
AcDbEntity
  8
0
100
AcDbCircle
 62
7
  6
CONTINUOUS
 10
108.1062675732
 20
120.715041217
 40
26.729055334
100
AcDbArc
 50
253.8875322486
 51
254.7097971116
  0
ARC
  5
484
100
AcDbEntity
  8
0
100
AcDbCircle
 62
7
  6
CONTINUOUS
 10
107.982256505
 20
120.2649473309
 40
26.2621909266
100
AcDbArc
 50
254.7118216685
 51
255.0602529824
  0
ARC
  5
485
100
AcDbEntity
  8
0
100
AcDbCircle
 62
7
  6
CONTINUOUS
 10
122.7332107988
 20
164.9353355639
 40
4.0
100
AcDbArc
 50
270.0
 51
315.0
  0
ARC
  5
486
100
AcDbEntity
  8
0
100
AcDbCircle
 62
7
  6
CONTINUOUS
 10
95.1332107988
 20
160.9353355639
 40
3.0
100
AcDbArc
 50
90.0
 51
180.0
  0
ARC
  5
487
100
AcDbEntity
  8
0
100
AcDbCircle
 62
7
  6
CONTINUOUS
 10
104.5332107988
 20
140.7696501389
 40
1.4
100
AcDbArc
 50
90.0
 51
180.0
  0
ARC
  5
488
100
AcDbEntity
  8
0
100
AcDbCircle
 62
7
  6
CONTINUOUS
 10
104.5332107988
 20
138.5696501389
 40
1.4
100
AcDbArc
 50
180.0
 51
270.0
  0
ARC
  5
489
100
AcDbEntity
  8
0
100
AcDbCircle
 62
7
  6
CONTINUOUS
 10
122.7332107988
 20
164.9353355639
 40
1.0
100
AcDbArc
 50
270.0
 51
315.0
  0
ARC
  5
48A
100
AcDbEntity
  8
0
100
AcDbCircle
 62
7
  6
CONTINUOUS
 10
104.5332107988
 20
138.5696501389
 40
0.9
100
AcDbArc
 50
180.0
 51
270.0
  0
ARC
  5
48B
100
AcDbEntity
  8
0
100
AcDbCircle
 62
7
  6
CONTINUOUS
 10
104.5332107988
 20
140.7696501389
 40
0.9
100
AcDbArc
 50
90.0
 51
180.0
  0
ARC
  5
48C
100
AcDbEntity
  8
0
100
AcDbCircle
 62
7
  6
CONTINUOUS
 10
112.5332107988
 20
164.7889254024
 40
0.6
100
AcDbArc
 50
0.0
 51
60.0
  0
ARC
  5
48D
100
AcDbEntity
  8
0
100
AcDbCircle
 62
7
  6
CONTINUOUS
 10
101.7332107988
 20
164.7889254024
 40
0.6
100
AcDbArc
 50
120.0
 51
180.0
  0
ARC
  5
48E
100
AcDbEntity
  8
0
100
AcDbCircle
 62
7
  6
CONTINUOUS
 10
95.6332107988
 20
160.4353355639
 40
0.5
100
AcDbArc
 50
90.0
 51
180.0
  0
ARC
  5
48F
100
AcDbEntity
  8
0
100
AcDbCircle
 62
7
  6
CONTINUOUS
 10
117.7332107988
 20
144.0010209888
 40
0.4
100
AcDbArc
 50
315.0
 51
360.0
  0
ARC
  5
490
100
AcDbEntity
  8
0
100
AcDbCircle
 62
7
  6
CONTINUOUS
 10
118.0332107988
 20
143.1696501389
 40
0.4
100
AcDbArc
 50
135.0
 51
180.0
  0
ARC
  5
491
100
AcDbEntity
  8
0
100
AcDbCircle
 62
7
  6
CONTINUOUS
 10
96.2332107988
 20
143.1696501389
 40
0.4
100
AcDbArc
 50
0.0
 51
9.1361207812
  0
ARC
  5
492
100
AcDbEntity
  8
0
100
AcDbCircle
 62
7
  6
CONTINUOUS
 10
118.5332107988
 20
150.6696501389
 40
0.4
100
AcDbArc
 50
134.9999999996
 51
180.0
  0
ARC
  5
493
100
AcDbEntity
  8
0
100
AcDbCircle
 62
7
  6
CONTINUOUS
 10
95.7332107988
 20
150.6696501389
 40
0.4
100
AcDbArc
 50
0.0
 51
45.0000000004
  0
ARC
  5
494
100
AcDbEntity
  8
0
100
AcDbCircle
 62
7
  6
CONTINUOUS
 10
143.8042786107
 20
178.9353355639
 40
4.0
100
AcDbArc
 50
90.0
 51
135.0
  0
ARC
  5
495
100
AcDbEntity
  8
0
100
AcDbCircle
 62
7
  6
CONTINUOUS
 10
231.1332107988
 20
181.9353355639
 40
2.5
100
AcDbArc
 50
0.0
 51
90.0
  0
ARC
  5
496
100
AcDbEntity
  8
0
100
AcDbCircle
 62
7
  6
CONTINUOUS
 10
231.1332107988
 20
180.9353355639
 40
2.5
100
AcDbArc
 50
270.0
 51
360.0
  0
ARC
  5
497
100
AcDbEntity
  8
0
100
AcDbCircle
 62
7
  6
CONTINUOUS
 10
144.2184921731
 20
177.9353355639
 40
2.0
100
AcDbArc
 50
90.0
 51
135.0
  0
ARC
  5
498
100
AcDbEntity
  8
0
100
AcDbCircle
 62
7
  6
CONTINUOUS
 10
145.9332107988
 20
179.7353355639
 40
1.3
100
AcDbArc
 50
180.0
 51
270.0
  0
ARC
  5
499
100
AcDbEntity
  8
0
100
AcDbCircle
 62
7
  6
CONTINUOUS
 10
145.9332107988
 20
183.1353355639
 40
1.3
100
AcDbArc
 50
90.0
 51
180.0
  0
SPLINE
  5
49A
100
AcDbEntity
  8
0
100
AcDbSpline
 62
7
  6
CONTINUOUS
 70
0
 71
3
 72
9
 73
5
 74
0
 42
0.0000001
 43
0.0000001
 44
0.0000000001
 40
0.0
 40
0.0
 40
0.0
 40
0.0
 40
0.251411739
 40
1.0
 40
1.0
 40
1.0
 40
1.0
 10
107.5495568865
 20
155.1698870391
 30
0.0
 10
107.3596426104
 20
155.1653920144
 30
0.0
 10
106.6042505694
 20
155.1475385157
 30
0.0
 10
105.848859269
 20
155.1296510869
 30
0.0
 10
105.283388733
 20
155.1159897268
 30
0.0
  0
SPLINE
  5
49B
100
AcDbEntity
  8
0
100
AcDbSpline
 62
7
  6
CONTINUOUS
 70
0
 71
3
 72
20
 73
16
 74
0
 42
0.0000001
 43
0.0000001
 44
0.0000000001
 40
0.0
 40
0.0
 40
0.0
 40
0.0
 40
0.1926967291
 40
0.3739773582
 40
0.5392706093
 40
0.6844099478
 40
0.748256794
 40
0.8057400979
 40
0.8564968532
 40
0.9002120967
 40
0.9366101971
 40
0.9654725865
 40
0.9866305102
 40
0.994290244
 40
1.0
 40
1.0
 40
1.0
 40
1.0
 10
105.283388733
 20
155.1159897268
 30
0.0
 10
104.8262073325
 20
155.104944554
 30
0.0
 10
103.9389379047
 20
155.0831661661
 30
0.0
 10
102.6595544836
 20
155.0498443081
 30
0.0
 10
101.4930750383
 20
155.0166109003
 30
0.0
 10
100.6052788484
 20
154.9879830248
 30
0.0
 10
99.9733155067
 20
154.9645844065
 30
0.0
 10
99.5652556806
 20
154.9478218747
 30
0.0
 10
99.2050143065
 20
154.9311078037
 30
0.0
 10
98.8948745459
 20
154.9144502455
 30
0.0
 10
98.6367634033
 20
154.8979393269
 30
0.0
 10
98.4323337148
 20
154.8815357644
 30
0.0
 10
98.2961377188
 20
154.8672158008
 30
0.0
 10
98.2151222954
 20
154.854898946
 30
0.0
 10
98.1839779631
 20
154.8486515342
 30
0.0
 10
98.1708598755
 20
154.8452552885
 30
0.0
  0
SPLINE
  5
49C
100
AcDbEntity
  8
0
100
AcDbSpline
 62
7
  6
CONTINUOUS
 70
0
 71
3
 72
11
 73
7
 74
0
 42
0.0000001
 43
0.0000001
 44
0.0000000001
 40
0.0
 40
0.0
 40
0.0
 40
0.0
 40
0.3911609487
 40
0.6813336045
 40
0.876829797
 40
1.0
 40
1.0
 40
1.0
 40
1.0
 10
98.1708598755
 20
154.8452552885
 30
0.0
 10
98.1653207669
 20
154.8438212247
 30
0.0
 10
98.1557192105
 20
154.8411222659
 30
0.0
 10
98.1437665237
 20
154.8363401051
 30
0.0
 10
98.1360183549
 20
154.831951513
 30
0.0
 10
98.1332107988
 20
154.8275910925
 30
0.0
 10
98.1332107988
 20
154.8257894112
 30
0.0
  0
SPLINE
  5
49D
100
AcDbEntity
  8
0
100
AcDbSpline
 62
7
  6
CONTINUOUS
 70
0
 71
3
 72
26
 73
22
 74
0
 42
0.0000001
 43
0.0000001
 44
0.0000000001
 40
0.0
 40
0.0
 40
0.0
 40
0.0
 40
0.0014722965
 40
0.0034824294
 40
0.0091580533
 40
0.0170631881
 40
0.0271914655
 40
0.0395264088
 40
0.0540450855
 40
0.0707134974
 40
0.0894951917
 40
0.1332254934
 40
0.1848348811
 40
0.2438474234
 40
0.3097200571
 40
0.3818432753
 40
0.4595488752
 40
0.5421188368
 40
0.6287887004
 40
0.8111857232
 40
1.0
 40
1.0
 40
1.0
 40
1.0
 10
98.142493988
 20
155.1395409457
 30
0.0
 10
98.1464721934
 20
155.1416121473
 30
0.0
 10
98.1564255506
 20
155.1454237562
 30
0.0
 10
98.183298449
 20
155.1529317682
 30
0.0
 10
98.2300723575
 20
155.1616035992
 30
0.0
 10
98.3016038143
 20
155.1715243187
 30
0.0
 10
98.3935927643
 20
155.1815110222
 30
0.0
 10
98.5057996597
 20
155.1915979318
 30
0.0
 10
98.6379989139
 20
155.2017180156
 30
0.0
 10
98.7898820231
 20
155.2118731634
 30
0.0
 10
99.0306685431
 20
155.2261717169
 30
0.0
 10
99.3778844686
 20
155.2436624486
 30
0.0
 10
99.8476594252
 20
155.2638509349
 30
0.0
 10
100.3849387641
 20
155.2841012573
 30
0.0
 10
100.9847469345
 20
155.3044000945
 30
0.0
 10
101.6415286502
 20
155.3247294514
 30
0.0
 10
102.3491974424
 20
155.3450813489
 30
0.0
 10
103.1011966189
 20
155.3654492963
 30
0.0
 10
104.1720383341
 20
155.3930921335
 30
0.0
 10
105.5664759716
 20
155.4271246835
 30
0.0
 10
106.6969891183
 20
155.4538174457
 30
0.0
 10
107.272017017
 20
155.4674146444
 30
0.0
  0
SPLINE
  5
49E
100
AcDbEntity
  8
0
100
AcDbSpline
 62
7
  6
CONTINUOUS
 70
0
 71
3
 72
9
 73
5
 74
0
 42
0.0000001
 43
0.0000001
 44
0.0000000001
 40
0.0
 40
0.0
 40
0.0
 40
0.0
 40
0.2225867449
 40
1.0
 40
1.0
 40
1.0
 40
1.0
 10
98.9433825869
 20
155.5569351486
 30
0.0
 10
98.9441297321
 20
155.5573247411
 30
0.0
 10
98.9475261428
 20
155.5589988495
 30
0.0
 10
98.951046756
 20
155.560410202
 30
0.0
 10
98.9538101278
 20
155.5614225203
 30
0.0
  0
SPLINE
  5
49F
100
AcDbEntity
  8
0
100
AcDbSpline
 62
7
  6
CONTINUOUS
 70
0
 71
3
 72
22
 73
18
 74
0
 42
0.0000001
 43
0.0000001
 44
0.0000000001
 40
0.0
 40
0.0
 40
0.0
 40
0.0
 40
0.0049906943
 40
0.0119067498
 40
0.0207626889
 40
0.0315594389
 40
0.0589376202
 40
0.0939122613
 40
0.1363074378
 40
0.185890535
 40
0.2423958994
 40
0.3055101244
 40
0.3748894098
 40
0.4501490988
 40
0.6166239045
 40
0.8012651052
 40
1.0
 40
1.0
 40
1.0
 40
1.0
 10
98.9538101278
 20
155.5614225203
 30
0.0
 10
98.9626931208
 20
155.564676667
 30
0.0
 10
98.9845508385
 20
155.5705434556
 30
0.0
 10
99.0231539817
 20
155.5782000552
 30
0.0
 10
99.0729375115
 20
155.5859278396
 30
0.0
 10
99.1613730814
 20
155.5972270348
 30
0.0
 10
99.2993984238
 20
155.6107523921
 30
0.0
 10
99.4973568792
 20
155.6262202342
 30
0.0
 10
99.7375107475
 20
155.6417683338
 30
0.0
 10
100.0185418204
 20
155.6574001798
 30
0.0
 10
100.3388989399
 20
155.6730701738
 30
0.0
 10
100.6968192393
 20
155.6887727726
 30
0.0
 10
101.0903199931
 20
155.7044957102
 30
0.0
 10
101.6796632862
 20
155.7262174094
 30
0.0
 10
102.4874554686
 20
155.7529413159
 30
0.0
 10
103.5292788068
 20
155.7841342293
 30
0.0
 10
104.2557194118
 20
155.8043758171
 30
0.0
 10
104.6322986116
 20
155.8146368691
 30
0.0
  0
LINE
  5
4A0
100
AcDbEntity
  8
0
100
AcDbLine
 62
7
  6
CONTINUOUS
 10
104.6322986116
 20
155.8146368691
 11
104.6473078987
 21
155.8150457175
  0
SPLINE
  5
4A1
100
AcDbEntity
  8
0
100
AcDbSpline
 62
7
  6
CONTINUOUS
 70
0
 71
3
 72
9
 73
5
 74
0
 42
0.0000001
 43
0.0000001
 44
0.0000000001
 40
0.0
 40
0.0
 40
0.0
 40
0.0
 40
0.2449414158
 40
1.0
 40
1.0
 40
1.0
 40
1.0
 10
104.6473078987
 20
155.8150457175
 30
0.0
 10
104.8306182058
 20
155.8200375065
 30
0.0
 10
105.5790087114
 20
155.8401890738
 30
0.0
 10
106.3274170814
 20
155.8596687792
 30
0.0
 10
106.8925101386
 20
155.8743392618
 30
0.0
  0
SPLINE
  5
4A2
100
AcDbEntity
  8
0
100
AcDbSpline
 62
7
  6
CONTINUOUS
 70
0
 71
3
 72
31
 73
27
 74
0
 42
0.0000001
 43
0.0000001
 44
0.0000000001
 40
0.0
 40
0.0
 40
0.0
 40
0.0
 40
0.0006885993
 40
0.0011825815
 40
0.0018048955
 40
0.0034675265
 40
0.0057137383
 40
0.0085556836
 40
0.011998425
 40
0.0206910193
 40
0.031782113
 40
0.0452486659
 40
0.0610602761
 40
0.0791736154
 40
0.0995424461
 40
0.1221133687
 40
0.1736087762
 40
0.2331064198
 40
0.2999639687
 40
0.3734562679
 40
0.4527869566
 40
0.5370968963
 40
0.6254715079
 40
0.7169516374
 40
0.8105453203
 40
1.0
 40
1.0
 40
1.0
 40
1.0
 10
98.9332129633
 20
154.4093357147
 30
0.0
 10
98.933211271
 20
154.4114038264
 30
0.0
 10
98.9354271588
 20
154.414758503
 30
0.0
 10
98.9397257077
 20
154.4179453577
 30
0.0
 10
98.9470690114
 20
154.4220265341
 30
0.0
 10
98.9598631523
 20
154.426751585
 30
0.0
 10
98.9794168839
 20
154.4321580955
 30
0.0
 10
99.0044673809
 20
154.4375824887
 30
0.0
 10
99.0487530736
 20
154.445500979
 30
0.0
 10
99.1178842459
 20
154.4549935751
 30
0.0
 10
99.2171593021
 20
154.4658465422
 30
0.0
 10
99.3379172747
 20
154.476755584
 30
0.0
 10
99.4798307242
 20
154.4877164876
 30
0.0
 10
99.6425258201
 20
154.4987068985
 30
0.0
 10
99.8255605687
 20
154.5097189283
 30
0.0
 10
100.1087671353
 20
154.5251037495
 30
0.0
 10
100.5094674095
 20
154.5439966092
 30
0.0
 10
101.043170223
 20
154.5658850288
 30
0.0
 10
101.6429847492
 20
154.5878268298
 30
0.0
 10
102.3023991566
 20
154.6098110338
 30
0.0
 10
103.0142552658
 20
154.6318221876
 30
0.0
 10
103.7708276453
 20
154.6538525035
 30
0.0
 10
104.5639034384
 20
154.6758960996
 30
0.0
 10
105.3848717321
 20
154.6979489404
 30
0.0
 10
106.5093283793
 20
154.7274789766
 30
0.0
 10
107.3591418564
 20
154.7494115777
 30
0.0
 10
107.9279493673
 20
154.7642419561
 30
0.0
  0
SPLINE
  5
4A3
100
AcDbEntity
  8
0
100
AcDbSpline
 62
7
  6
CONTINUOUS
 70
0
 71
3
 72
30
 73
26
 74
0
 42
0.0000001
 43
0.0000001
 44
0.0000000001
 40
0.0
 40
0.0
 40
0.0
 40
0.0
 40
0.1965598265
 40
0.2918375464
 40
0.3839807394
 40
0.4721775773
 40
0.5556528972
 40
0.6336794
 40
0.7055803573
 40
0.7707333267
 40
0.8285815725
 40
0.8786336102
 40
0.9005999441
 40
0.9204656019
 40
0.9381892851
 40
0.9537326046
 40
0.9670670417
 40
0.9781667064
 40
0.9870094945
 40
0.9905813365
 40
0.9935860728
 40
0.9960240965
 40
0.9978975868
 40
0.9992138936
 40
1.0
 40
1.0
 40
1.0
 40
1.0
 10
106.5007295914
 20
156.294487746
 30
0.0
 10
105.9620247775
 20
156.2857501903
 30
0.0
 10
105.1621962589
 20
156.2727322414
 30
0.0
 10
104.1098438565
 20
156.255024748
 30
0.0
 10
103.3544822003
 20
156.2419055818
 30
0.0
 10
102.6314758236
 20
156.2288123466
 30
0.0
 10
101.9471697935
 20
156.2157465046
 30
0.0
 10
101.3075391916
 20
156.2027115341
 30
0.0
 10
100.7181410698
 20
156.1897116472
 30
0.0
 10
100.1840656135
 20
156.1767542583
 30
0.0
 10
99.7098970038
 20
156.1638456488
 30
0.0
 10
99.3541013081
 20
156.1527214234
 30
0.0
 10
99.1024066196
 20
156.1436804574
 30
0.0
 10
98.9392907554
 20
156.1372107846
 30
0.0
 10
98.7937949891
 20
156.130758206
 30
0.0
 10
98.6662206185
 20
156.1243235902
 30
0.0
 10
98.5568263461
 20
156.117920964
 30
0.0
 10
98.4658352178
 20
156.1115541899
 30
0.0
 10
98.4016133882
 20
156.1059931536
 30
0.0
 10
98.3596015512
 20
156.1013884564
 30
0.0
 10
98.3350885349
 20
156.0982032254
 30
0.0
 10
98.3153023357
 20
156.0950398995
 30
0.0
 10
98.3001312351
 20
156.0919378909
 30
0.0
 10
98.28976293
 20
156.0888883481
 30
0.0
 10
98.2843239936
 20
156.0864443974
 30
0.0
 10
98.2828016804
 20
156.0849194517
 30
0.0
  0
SPLINE
  5
4A4
100
AcDbEntity
  8
0
100
AcDbSpline
 62
7
  6
CONTINUOUS
 70
0
 71
3
 72
12
 73
8
 74
0
 42
0.0000001
 43
0.0000001
 44
0.0000000001
 40
0.0
 40
0.0
 40
0.0
 40
0.0
 40
0.08874551
 40
0.1922531404
 40
0.4355442489
 40
0.7116804966
 40
1.0
 40
1.0
 40
1.0
 40
1.0
 10
100.3292341406
 20
154.3353352173
 30
0.0
 10
100.5592603418
 20
154.3460305506
 30
0.0
 10
101.0576898695
 20
154.3667394477
 30
0.0
 10
102.1871078682
 20
154.4072026406
 30
0.0
 10
103.8027681644
 20
154.4556640311
 30
0.0
 10
105.8979374414
 20
154.5118064626
 30
0.0
 10
107.3620903045
 20
154.5494466209
 30
0.0
 10
108.1099594206
 20
154.5689930348
 30
0.0
  0
SPLINE
  5
4A5
100
AcDbEntity
  8
0
100
AcDbSpline
 62
7
  6
CONTINUOUS
 70
0
 71
3
 72
10
 73
6
 74
0
 42
0.0000001
 43
0.0000001
 44
0.0000000001
 40
0.0
 40
0.0
 40
0.0
 40
0.0
 40
0.2490040956
 40
0.4986074583
 40
1.0
 40
1.0
 40
1.0
 40
1.0
 10
102.9436652832
 20
160.1092754186
 30
0.0
 10
102.7179949263
 20
160.0922717236
 30
0.0
 10
102.2671926204
 20
160.0417288976
 30
0.0
 10
101.3723875419
 20
159.8797402215
 30
0.0
 10
100.7127773452
 20
159.6979512053
 30
0.0
 10
100.2791088326
 20
159.5579852947
 30
0.0
  0
SPLINE
  5
4A6
100
AcDbEntity
  8
0
100
AcDbSpline
 62
7
  6
CONTINUOUS
 70
0
 71
3
 72
30
 73
26
 74
0
 42
0.0000001
 43
0.0000001
 44
0.0000000001
 40
0.0
 40
0.0
 40
0.0
 40
0.0
 40
0.0007126188
 40
0.0018132026
 40
0.0034308487
 40
0.0056031435
 40
0.0083440311
 40
0.0116595289
 40
0.0200229599
 40
0.030694388
 40
0.0436552445
 40
0.0588824648
 40
0.0763455117
 40
0.0960042194
 40
0.117817065
 40
0.1677078841
 40
0.2255724869
 40
0.2908916325
 40
0.363081329
 40
0.4414915924
 40
0.5254166685
 40
0.6141031548
 40
0.7067518698
 40
0.8025287897
 40
1.0
 40
1.0
 40
1.0
 40
1.0
 10
98.9332148307
 20
155.7463364364
 30
0.0
 10
98.9332131487
 20
155.7481873674
 30
0.0
 10
98.9358790221
 20
155.7526557307
 30
0.0
 10
98.9435281711
 20
155.7572875431
 30
0.0
 10
98.9552697567
 20
155.762235127
 30
0.0
 10
98.971537401
 20
155.7671000298
 30
0.0
 10
98.9923313107
 20
155.7720686006
 30
0.0
 10
99.0290941063
 20
155.7792693347
 30
0.0
 10
99.0865177678
 20
155.7879283096
 30
0.0
 10
99.1690376768
 20
155.7978106085
 30
0.0
 10
99.2694853674
 20
155.8077504382
 30
0.0
 10
99.3876392708
 20
155.8177365789
 30
0.0
 10
99.5232417866
 20
155.8277468833
 30
0.0
 10
99.6759886937
 20
155.837778906
 30
0.0
 10
99.9128765182
 20
155.8518068007
 30
0.0
 10
100.248976344
 20
155.869032723
 30
0.0
 10
100.6980736938
 20
155.8889777178
 30
0.0
 10
101.2051376493
 20
155.9089723829
 30
0.0
 10
101.7656016019
 20
155.9290052054
 30
0.0
 10
102.3744192626
 20
155.9490633074
 30
0.0
 10
103.0261060262
 20
155.9691401821
 30
0.0
 10
103.7147913582
 20
155.9892296507
 30
0.0
 10
104.4342724262
 20
156.0093290414
 30
0.0
 10
105.4362219321
 20
156.036412327
 30
0.0
 10
106.1976354868
 20
156.0562855699
 30
0.0
 10
106.7103674454
 20
156.069608675
 30
0.0
  0
SPLINE
  5
4A7
100
AcDbEntity
  8
0
100
AcDbSpline
 62
7
  6
CONTINUOUS
 70
0
 71
3
 72
10
 73
6
 74
0
 42
0.0000001
 43
0.0000001
 44
0.0000000001
 40
0.0
 40
0.0
 40
0.0
 40
0.0
 40
0.2500490219
 40
0.5000997455
 40
1.0
 40
1.0
 40
1.0
 40
1.0
 10
107.1332107988
 20
166.2900361023
 30
0.0
 10
106.9378599519
 20
166.2900361023
 30
0.0
 10
106.5469499022
 20
166.2733647143
 30
0.0
 10
105.7710776882
 20
166.1765014186
 30
0.0
 10
105.1990353068
 20
166.0410888085
 30
0.0
 10
104.8238097221
 20
165.9327705123
 30
0.0
  0
SPLINE
  5
4A8
100
AcDbEntity
  8
0
100
AcDbSpline
 62
7
  6
CONTINUOUS
 70
0
 71
3
 72
11
 73
7
 74
0
 42
0.0000001
 43
0.0000001
 44
0.0000000001
 40
0.0
 40
0.0
 40
0.0
 40
0.0
 40
0.2616429466
 40
0.5144970929
 40
0.7595947853
 40
1.0
 40
1.0
 40
1.0
 40
1.0
 10
109.4426118756
 20
168.778069974
 30
0.0
 10
109.5349169927
 20
168.8313623582
 30
0.0
 10
109.7206162604
 20
168.929231553
 30
0.0
 10
110.0085538071
 20
169.0445070729
 30
0.0
 10
110.3012343336
 20
169.1182613523
 30
0.0
 10
110.4993792025
 20
169.1353355639
 30
0.0
 10
110.5973124144
 20
169.1353355639
 30
0.0
  0
SPLINE
  5
4A9
100
AcDbEntity
  8
0
100
AcDbSpline
 62
7
  6
CONTINUOUS
 70
0
 71
3
 72
11
 73
7
 74
0
 42
0.0000001
 43
0.0000001
 44
0.0000000001
 40
0.0
 40
0.0
 40
0.0
 40
0.0
 40
0.2404052601
 40
0.485503008
 40
0.7383572234
 40
1.0
 40
1.0
 40
1.0
 40
1.0
 10
110.5973124144
 20
169.1353355639
 30
0.0
 10
110.6952456446
 20
169.1353355639
 30
0.0
 10
110.8933905577
 20
169.1182613627
 30
0.0
 10
111.1860711359
 20
169.0445070062
 30
0.0
 10
111.4740086715
 20
168.9292315143
 30
0.0
 10
111.6597078954
 20
168.8313623235
 30
0.0
 10
111.7520129523
 20
168.778069974
 30
0.0
  0
SPLINE
  5
4AA
100
AcDbEntity
  8
0
100
AcDbSpline
 62
7
  6
CONTINUOUS
 70
0
 71
3
 72
15
 73
11
 74
0
 42
0.0000001
 43
0.0000001
 44
0.0000000001
 40
0.0
 40
0.0
 40
0.0
 40
0.0
 40
0.1308200724
 40
0.2572467341
 40
0.3797970183
 40
0.5000000228
 40
0.620203024
 40
0.7427533002
 40
0.8691799394
 40
1.0
 40
1.0
 40
1.0
 40
1.0
 10
111.7520129523
 20
165.9327705123
 30
0.0
 10
111.6597089053
 20
165.9860622787
 30
0.0
 10
111.4740068992
 20
166.0839305518
 30
0.0
 10
111.1860886871
 20
166.1992075554
 30
0.0
 10
110.8933424486
 20
166.2729590193
 30
0.0
 10
110.5973123617
 20
166.298481349
 30
0.0
 10
110.3012822852
 20
166.2729589865
 30
0.0
 10
110.0085360766
 20
166.1992075218
 30
0.0
 10
109.7206178947
 20
166.0839305359
 30
0.0
 10
109.5349159142
 20
165.9860622739
 30
0.0
 10
109.4426118756
 20
165.9327705123
 30
0.0
  0
SPLINE
  5
4AB
100
AcDbEntity
  8
0
100
AcDbSpline
 62
7
  6
CONTINUOUS
 70
0
 71
3
 72
11
 73
7
 74
0
 42
0.0000001
 43
0.0000001
 44
0.0000000001
 40
0.0
 40
0.0
 40
0.0
 40
0.0
 40
0.2404053342
 40
0.4855030662
 40
0.7383571529
 40
1.0
 40
1.0
 40
1.0
 40
1.0
 10
103.6691091833
 20
169.1353355639
 30
0.0
 10
103.7670424441
 20
169.1353355639
 30
0.0
 10
103.9651873824
 20
169.1182613686
 30
0.0
 10
104.2578679337
 20
169.0445070128
 30
0.0
 10
104.5458054342
 20
168.9292315139
 30
0.0
 10
104.7315046399
 20
168.831362338
 30
0.0
 10
104.8238097221
 20
168.778069974
 30
0.0
  0
SPLINE
  5
4AC
100
AcDbEntity
  8
0
100
AcDbSpline
 62
7
  6
CONTINUOUS
 70
0
 71
3
 72
15
 73
11
 74
0
 42
0.0000001
 43
0.0000001
 44
0.0000000001
 40
0.0
 40
0.0
 40
0.0
 40
0.0
 40
0.1308200724
 40
0.2572467341
 40
0.3797970183
 40
0.5000000228
 40
0.620203024
 40
0.7427533002
 40
0.8691799394
 40
1.0
 40
1.0
 40
1.0
 40
1.0
 10
104.8238097221
 20
165.9327705123
 30
0.0
 10
104.7315056751
 20
165.9860622787
 30
0.0
 10
104.5458036689
 20
166.0839305518
 30
0.0
 10
104.2578854568
 20
166.1992075554
 30
0.0
 10
103.9651392183
 20
166.2729590193
 30
0.0
 10
103.6691091315
 20
166.298481349
 30
0.0
 10
103.3730790549
 20
166.2729589865
 30
0.0
 10
103.0803328464
 20
166.1992075218
 30
0.0
 10
102.7924146644
 20
166.0839305359
 30
0.0
 10
102.6067126839
 20
165.9860622739
 30
0.0
 10
102.5144086453
 20
165.9327705123
 30
0.0
  0
LINE
  5
4AD
100
AcDbEntity
  8
0
100
AcDbLine
 62
7
  6
CONTINUOUS
 10
106.3399491578
 20
163.9353355639
 11
106.3477162343
 21
164.0095917394
  0
SPLINE
  5
4AE
100
AcDbEntity
  8
0
100
AcDbSpline
 62
7
  6
CONTINUOUS
 70
0
 71
3
 72
11
 73
7
 74
0
 42
0.0000001
 43
0.0000001
 44
0.0000000001
 40
0.0
 40
0.0
 40
0.0
 40
0.0
 40
0.2616427032
 40
0.5144968934
 40
0.7595946658
 40
1.0
 40
1.0
 40
1.0
 40
1.0
 10
102.5144086453
 20
168.778069974
 30
0.0
 10
102.6067136765
 20
168.8313623086
 30
0.0
 10
102.7924128621
 20
168.9292314866
 30
0.0
 10
103.0803503677
 20
169.0445069699
 30
0.0
 10
103.3730309669
 20
169.1182613707
 30
0.0
 10
103.5711759227
 20
169.1353355639
 30
0.0
 10
103.6691091833
 20
169.1353355639
 30
0.0
  0
SPLINE
  5
4AF
100
AcDbEntity
  8
0
100
AcDbSpline
 62
7
  6
CONTINUOUS
 70
0
 71
3
 72
9
 73
5
 74
0
 42
0.0000001
 43
0.0000001
 44
0.0000000001
 40
0.0
 40
0.0
 40
0.0
 40
0.0
 40
0.2530239619
 40
1.0
 40
1.0
 40
1.0
 40
1.0
 10
107.1332107988
 20
164.1353355639
 30
0.0
 10
107.193021285
 20
164.1182029055
 30
0.0
 10
107.4296628005
 20
164.0513996038
 30
0.0
 10
107.6667907808
 20
163.9863102155
 30
0.0
 10
107.8432491606
 20
163.9353355639
 30
0.0
  0
SPLINE
  5
4B0
100
AcDbEntity
  8
0
100
AcDbSpline
 62
7
  6
CONTINUOUS
 70
0
 71
3
 72
10
 73
6
 74
0
 42
0.0000001
 43
0.0000001
 44
0.0000000001
 40
0.0
 40
0.0
 40
0.0
 40
0.0
 40
0.4999011814
 40
0.7499517172
 40
1.0
 40
1.0
 40
1.0
 40
1.0
 10
104.8238097221
 20
168.778069974
 30
0.0
 10
105.1990360006
 20
168.8863884704
 30
0.0
 10
105.7710789557
 20
169.0218012577
 30
0.0
 10
106.5469512182
 20
169.1186640807
 30
0.0
 10
106.9378605302
 20
169.1353355639
 30
0.0
 10
107.1332107987
 20
169.1353355639
 30
0.0
  0
SPLINE
  5
4B1
100
AcDbEntity
  8
0
100
AcDbSpline
 62
7
  6
CONTINUOUS
 70
0
 71
3
 72
10
 73
6
 74
0
 42
0.0000001
 43
0.0000001
 44
0.0000000001
 40
0.0
 40
0.0
 40
0.0
 40
0.0
 40
0.2500483041
 40
0.5000988454
 40
1.0
 40
1.0
 40
1.0
 40
1.0
 10
107.1332107987
 20
169.1353355639
 30
0.0
 10
107.3285610839
 20
169.1353355639
 30
0.0
 10
107.7194704172
 20
169.1186640838
 30
0.0
 10
108.4953426784
 20
169.0218012465
 30
0.0
 10
109.067385617
 20
168.8863884647
 30
0.0
 10
109.4426118756
 20
168.778069974
 30
0.0
  0
SPLINE
  5
4B2
100
AcDbEntity
  8
0
100
AcDbSpline
 62
7
  6
CONTINUOUS
 70
0
 71
3
 72
10
 73
6
 74
0
 42
0.0000001
 43
0.0000001
 44
0.0000000001
 40
0.0
 40
0.0
 40
0.0
 40
0.0
 40
0.4999007856
 40
0.7499513904
 40
1.0
 40
1.0
 40
1.0
 40
1.0
 10
109.4426118756
 20
165.9327705123
 30
0.0
 10
109.0673858933
 20
166.0410889233
 30
0.0
 10
108.4953431892
 20
166.1765016167
 30
0.0
 10
107.7194709509
 20
166.2733646709
 30
0.0
 10
107.328561323
 20
166.2900361023
 30
0.0
 10
107.1332107988
 20
166.2900361023
 30
0.0
  0
SPLINE
  5
4B3
100
AcDbEntity
  8
0
100
AcDbSpline
 62
7
  6
CONTINUOUS
 70
0
 71
3
 72
8
 73
4
 74
0
 42
0.0000001
 43
0.0000001
 44
0.0000000001
 40
0.0
 40
0.0
 40
0.0
 40
0.0
 40
1.0
 40
1.0
 40
1.0
 40
1.0
 10
144.6332107988
 20
180.2720106058
 30
0.0
 10
144.6332107988
 20
180.1596293728
 30
0.0
 10
144.6377971716
 20
180.046940765
 30
0.0
 10
144.6509812758
 20
179.9353355639
 30
0.0
  0
SPLINE
  5
4B4
100
AcDbEntity
  8
0
100
AcDbSpline
 62
7
  6
CONTINUOUS
 70
0
 71
3
 72
8
 73
4
 74
0
 42
0.0000001
 43
0.0000001
 44
0.0000000001
 40
0.0
 40
0.0
 40
0.0
 40
0.0
 40
1.0
 40
1.0
 40
1.0
 40
1.0
 10
144.6509812758
 20
182.9353355639
 30
0.0
 10
144.6377971716
 20
182.8237303627
 30
0.0
 10
144.6332107988
 20
182.7110417549
 30
0.0
 10
144.6332107988
 20
182.5986605219
 30
0.0
  0
SPLINE
  5
4B5
100
AcDbEntity
  8
0
100
AcDbSpline
 62
7
  6
CONTINUOUS
 70
0
 71
3
 72
9
 73
5
 74
0
 42
0.0000001
 43
0.0000001
 44
0.0000000001
 40
0.0
 40
0.0
 40
0.0
 40
0.0
 40
0.1879132225
 40
1.0
 40
1.0
 40
1.0
 40
1.0
 10
147.8837661315
 20
42.3353541195
 30
0.0
 10
147.8831674867
 20
42.3353551601
 30
0.0
 10
147.8799728773
 20
42.3361609851
 30
0.0
 10
147.878040824
 20
42.3391996136
 30
0.0
 10
147.8767474077
 20
42.3414401975
 30
0.0
  0
SPLINE
  5
4B6
100
AcDbEntity
  8
GEOM
100
AcDbSpline
 62
7
  6
CONTINUOUS
 70
0
 71
3
 72
9
 73
5
 74
0
 42
0.0000001
 43
0.0000001
 44
0.0000000001
 40
0.0
 40
0.0
 40
0.0
 40
0.0
 40
0.2688205791
 40
1.0
 40
1.0
 40
1.0
 40
1.0
 10
128.8318096371
 20
78.4072346311
 30
0.0
 10
128.8333618502
 20
78.4542778753
 30
0.0
 10
128.8409283081
 20
78.6291979004
 30
0.0
 10
128.8556971214
 20
78.8039172859
 30
0.0
 10
128.8727168766
 20
78.9308059937
 30
0.0
  0
SPLINE
  5
4B7
100
AcDbEntity
  8
GEOM
100
AcDbSpline
 62
7
  6
CONTINUOUS
 70
0
 71
3
 72
15
 73
11
 74
0
 42
0.0000001
 43
0.0000001
 44
0.0000000001
 40
0.0
 40
0.0
 40
0.0
 40
0.0
 40
0.2159042866
 40
0.4072148942
 40
0.5715441188
 40
0.7075199964
 40
0.8146731427
 40
0.8942253289
 40
0.9513131185
 40
1.0
 40
1.0
 40
1.0
 40
1.0
 10
134.0383123958
 20
92.7495491262
 30
0.0
 10
134.028034835
 20
92.7930334108
 30
0.0
 10
134.0098434307
 20
92.8753414138
 30
0.0
 10
133.9887264455
 20
92.9917579395
 30
0.0
 10
133.9756450853
 20
93.0927234017
 30
0.0
 10
133.9706187123
 20
93.1769641184
 30
0.0
 10
133.9737373189
 20
93.2439434703
 30
0.0
 10
133.9845967827
 20
93.2933867929
 30
0.0
 10
134.0055639249
 20
93.3277199536
 30
0.0
 10
134.0282367276
 20
93.3353334582
 30
0.0
 10
134.0383126906
 20
93.3353355639
 30
0.0
  0
SPLINE
  5
4B8
100
AcDbEntity
  8
GEOM
100
AcDbSpline
 62
7
  6
CONTINUOUS
 70
0
 71
3
 72
9
 73
5
 74
0
 42
0.0000001
 43
0.0000001
 44
0.0000000001
 40
0.0
 40
0.0
 40
0.0
 40
0.0
 40
0.2840150017
 40
1.0
 40
1.0
 40
1.0
 40
1.0
 10
129.2590872071
 20
92.7495491262
 30
0.0
 10
129.2540844809
 20
92.7807690619
 30
0.0
 10
129.2373379716
 20
92.8908155932
 30
0.0
 10
129.2237882787
 20
93.0014493317
 30
0.0
 10
129.2181799676
 20
93.0809594364
 30
0.0
  0
SPLINE
  5
4B9
100
AcDbEntity
  8
GEOM
100
AcDbSpline
 62
7
  6
CONTINUOUS
 70
0
 71
3
 72
9
 73
5
 74
0
 42
0.0000001
 43
0.0000001
 44
0.0000000001
 40
0.0
 40
0.0
 40
0.0
 40
0.0
 40
0.5706244777
 40
1.0
 40
1.0
 40
1.0
 40
1.0
 10
129.2181799676
 20
93.0809594364
 30
0.0
 10
129.2157826679
 20
93.1149468061
 30
0.0
 10
129.2127997312
 20
93.1745968767
 30
0.0
 10
129.214961564
 20
93.2344593494
 30
0.0
 10
129.2181799676
 20
93.2598944191
 30
0.0
  0
SPLINE
  5
4BA
100
AcDbEntity
  8
GEOM
100
AcDbSpline
 62
7
  6
CONTINUOUS
 70
0
 71
3
 72
12
 73
8
 74
0
 42
0.0000001
 43
0.0000001
 44
0.0000000001
 40
0.0
 40
0.0
 40
0.0
 40
0.0
 40
0.3631722283
 40
0.5762179452
 40
0.7440031067
 40
0.8780341949
 40
1.0
 40
1.0
 40
1.0
 40
1.0
 10
129.2181799676
 20
93.2598944191
 30
0.0
 10
129.2195823511
 20
93.2709773558
 30
0.0
 10
129.2225399606
 20
93.2885194731
 30
0.0
 10
129.2296536131
 20
93.3103584488
 30
0.0
 10
129.237411723
 20
93.3243315829
 30
0.0
 10
129.247304607
 20
93.333390023
 30
0.0
 10
129.2553354945
 20
93.3353355596
 30
0.0
 10
129.2590872071
 20
93.3353355639
 30
0.0
  0
SPLINE
  5
4BB
100
AcDbEntity
  8
GEOM
100
AcDbSpline
 62
7
  6
CONTINUOUS
 70
0
 71
3
 72
9
 73
5
 74
0
 42
0.0000001
 43
0.0000001
 44
0.0000000001
 40
0.0
 40
0.0
 40
0.0
 40
0.0
 40
0.2839306033
 40
1.0
 40
1.0
 40
1.0
 40
1.0
 10
128.8727168766
 20
92.9380853757
 30
0.0
 10
128.8677099505
 20
92.9755047628
 30
0.0
 10
128.8509500777
 20
93.1073990162
 30
0.0
 10
128.837412877
 20
93.2397864647
 30
0.0
 10
128.8318096371
 20
93.3348337296
 30
0.0
  0
SPLINE
  5
4BC
100
AcDbEntity
  8
GEOM
100
AcDbSpline
 62
7
  6
CONTINUOUS
 70
0
 71
3
 72
13
 73
9
 74
0
 42
0.0000001
 43
0.0000001
 44
0.0000000001
 40
0.0
 40
0.0
 40
0.0
 40
0.0
 40
0.2512799661
 40
0.3758248072
 40
0.4999893575
 40
0.6241557307
 40
0.7487054514
 40
1.0
 40
1.0
 40
1.0
 40
1.0
 10
134.0383114803
 20
78.6906746232
 30
0.0
 10
134.3769865385
 20
79.8365371783
 30
0.0
 10
134.7847611737
 20
81.5836693986
 30
0.0
 10
135.0660656968
 20
83.9463844803
 30
0.0
 10
135.137316231
 20
85.7199680594
 30
0.0
 10
135.0660879573
 20
87.4935759764
 30
0.0
 10
134.7847910124
 20
89.8563940892
 30
0.0
 10
134.3770051378
 20
91.6036197618
 30
0.0
 10
134.0383114803
 20
92.7495491262
 30
0.0
  0
SPLINE
  5
4BD
100
AcDbEntity
  8
GEOM
100
AcDbSpline
 62
7
  6
CONTINUOUS
 70
0
 71
3
 72
9
 73
5
 74
0
 42
0.0000001
 43
0.0000001
 44
0.0000000001
 40
0.0
 40
0.0
 40
0.0
 40
0.0
 40
0.4975358103
 40
1.0
 40
1.0
 40
1.0
 40
1.0
 10
134.0383123699
 20
41.3353355639
 30
0.0
 10
134.1084202002
 20
41.3353357266
 30
0.0
 10
134.2520945454
 20
41.3757896224
 30
0.0
 10
134.3522713773
 20
41.4859710631
 30
0.0
 10
134.3847216418
 20
41.5488991526
 30
0.0
  0
SPLINE
  5
4BE
100
AcDbEntity
  8
GEOM
100
AcDbSpline
 62
7
  6
CONTINUOUS
 70
0
 71
3
 72
10
 73
6
 74
0
 42
0.0000001
 43
0.0000001
 44
0.0000000001
 40
0.0
 40
0.0
 40
0.0
 40
0.0
 40
0.2815702503
 40
0.5460005947
 40
1.0
 40
1.0
 40
1.0
 40
1.0
 10
134.0383114803
 20
41.9211220015
 30
0.0
 10
134.0729550497
 20
41.9160023163
 30
0.0
 10
134.1414492004
 20
41.9124878937
 30
0.0
 10
134.2644581763
 20
41.9309015909
 30
0.0
 10
134.348987169
 20
41.9772217304
 30
0.0
 10
134.3847216418
 20
42.0209411752
 30
0.0
  0
SPLINE
  5
4BF
100
AcDbEntity
  8
GEOM
100
AcDbSpline
 62
7
  6
CONTINUOUS
 70
0
 71
3
 72
9
 73
5
 74
0
 42
0.0000001
 43
0.0000001
 44
0.0000000001
 40
0.0
 40
0.0
 40
0.0
 40
0.0
 40
0.2654957258
 40
1.0
 40
1.0
 40
1.0
 40
1.0
 10
134.0383123699
 20
55.9799966362
 30
0.0
 10
134.0739511515
 20
55.9852635252
 30
0.0
 10
134.2053617976
 20
56.0175649361
 30
0.0
 10
134.3299181538
 20
56.0989547525
 30
0.0
 10
134.3847216418
 20
56.1822018544
 30
0.0
  0
SPLINE
  5
4C0
100
AcDbEntity
  8
GEOM
100
AcDbSpline
 62
7
  6
CONTINUOUS
 70
0
 71
3
 72
9
 73
5
 74
0
 42
0.0000001
 43
0.0000001
 44
0.0000000001
 40
0.0
 40
0.0
 40
0.0
 40
0.0
 40
0.2654956638
 40
1.0
 40
1.0
 40
1.0
 40
1.0
 10
134.0383114803
 20
78.6906746232
 30
0.0
 10
134.0739503536
 20
78.6854078504
 30
0.0
 10
134.2053613984
 20
78.6531067446
 30
0.0
 10
134.3299181614
 20
78.5717166625
 30
0.0
 10
134.3847216418
 20
78.4884692734
 30
0.0
  0
SPLINE
  5
4C1
100
AcDbEntity
  8
GEOM
100
AcDbSpline
 62
7
  6
CONTINUOUS
 70
0
 71
3
 72
10
 73
6
 74
0
 42
0.0000001
 43
0.0000001
 44
0.0000000001
 40
0.0
 40
0.0
 40
0.0
 40
0.0
 40
0.2815700714
 40
0.5460002658
 40
1.0
 40
1.0
 40
1.0
 40
1.0
 10
134.0383123699
 20
92.7495492579
 30
0.0
 10
134.0729558425
 20
92.754668941
 30
0.0
 10
134.1414498093
 20
92.758183351
 30
0.0
 10
134.2644585285
 20
92.7397696065
 30
0.0
 10
134.3489872605
 20
92.693449371
 30
0.0
 10
134.3847216418
 20
92.6497299526
 30
0.0
  0
SPLINE
  5
4C2
100
AcDbEntity
  8
GEOM
100
AcDbSpline
 62
7
  6
CONTINUOUS
 70
0
 71
3
 72
9
 73
5
 74
0
 42
0.0000001
 43
0.0000001
 44
0.0000000001
 40
0.0
 40
0.0
 40
0.0
 40
0.0
 40
0.4975359032
 40
1.0
 40
1.0
 40
1.0
 40
1.0
 10
134.0383114803
 20
93.3353355639
 30
0.0
 10
134.1084194685
 20
93.3353355639
 30
0.0
 10
134.2520942278
 20
93.2948818651
 30
0.0
 10
134.3522713447
 20
93.1847001976
 30
0.0
 10
134.3847216418
 20
93.1217719752
 30
0.0
  0
SPLINE
  5
4C3
100
AcDbEntity
  8
GEOM
100
AcDbSpline
 62
7
  6
CONTINUOUS
 70
0
 71
3
 72
11
 73
7
 74
0
 42
0.0000001
 43
0.0000001
 44
0.0000000001
 40
0.0
 40
0.0
 40
0.0
 40
0.0
 40
0.2502899487
 40
0.5000010146
 40
0.7497105343
 40
1.0
 40
1.0
 40
1.0
 40
1.0
 10
129.2590872071
 20
78.6906746232
 30
0.0
 10
129.4147957957
 20
79.8567010049
 30
0.0
 10
129.6590591553
 20
82.1958132835
 30
0.0
 10
129.786404694
 20
85.7201189464
 30
0.0
 10
129.6590600408
 20
89.2444224311
 30
0.0
 10
129.4147955457
 20
91.5835250015
 30
0.0
 10
129.2590872071
 20
92.7495491262
 30
0.0
  0
SPLINE
  5
4C4
100
AcDbEntity
  8
GEOM
100
AcDbSpline
 62
7
  6
CONTINUOUS
 70
0
 71
3
 72
10
 73
6
 74
0
 42
0.0000001
 43
0.0000001
 44
0.0000000001
 40
0.0
 40
0.0
 40
0.0
 40
0.0
 40
0.5402507206
 40
0.7846635583
 40
1.0
 40
1.0
 40
1.0
 40
1.0
 10
134.0383123958
 20
77.2764610608
 30
0.0
 10
133.9961156656
 20
77.5289536958
 30
0.0
 10
133.9609031589
 20
77.9014228394
 30
0.0
 10
133.9813796351
 20
78.3753489251
 30
0.0
 10
134.0148516099
 20
78.5913726624
 30
0.0
 10
134.0383126906
 20
78.6906746232
 30
0.0
  0
SPLINE
  5
4C5
100
AcDbEntity
  8
GEOM
100
AcDbSpline
 62
7
  6
CONTINUOUS
 70
0
 71
3
 72
9
 73
5
 74
0
 42
0.0000001
 43
0.0000001
 44
0.0000000001
 40
0.0
 40
0.0
 40
0.0
 40
0.0
 40
0.2586881404
 40
1.0
 40
1.0
 40
1.0
 40
1.0
 10
129.2181799676
 20
77.820587161
 30
0.0
 10
129.2168480421
 20
77.8578182653
 30
0.0
 10
129.2128000024
 20
78.001776055
 30
0.0
 10
129.2139724299
 20
78.1458974868
 30
0.0
 10
129.2181799676
 20
78.2525744229
 30
0.0
  0
SPLINE
  5
4C6
100
AcDbEntity
  8
GEOM
100
AcDbSpline
 62
7
  6
CONTINUOUS
 70
0
 71
3
 72
9
 73
5
 74
0
 42
0.0000001
 43
0.0000001
 44
0.0000000001
 40
0.0
 40
0.0
 40
0.0
 40
0.0
 40
0.2686235188
 40
1.0
 40
1.0
 40
1.0
 40
1.0
 10
129.2181799676
 20
78.2525744229
 30
0.0
 10
129.2197332062
 20
78.291954678
 30
0.0
 10
129.2273080516
 20
78.4384613852
 30
0.0
 10
129.2421090937
 20
78.5847230336
 30
0.0
 10
129.2590872071
 20
78.6906746232
 30
0.0
  0
SPLINE
  5
4C7
100
AcDbEntity
  8
GEOM
100
AcDbSpline
 62
7
  6
CONTINUOUS
 70
0
 71
3
 72
13
 73
9
 74
0
 42
0.0000001
 43
0.0000001
 44
0.0000000001
 40
0.0
 40
0.0
 40
0.0
 40
0.0
 40
0.2499613786
 40
0.3749757132
 40
0.4999910085
 40
0.6250088913
 40
0.750029338
 40
1.0
 40
1.0
 40
1.0
 40
1.0
 10
134.0383114803
 20
57.3942100669
 30
0.0
 10
134.3797122298
 20
59.0277476352
 30
0.0
 10
134.7864898228
 20
61.5031521899
 30
0.0
 10
135.0662461175
 20
64.8308476785
 30
0.0
 10
135.1372667277
 20
67.3351722367
 30
0.0
 10
135.0662584591
 20
69.8395379831
 30
0.0
 10
134.7865103856
 20
73.1673547303
 30
0.0
 10
134.3797236994
 20
75.6428625706
 30
0.0
 10
134.0383114803
 20
77.2764610608
 30
0.0
  0
SPLINE
  5
4C8
100
AcDbEntity
  8
GEOM
100
AcDbSpline
 62
7
  6
CONTINUOUS
 70
0
 71
3
 72
11
 73
7
 74
0
 42
0.0000001
 43
0.0000001
 44
0.0000000001
 40
0.0
 40
0.0
 40
0.0
 40
0.0
 40
0.2500024306
 40
0.5000009903
 40
0.7499980129
 40
1.0
 40
1.0
 40
1.0
 40
1.0
 10
129.2590872071
 20
57.3942100669
 30
0.0
 10
129.4150741743
 20
59.0461684615
 30
0.0
 10
129.6592985454
 20
62.357044065
 30
0.0
 10
129.7863338297
 20
67.3353451029
 30
0.0
 10
129.6592993083
 20
72.3136432535
 30
0.0
 10
129.4150739407
 20
75.6245056012
 30
0.0
 10
129.2590872071
 20
77.2764610608
 30
0.0
  0
SPLINE
  5
4C9
100
AcDbEntity
  8
GEOM
100
AcDbSpline
 62
7
  6
CONTINUOUS
 70
0
 71
3
 72
10
 73
6
 74
0
 42
0.0000001
 43
0.0000001
 44
0.0000000001
 40
0.0
 40
0.0
 40
0.0
 40
0.0
 40
0.2151491653
 40
0.4593894084
 40
1.0
 40
1.0
 40
1.0
 40
1.0
 10
134.0383123958
 20
55.9799965046
 30
0.0
 10
134.0148644512
 20
56.079210363
 30
0.0
 10
133.9814020153
 20
56.2950622448
 30
0.0
 10
133.9608865792
 20
56.7689865198
 30
0.0
 10
133.996101076
 20
57.1415470889
 30
0.0
 10
134.0383126906
 20
57.3942100669
 30
0.0
  0
SPLINE
  5
4CA
100
AcDbEntity
  8
GEOM
100
AcDbSpline
 62
7
  6
CONTINUOUS
 70
0
 71
3
 72
9
 73
5
 74
0
 42
0.0000001
 43
0.0000001
 44
0.0000000001
 40
0.0
 40
0.0
 40
0.0
 40
0.0
 40
0.2304971974
 40
1.0
 40
1.0
 40
1.0
 40
1.0
 10
129.2590875184
 20
55.9799943828
 30
0.0
 10
129.2537366692
 20
56.0133868702
 30
0.0
 10
129.233289856
 20
56.1587007183
 30
0.0
 10
129.2226296239
 20
56.3052831916
 30
0.0
 10
129.2181799676
 20
56.4180967048
 30
0.0
  0
SPLINE
  5
4CB
100
AcDbEntity
  8
GEOM
100
AcDbSpline
 62
7
  6
CONTINUOUS
 70
0
 71
3
 72
9
 73
5
 74
0
 42
0.0000001
 43
0.0000001
 44
0.0000000001
 40
0.0
 40
0.0
 40
0.0
 40
0.0
 40
0.2404848418
 40
1.0
 40
1.0
 40
1.0
 40
1.0
 10
129.2181799676
 20
56.4180967048
 30
0.0
 10
129.2168150237
 20
56.452703403
 30
0.0
 10
129.212531559
 20
56.5966622345
 30
0.0
 10
129.2142693446
 20
56.740771748
 30
0.0
 10
129.2181799676
 20
56.8500839668
 30
0.0
  0
SPLINE
  5
4CC
100
AcDbEntity
  8
GEOM
100
AcDbSpline
 62
7
  6
CONTINUOUS
 70
0
 71
3
 72
13
 73
9
 74
0
 42
0.0000001
 43
0.0000001
 44
0.0000000001
 40
0.0
 40
0.0
 40
0.0
 40
0.0
 40
0.2512806587
 40
0.3758263914
 40
0.499992533
 40
0.624160583
 40
0.7487101201
 40
1.0
 40
1.0
 40
1.0
 40
1.0
 10
134.0383114803
 20
41.9211220015
 30
0.0
 10
134.3769874606
 20
43.0669877357
 30
0.0
 10
134.784763118
 20
44.8141274622
 30
0.0
 10
135.0660690365
 20
47.176857754
 30
0.0
 10
135.1373141748
 20
48.9504614507
 30
0.0
 10
135.0660826769
 20
50.724083825
 30
0.0
 10
134.7847861394
 20
53.0868869478
 30
0.0
 10
134.3769992269
 20
54.834088525
 30
0.0
 10
134.0383114803
 20
55.9799965046
 30
0.0
  0
SPLINE
  5
4CD
100
AcDbEntity
  8
GEOM
100
AcDbSpline
 62
7
  6
CONTINUOUS
 70
0
 71
3
 72
11
 73
7
 74
0
 42
0.0000001
 43
0.0000001
 44
0.0000000001
 40
0.0
 40
0.0
 40
0.0
 40
0.0
 40
0.2502899291
 40
0.5000009947
 40
0.7497105232
 40
1.0
 40
1.0
 40
1.0
 40
1.0
 10
129.2590872298
 20
41.9211221861
 30
0.0
 10
129.4147957852
 20
43.0871482839
 30
0.0
 10
129.6590592091
 20
45.4262600735
 30
0.0
 10
129.7864046322
 20
48.950565109
 30
0.0
 10
129.6590601338
 20
52.4748681042
 30
0.0
 10
129.4147957858
 20
54.8139703982
 30
0.0
 10
129.2590874677
 20
55.9799943828
 30
0.0
  0
SPLINE
  5
4CE
100
AcDbEntity
  8
GEOM
100
AcDbSpline
 62
7
  6
CONTINUOUS
 70
0
 71
3
 72
15
 73
11
 74
0
 42
0.0000001
 43
0.0000001
 44
0.0000000001
 40
0.0
 40
0.0
 40
0.0
 40
0.0
 40
0.0486725342
 40
0.1056868185
 40
0.1851308364
 40
0.2921646971
 40
0.42809572
 40
0.5925367906
 40
0.784041874
 40
1.0
 40
1.0
 40
1.0
 40
1.0
 10
134.0383123958
 20
41.3353355639
 30
0.0
 10
134.0282390297
 20
41.3353373187
 30
0.0
 10
134.005566771
 20
41.3428940388
 30
0.0
 10
133.9846235556
 20
41.3772112874
 30
0.0
 10
133.9737653119
 20
41.4265833802
 30
0.0
 10
133.9706137648
 20
41.4935102561
 30
0.0
 10
133.9756174515
 20
41.5777443416
 30
0.0
 10
133.9887090359
 20
41.6787676052
 30
0.0
 10
134.0098447179
 20
41.7952605515
 30
0.0
 10
134.0280352628
 20
41.8776245392
 30
0.0
 10
134.0383126906
 20
41.9211220015
 30
0.0
  0
SPLINE
  5
4CF
100
AcDbEntity
  8
GEOM
100
AcDbSpline
 62
7
  6
CONTINUOUS
 70
0
 71
3
 72
10
 73
6
 74
0
 42
0.0000001
 43
0.0000001
 44
0.0000000001
 40
0.0
 40
0.0
 40
0.0
 40
0.0
 40
0.1636026177
 40
0.4874897185
 40
1.0
 40
1.0
 40
1.0
 40
1.0
 10
129.2590872071
 20
41.3353355639
 30
0.0
 10
129.2540809547
 20
41.3353356036
 30
0.0
 10
129.2389274847
 20
41.3408856832
 30
0.0
 10
129.2245980041
 20
41.3704106771
 30
0.0
 10
129.2201487
 20
41.3952179177
 30
0.0
 10
129.2181799676
 20
41.4107767087
 30
0.0
  0
SPLINE
  5
4D0
100
AcDbEntity
  8
GEOM
100
AcDbSpline
 62
7
  6
CONTINUOUS
 70
0
 71
3
 72
9
 73
5
 74
0
 42
0.0000001
 43
0.0000001
 44
0.0000000001
 40
0.0
 40
0.0
 40
0.0
 40
0.0
 40
0.4293389624
 40
1.0
 40
1.0
 40
1.0
 40
1.0
 10
129.2181799676
 20
41.4107767087
 30
0.0
 10
129.2149618483
 20
41.4362096145
 30
0.0
 10
129.2127996151
 20
41.4960720465
 30
0.0
 10
129.2157824927
 20
41.5557221448
 30
0.0
 10
129.2181799676
 20
41.5897116913
 30
0.0
  0
SPLINE
  5
4D1
100
AcDbEntity
  8
0
100
AcDbSpline
 62
7
  6
CONTINUOUS
 70
0
 71
3
 72
9
 73
5
 74
0
 42
0.0000001
 43
0.0000001
 44
0.0000000001
 40
0.0
 40
0.0
 40
0.0
 40
0.0
 40
0.3178386208
 40
1.0
 40
1.0
 40
1.0
 40
1.0
 10
144.8837665698
 20
92.3353355639
 30
0.0
 10
144.8870691845
 20
92.3353355639
 30
0.0
 10
144.8941643386
 20
92.32459189
 30
0.0
 10
144.8965592981
 20
92.3155535199
 30
0.0
 10
144.8984450665
 20
92.3087207302
 30
0.0
  0
SPLINE
  5
4D2
100
AcDbEntity
  8
0
100
AcDbSpline
 62
7
  6
CONTINUOUS
 70
0
 71
3
 72
29
 73
25
 74
0
 42
0.0000001
 43
0.0000001
 44
0.0000000001
 40
0.0
 40
0.0
 40
0.0
 40
0.0
 40
0.0013830698
 40
0.0035170967
 40
0.0064050514
 40
0.0100451632
 40
0.0144327533
 40
0.0195626318
 40
0.032025057
 40
0.0473674607
 40
0.0655125902
 40
0.0863643874
 40
0.1098163381
 40
0.1357447995
 40
0.1640167271
 40
0.2269869077
 40
0.2974173166
 40
0.3738429712
 40
0.4546735802
 40
0.5382275499
 40
0.622767211
 40
0.7065336314
 40
0.8648257685
 40
1.0
 40
1.0
 40
1.0
 40
1.0
 10
144.8984450665
 20
92.3087207302
 30
0.0
 10
144.9036774276
 20
92.2897620811
 30
0.0
 10
144.9120993122
 20
92.2403181228
 30
0.0
 10
144.9231294364
 20
92.1499551903
 30
0.0
 10
144.9341917009
 20
92.0272363072
 30
0.0
 10
144.9454665584
 20
91.8724310919
 30
0.0
 10
144.9567824543
 20
91.6856636325
 30
0.0
 10
144.9730122871
 20
91.3735274862
 30
0.0
 10
144.9926757268
 20
90.9055939397
 30
0.0
 10
145.0152409509
 20
90.2525670241
 30
0.0
 10
145.03789581
 20
89.4801837116
 30
0.0
 10
145.0606374963
 20
88.5924424385
 30
0.0
 10
145.0834220001
 20
87.5939900641
 30
0.0
 10
145.1062461533
 20
86.4899988483
 30
0.0
 10
145.1378534991
 20
84.8241171251
 30
0.0
 10
145.1767163182
 20
82.5254389813
 30
0.0
 10
145.2220028398
 20
79.5420250954
 30
0.0
 10
145.267379228
 20
76.3046081135
 30
0.0
 10
145.3128177696
 20
72.880556226
 30
0.0
 10
145.3582883721
 20
69.3411127807
 30
0.0
 10
145.4037687218
 20
65.7599185478
 30
0.0
 10
145.4632862976
 20
61.1160299986
 30
0.0
 10
145.5350388238
 20
55.7522110322
 30
0.0
 10
145.5991587901
 20
51.5795624613
 30
0.0
 10
145.6337659215
 20
49.6576786572
 30
0.0
  0
SPLINE
  5
4D3
100
AcDbEntity
  8
GEOM
100
AcDbSpline
 62
7
  6
CONTINUOUS
 70
0
 71
3
 72
9
 73
5
 74
0
 42
0.0000001
 43
0.0000001
 44
0.0000000001
 40
0.0
 40
0.0
 40
0.0
 40
0.0
 40
0.2148097415
 40
1.0
 40
1.0
 40
1.0
 40
1.0
 10
129.2181799676
 20
41.5897116913
 30
0.0
 10
129.2198626242
 20
41.6135670737
 30
0.0
 10
129.2296151512
 20
41.7244847491
 30
0.0
 10
129.245255983
 20
41.8348085432
 30
0.0
 10
129.2590872351
 20
41.9211221861
 30
0.0
  0
SPLINE
  5
4D4
100
AcDbEntity
  8
0
100
AcDbSpline
 62
7
  6
CONTINUOUS
 70
0
 71
3
 72
9
 73
5
 74
0
 42
0.0000001
 43
0.0000001
 44
0.0000000001
 40
0.0
 40
0.0
 40
0.0
 40
0.0
 40
0.3151363513
 40
1.0
 40
1.0
 40
1.0
 40
1.0
 10
142.8837661271
 20
92.3353355639
 30
0.0
 10
142.8872092319
 20
92.3353355639
 30
0.0
 10
142.8944822238
 20
92.3238221759
 30
0.0
 10
142.8969288407
 20
92.3143720602
 30
0.0
 10
142.8988668385
 20
92.3071447286
 30
0.0
  0
SPLINE
  5
4D5
100
AcDbEntity
  8
0
100
AcDbSpline
 62
7
  6
CONTINUOUS
 70
0
 71
3
 72
45
 73
41
 74
0
 42
0.0000001
 43
0.0000001
 44
0.0000000001
 40
0.0
 40
0.0
 40
0.0
 40
0.0
 40
0.0017414942
 40
0.0046187992
 40
0.0086327039
 40
0.0137747427
 40
0.0200341014
 40
0.0273980702
 40
0.0453669996
 40
0.0675188533
 40
0.0936491559
 40
0.1235175849
 40
0.1568504817
 40
0.193340548
 40
0.2326518661
 40
0.3182688889
 40
0.4105542985
 40
0.5061186797
 40
0.601448371
 40
0.6930415091
 40
0.7363763921
 40
0.7775330366
 40
0.816131813
 40
0.8518176949
 40
0.8842628524
 40
0.9131677632
 40
0.9382667974
 40
0.9493163278
 40
0.9593304291
 40
0.9682863199
 40
0.9761644976
 40
0.9829458513
 40
0.9886152944
 40
0.9931615598
 40
0.9950102248
 40
0.9965744949
 40
0.9978542551
 40
0.9988499792
 40
0.9995632992
 40
1.0
 40
1.0
 40
1.0
 40
1.0
 10
142.8988668385
 20
92.3071447286
 30
0.0
 10
142.9063815689
 20
92.2791202131
 30
0.0
 10
142.9172447863
 20
92.2026481177
 30
0.0
 10
142.9319779593
 20
92.0597164946
 30
0.0
 10
142.9464894557
 20
91.8596692229
 30
0.0
 10
142.9614851184
 20
91.6033027182
 30
0.0
 10
142.9764905354
 20
91.2910032731
 30
0.0
 10
142.9980884361
 20
90.765098777
 30
0.0
 10
143.0241973827
 20
89.9743857437
 30
0.0
 10
143.054150021
 20
88.8709997074
 30
0.0
 10
143.0842377931
 20
87.5692984742
 30
0.0
 10
143.1144438429
 20
86.0812741174
 30
0.0
 10
143.1447125523
 20
84.4206179325
 30
0.0
 10
143.1750317289
 20
82.6026137891
 30
0.0
 10
143.2166921385
 20
79.9135880386
 30
0.0
 10
143.267814117
 20
76.2950088429
 30
0.0
 10
143.3277420401
 20
71.7392469593
 30
0.0
 10
143.3877351912
 20
67.0216523908
 30
0.0
 10
143.4477308771
 20
62.3155926345
 30
0.0
 10
143.4985376639
 20
58.4796677792
 30
0.0
 10
143.5398169462
 20
55.5462595193
 30
0.0
 10
143.5701855742
 20
53.4957102351
 30
0.0
 10
143.6005275288
 20
51.5726131897
 30
0.0
 10
143.6308352273
 20
49.7946746128
 30
0.0
 10
143.661088054
 20
48.1782671746
 30
0.0
 10
143.6912726381
 20
46.7382772995
 30
0.0
 10
143.7173081075
 20
45.6547488535
 30
0.0
 10
143.7384811391
 20
44.8859359832
 30
0.0
 10
143.7536623509
 20
44.3860185937
 30
0.0
 10
143.7688187119
 20
43.9389641349
 30
0.0
 10
143.783939532
 20
43.5458033161
 30
0.0
 10
143.799000091
 20
43.2074390119
 30
0.0
 10
143.813995725
 20
42.9246511371
 30
0.0
 10
143.8270855329
 20
42.7240625699
 30
0.0
 10
143.837918018
 20
42.5919009504
 30
0.0
 10
143.8454313871
 20
42.5140652695
 30
0.0
 10
143.8529196349
 20
42.4505529826
 30
0.0
 10
143.8602252364
 20
42.4012147643
 30
0.0
 10
143.8675228179
 20
42.3663383902
 30
0.0
 10
143.8731150025
 20
42.3477315545
 30
0.0
 10
143.8767479179
 20
42.3414277058
 30
0.0
  0
SPLINE
  5
4D6
100
AcDbEntity
  8
0
100
AcDbSpline
 62
7
  6
CONTINUOUS
 70
0
 71
3
 72
9
 73
5
 74
0
 42
0.0000001
 43
0.0000001
 44
0.0000000001
 40
0.0
 40
0.0
 40
0.0
 40
0.0
 40
0.1908262137
 40
1.0
 40
1.0
 40
1.0
 40
1.0
 10
147.2396613725
 20
92.3292435726
 30
0.0
 10
147.240403565
 20
92.3279541162
 30
0.0
 10
147.2438348464
 20
92.3209365075
 30
0.0
 10
147.2460584177
 20
92.3134086464
 30
0.0
 10
147.247696805
 20
92.3073162818
 30
0.0
  0
SPLINE
  5
4D7
100
AcDbEntity
  8
0
100
AcDbSpline
 62
7
  6
CONTINUOUS
 70
0
 71
3
 72
47
 73
43
 74
0
 42
0.0000001
 43
0.0000001
 44
0.0000000001
 40
0.0
 40
0.0
 40
0.0
 40
0.0
 40
0.0017544606
 40
0.0046610365
 40
0.0087203925
 40
0.0139238339
 40
0.020260362
 40
0.0277167976
 40
0.0459145842
 40
0.0683498761
 40
0.0948130033
 40
0.1250568536
 40
0.1588001434
 40
0.1957273298
 40
0.2354931898
 40
0.3220341208
 40
0.4151966567
 40
0.5115083778
 40
0.6073789261
 40
0.6540276265
 40
0.6992346432
 40
0.7425772167
 40
0.7836510012
 40
0.8220724994
 40
0.8574820927
 40
0.8895498309
 40
0.9179766395
 40
0.9307396732
 40
0.9424962573
 40
0.9532185751
 40
0.9628808816
 40
0.971462036
 40
0.9789416014
 40
0.9853017323
 40
0.9905294213
 40
0.9946126475
 40
0.9962222972
 40
0.9975435674
 40
0.9985767367
 40
0.9993231491
 40
0.9997878457
 40
1.0
 40
1.0
 40
1.0
 40
1.0
 10
147.247696805
 20
92.3073162818
 30
0.0
 10
147.2552893552
 20
92.279083285
 30
0.0
 10
147.2662207563
 20
92.2018879033
 30
0.0
 10
147.2810752736
 20
92.0574775253
 30
0.0
 10
147.2956840564
 20
91.8551223706
 30
0.0
 10
147.3107868336
 20
91.5956430136
 30
0.0
 10
147.3258959353
 20
91.2794347915
 30
0.0
 10
147.3476507241
 20
90.746791762
 30
0.0
 10
147.3739485936
 20
89.9458526976
 30
0.0
 10
147.404115719
 20
88.8281765971
 30
0.0
 10
147.4344192988
 20
87.5097055509
 30
0.0
 10
147.4648429453
 20
86.0027608014
 30
0.0
 10
147.4953296013
 20
84.3214137834
 30
0.0
 10
147.5258667494
 20
82.48137078
 30
0.0
 10
147.5678154594
 20
79.7615853006
 30
0.0
 10
147.6192871778
 20
76.1047396033
 30
0.0
 10
147.6796359085
 20
71.5056563408
 30
0.0
 10
147.7400511512
 20
66.7510936714
 30
0.0
 10
147.7908378627
 20
62.771571322
 30
0.0
 10
147.8320456734
 20
59.6435980881
 30
0.0
 10
147.8626612658
 20
57.3908803642
 30
0.0
 10
147.8932627129
 20
55.2310709477
 30
0.0
 10
147.9238441751
 20
53.1843460431
 30
0.0
 10
147.9543978157
 20
51.2698304142
 30
0.0
 10
147.9849115357
 20
49.5054100243
 30
0.0
 10
148.0153738958
 20
47.9075660763
 30
0.0
 10
148.0415359595
 20
46.6870902967
 30
0.0
 10
148.0627410695
 20
45.8050527117
 30
0.0
 10
148.0780560026
 20
45.2179852224
 30
0.0
 10
148.0933542939
 20
44.6826063153
 30
0.0
 10
148.1086347577
 20
44.2001658553
 30
0.0
 10
148.1238840949
 20
43.771789877
 30
0.0
 10
148.1390912159
 20
43.3984822766
 30
0.0
 10
148.1542311045
 20
43.0810949408
 30
0.0
 10
148.1692677727
 20
42.8204054869
 30
0.0
 10
148.1824686693
 20
42.6388417641
 30
0.0
 10
148.1934105422
 20
42.5225415671
 30
0.0
 10
148.201036494
 20
42.4567607677
 30
0.0
 10
148.2081981084
 20
42.405997028
 30
0.0
 10
148.2160423991
 20
42.3683940983
 30
0.0
 10
148.2217574963
 20
42.3472881518
 30
0.0
 10
148.2291206733
 20
42.335335562
 30
0.0
 10
148.2326559783
 20
42.3353412658
 30
0.0
  0
SPLINE
  5
4D8
100
AcDbEntity
  8
GEOM
100
AcDbSpline
 62
7
  6
CONTINUOUS
 70
0
 71
3
 72
11
 73
7
 74
0
 42
0.0000001
 43
0.0000001
 44
0.0000000001
 40
0.0
 40
0.0
 40
0.0
 40
0.0
 40
0.2500491568
 40
0.4996680853
 40
0.7494657624
 40
1.0
 40
1.0
 40
1.0
 40
1.0
 10
128.8727168766
 20
78.9308059937
 30
0.0
 10
129.0283848194
 20
80.0913694273
 30
0.0
 10
129.2727122714
 20
82.4202931494
 30
0.0
 10
129.4000640133
 20
85.9306031146
 30
0.0
 10
129.2725461154
 20
89.4431731238
 30
0.0
 10
129.0283151936
 20
91.7752207325
 30
0.0
 10
128.8727168766
 20
92.9380853757
 30
0.0
  0
SPLINE
  5
4D9
100
AcDbEntity
  8
0
100
AcDbSpline
 62
7
  6
CONTINUOUS
 70
0
 71
3
 72
24
 73
20
 74
0
 42
0.0000001
 43
0.0000001
 44
0.0000000001
 40
0.0
 40
0.0
 40
0.0
 40
0.0
 40
0.001520781
 40
0.0047976778
 40
0.0100510033
 40
0.0173187505
 40
0.0266096919
 40
0.0379245242
 40
0.0666140357
 40
0.1033448105
 40
0.1480268659
 40
0.2005572515
 40
0.2608215543
 40
0.3286641708
 40
0.4039187579
 40
0.4864129654
 40
0.575951157
 40
0.7753340849
 40
1.0
 40
1.0
 40
1.0
 40
1.0
 10
144.983210621
 20
43.635358285
 30
0.0
 10
144.9796862808
 20
43.6353531906
 30
0.0
 10
144.9721722774
 20
43.6468453369
 30
0.0
 10
144.9663440363
 20
43.6676610841
 30
0.0
 10
144.9583820768
 20
43.7043366002
 30
0.0
 10
144.9511080852
 20
43.7539931348
 30
0.0
 10
144.9433664423
 20
43.8182721163
 30
0.0
 10
144.9322584674
 20
43.9319095371
 30
0.0
 10
144.9188518501
 20
44.1092936746
 30
0.0
 10
144.9035875763
 20
44.3639791946
 30
0.0
 10
144.8882174733
 20
44.6740173533
 30
0.0
 10
144.872774907
 20
45.0386356249
 30
0.0
 10
144.857293792
 20
45.4569707162
 30
0.0
 10
144.8417809998
 20
45.9279975091
 30
0.0
 10
144.8262473487
 20
46.4505657708
 30
0.0
 10
144.8106998271
 20
47.0234321625
 30
0.0
 10
144.7891725369
 20
47.8839023155
 30
0.0
 10
144.762616112
 20
49.0738236326
 30
0.0
 10
144.7430983067
 20
50.0563452522
 30
0.0
 10
144.7332107988
 20
50.5769048498
 30
0.0
  0
SPLINE
  5
4DA
100
AcDbEntity
  8
0
100
AcDbSpline
 62
7
  6
CONTINUOUS
 70
0
 71
3
 72
55
 73
51
 74
0
 42
0.0000001
 43
0.0000001
 44
0.0000000001
 40
0.0
 40
0.0
 40
0.0
 40
0.0
 40
0.0000996084
 40
0.0002667637
 40
0.0008146549
 40
0.0016518174
 40
0.0027794421
 40
0.0041977113
 40
0.0059064843
 40
0.0079052443
 40
0.0101927158
 40
0.0156280214
 40
0.0222007208
 40
0.0298972066
 40
0.03869878
 40
0.0485858053
 40
0.0595367216
 40
0.0715250949
 40
0.084523708
 40
0.1134308942
 40
0.1459908877
 40
0.1819013651
 40
0.2208287648
 40
0.2624088061
 40
0.3062520998
 40
0.3519480513
 40
0.3990666847
 40
0.4957831274
 40
0.592747536
 40
0.686279199
 40
0.7306349267
 40
0.7728120446
 40
0.8124036098
 40
0.8490280287
 40
0.8823308766
 40
0.9119878817
 40
0.9377115307
 40
0.9490185078
 40
0.9592509863
 40
0.9683830624
 40
0.9763935968
 40
0.9832621129
 40
0.9889711862
 40
0.9935080904
 40
0.9953332238
 40
0.9968610009
 40
0.9980909209
 40
0.9990229972
 40
0.9996579888
 40
1.0
 40
1.0
 40
1.0
 40
1.0
 10
148.7920567102
 20
92.1764896525
 30
0.0
 10
148.7932084215
 20
92.1753379412
 30
0.0
 10
148.7950471235
 20
92.1712150903
 30
0.0
 10
148.79871957
 20
92.1585134519
 30
0.0
 10
148.8026724648
 20
92.1332782547
 30
0.0
 10
148.8073583655
 20
92.0925326776
 30
0.0
 10
148.8120266552
 20
92.0373726952
 30
0.0
 10
148.8167941029
 20
91.9679765494
 30
0.0
 10
148.821574459
 20
91.8842914758
 30
0.0
 10
148.8263830533
 20
91.786381892
 30
0.0
 10
148.8332103504
 20
91.6275636262
 30
0.0
 10
148.8415485593
 20
91.393955
 30
0.0
 10
148.8511394454
 20
91.0718949627
 30
0.0
 10
148.8607616677
 20
90.6947710197
 30
0.0
 10
148.8704151851
 20
90.2634378935
 30
0.0
 10
148.8800889373
 20
89.7788780184
 30
0.0
 10
148.8897784567
 20
89.2421996157
 30
0.0
 10
148.8994828079
 20
88.6546342412
 30
0.0
 10
148.9129161687
 20
87.7734758314
 30
0.0
 10
148.9295050575
 20
86.5559467921
 30
0.0
 10
148.9488412517
 20
84.9637749216
 30
0.0
 10
148.9682250022
 20
83.2077453111
 30
0.0
 10
148.9876482678
 20
81.3042149441
 30
0.0
 10
149.0071037296
 20
79.2709636944
 30
0.0
 10
149.02658689
 20
77.1270306989
 30
0.0
 10
149.0460940974
 20
74.8925290304
 30
0.0
 10
149.0723597389
 20
71.7934883757
 30
0.0
 10
149.1047635912
 20
67.8561440115
 30
0.0
 10
149.143385734
 20
63.1598938677
 30
0.0
 10
149.1761209309
 20
59.3198102133
 30
0.0
 10
149.202758034
 20
56.3755722391
 30
0.0
 10
149.2223860726
 20
54.3133187271
 30
0.0
 10
149.2420127491
 20
52.3774911717
 30
0.0
 10
149.261631968
 20
50.5867807965
 30
0.0
 10
149.2812300922
 20
48.9585274898
 30
0.0
 10
149.3007988474
 20
47.5085341474
 30
0.0
 10
149.3176936106
 20
46.4182084973
 30
0.0
 10
149.3314496237
 20
45.6454991019
 30
0.0
 10
149.3413096781
 20
45.1440644514
 30
0.0
 10
149.3511570984
 20
44.696543249
 30
0.0
 10
149.3609847412
 20
44.3040435132
 30
0.0
 10
149.3707709745
 20
43.9675327142
 30
0.0
 10
149.3805193349
 20
43.6878531347
 30
0.0
 10
149.3890310045
 20
43.490642134
 30
0.0
 10
149.3961128047
 20
43.3618330046
 30
0.0
 10
149.4009754203
 20
43.28703102
 30
0.0
 10
149.4058874782
 20
43.2269500211
 30
0.0
 10
149.4104725273
 20
43.1813034474
 30
0.0
 10
149.4153921812
 20
43.1507271639
 30
0.0
 10
149.4186482663
 20
43.1346998717
 30
0.0
 10
149.4214378928
 20
43.129852852
 30
0.0
  0
SPLINE
  5
4DB
100
AcDbEntity
  8
0
100
AcDbSpline
 62
7
  6
CONTINUOUS
 70
0
 71
3
 72
29
 73
25
 74
0
 42
0.0000001
 43
0.0000001
 44
0.0000000001
 40
0.0
 40
0.0
 40
0.0
 40
0.0
 40
0.0008971513
 40
0.0023839157
 40
0.0044726246
 40
0.0071668168
 40
0.0104663368
 40
0.0143692074
 40
0.0239750485
 40
0.0359624767
 40
0.0502984628
 40
0.0669412767
 40
0.0858470897
 40
0.1069607499
 40
0.130222119
 40
0.1829235423
 40
0.2433534186
 40
0.3108266631
 40
0.384579768
 40
0.4637770353
 40
0.547519068
 40
0.6348582051
 40
0.8163297573
 40
1.0
 40
1.0
 40
1.0
 40
1.0
 10
141.1258069178
 20
43.6417719192
 30
0.0
 10
141.1217093159
 20
43.6488714632
 30
0.0
 10
141.1155417739
 20
43.6701016275
 30
0.0
 10
141.1074366962
 20
43.7099999728
 30
0.0
 10
141.0993535211
 20
43.7668133759
 30
0.0
 10
141.0910472568
 20
43.8401649528
 30
0.0
 10
141.0827177483
 20
43.930221564
 30
0.0
 10
141.0706951755
 20
44.0833231516
 30
0.0
 10
141.0561694813
 20
44.3158412926
 30
0.0
 10
141.0395344462
 20
44.6437033751
 30
0.0
 10
141.0228245961
 20
45.0359301056
 30
0.0
 10
141.0060437584
 20
45.4914135224
 30
0.0
 10
140.9892298821
 20
46.0088597599
 30
0.0
 10
140.9723850474
 20
46.5868062266
 30
0.0
 10
140.9489114031
 20
47.4734747937
 30
0.0
 10
140.9200557045
 20
48.7193507094
 30
0.0
 10
140.8865734277
 20
50.369178998
 30
0.0
 10
140.8530156263
 20
52.2113883456
 30
0.0
 10
140.8193990545
 20
54.2250981181
 30
0.0
 10
140.7857453222
 20
56.3874727918
 30
0.0
 10
140.7520632087
 20
58.6739954009
 30
0.0
 10
140.7065509017
 20
61.8949150023
 30
0.0
 10
140.6506400862
 20
66.0288127463
 30
0.0
 10
140.6060288478
 20
69.3647806225
 30
0.0
 10
140.5832107456
 20
71.0428031844
 30
0.0
  0
SPLINE
  5
4DC
100
AcDbEntity
  8
0
100
AcDbSpline
 62
7
  6
CONTINUOUS
 70
0
 71
3
 72
47
 73
43
 74
0
 42
0.0000001
 43
0.0000001
 44
0.0000000001
 40
0.0
 40
0.0
 40
0.0
 40
0.0
 40
0.0002185648
 40
0.0006863555
 40
0.0014347483
 40
0.0024694453
 40
0.0037920885
 40
0.0054031419
 40
0.0094893024
 40
0.0147197241
 40
0.0210828176
 40
0.0285657665
 40
0.0371504532
 40
0.0468165206
 40
0.0575429367
 40
0.0693039406
 40
0.0820715334
 40
0.1105082961
 40
0.1425865378
 40
0.1780075431
 40
0.2164406936
 40
0.2575260286
 40
0.3008804264
 40
0.3460986816
 40
0.3927578447
 40
0.4886466358
 40
0.5849708459
 40
0.6781383576
 40
0.7646746371
 40
0.8044351403
 40
0.8413534955
 40
0.875085238
 40
0.905315984
 40
0.9317621918
 40
0.9541780581
 40
0.9723554043
 40
0.9797994641
 40
0.9861245199
 40
0.9913161828
 40
0.9953621038
 40
0.9982566338
 40
1.0
 40
1.0
 40
1.0
 40
1.0
 10
146.9832106358
 20
43.6353359902
 30
0.0
 10
146.9797576919
 20
43.6353341804
 30
0.0
 10
146.9723548402
 20
43.6464484261
 30
0.0
 10
146.9665962985
 20
43.6667267358
 30
0.0
 10
146.9587551596
 20
43.7023013804
 30
0.0
 10
146.9515845495
 20
43.7504961548
 30
0.0
 10
146.9439582985
 20
43.8128647402
 30
0.0
 10
146.9330135928
 20
43.9231680056
 30
0.0
 10
146.9198112064
 20
44.0953574802
 30
0.0
 10
146.9047699208
 20
44.3425982777
 30
0.0
 10
146.8896268798
 20
44.6436036255
 30
0.0
 10
146.8744168771
 20
44.9976434449
 30
0.0
 10
146.8591642339
 20
45.4039074026
 30
0.0
 10
146.8438805467
 20
45.8614419867
 30
0.0
 10
146.8285791217
 20
46.3691816128
 30
0.0
 10
146.8132611922
 20
46.9259394946
 30
0.0
 10
146.792051618
 20
47.7624320031
 30
0.0
 10
146.7658846054
 20
48.91987625
 30
0.0
 10
146.7354156064
 20
50.4351935286
 30
0.0
 10
146.704895984
 20
52.1084641703
 30
0.0
 10
146.6743361404
 20
53.9240520656
 30
0.0
 10
146.6437481575
 20
55.8649898197
 30
0.0
 10
146.6131408018
 20
57.9131326673
 30
0.0
 10
146.5825189225
 20
60.0493414797
 30
0.0
 10
146.5413031329
 20
63.0154357005
 30
0.0
 10
146.4905071541
 20
66.7888598539
 30
0.0
 10
146.4300799061
 20
71.296972122
 30
0.0
 10
146.3697200961
 20
75.657318296
 30
0.0
 10
146.3182362251
 20
79.1240927134
 30
0.0
 10
146.2762788733
 20
81.7022679746
 30
0.0
 10
146.2457354886
 20
83.4462971048
 30
0.0
 10
146.215242051
 20
85.0397487842
 30
0.0
 10
146.1848144163
 20
86.4677263626
 30
0.0
 10
146.1545053071
 20
87.7168917406
 30
0.0
 10
146.124328967
 20
88.7755695481
 30
0.0
 10
146.0980352046
 20
89.5340341416
 30
0.0
 10
146.0762678915
 20
90.0382605569
 30
0.0
 10
146.0611525843
 20
90.3374432702
 30
0.0
 10
146.0460471396
 20
90.5828122063
 30
0.0
 10
146.0314390263
 20
90.7740229359
 30
0.0
 10
146.0165959639
 20
90.9102480425
 30
0.0
 10
146.0056906077
 20
90.9830272691
 30
0.0
 10
145.9980756637
 20
91.0094958039
 30
0.0
  0
SPLINE
  5
4DD
100
AcDbEntity
  8
0
100
AcDbSpline
 62
7
  6
CONTINUOUS
 70
0
 71
3
 72
9
 73
5
 74
0
 42
0.0000001
 43
0.0000001
 44
0.0000000001
 40
0.0
 40
0.0
 40
0.0
 40
0.0
 40
0.3052146263
 40
1.0
 40
1.0
 40
1.0
 40
1.0
 10
145.9980756637
 20
91.0094958039
 30
0.0
 10
145.9974898196
 20
91.0115321202
 30
0.0
 10
145.9954527139
 20
91.0181577389
 30
0.0
 10
145.9930279009
 20
91.0247411679
 30
0.0
 10
145.9906137828
 20
91.0289170273
 30
0.0
  0
SPLINE
  5
4DE
100
AcDbEntity
  8
GEOM
100
AcDbSpline
 62
7
  6
CONTINUOUS
 70
0
 71
3
 72
11
 73
7
 74
0
 42
0.0000001
 43
0.0000001
 44
0.0000000001
 40
0.0
 40
0.0
 40
0.0
 40
0.0
 40
0.1455546804
 40
0.3401841434
 40
0.6210691228
 40
1.0
 40
1.0
 40
1.0
 40
1.0
 10
128.8727168766
 20
41.0322217829
 30
0.0
 10
128.8676250667
 20
41.032156606
 30
0.0
 10
128.8556161964
 20
41.0374613519
 30
0.0
 10
128.8447001662
 20
41.0570599224
 30
0.0
 10
128.8364254005
 20
41.0857508275
 30
0.0
 10
128.8332067118
 20
41.1087161256
 30
0.0
 10
128.8318096371
 20
41.1218991924
 30
0.0
  0
SPLINE
  5
4DF
100
AcDbEntity
  8
0
100
AcDbSpline
 62
7
  6
CONTINUOUS
 70
0
 71
3
 72
49
 73
45
 74
0
 42
0.0000001
 43
0.0000001
 44
0.0000000001
 40
0.0
 40
0.0
 40
0.0
 40
0.0
 40
0.0002189819
 40
0.0006874888
 40
0.0014371807
 40
0.0024740827
 40
0.0038001184
 40
0.0054154665
 40
0.0095109824
 40
0.0147529311
 40
0.0211315804
 40
0.02863172
 40
0.0372354637
 40
0.0469242934
 40
0.0576749868
 40
0.0694617461
 40
0.0822583313
 40
0.1107567077
 40
0.1429038689
 40
0.1783977716
 40
0.2169069643
 40
0.2580707859
 40
0.3015030142
 40
0.3467975356
 40
0.3935298225
 40
0.4895470214
 40
0.5859654226
 40
0.6791804957
 40
0.7657080482
 40
0.805439783
 40
0.8423135887
 40
0.8759830784
 40
0.906133641
 40
0.9324837053
 40
0.9547854859
 40
0.9643525509
 40
0.9728319811
 40
0.9802055641
 40
0.9864561783
 40
0.9915685235
 40
0.9955332069
 40
0.99834338
 40
0.9993149788
 40
1.0
 40
1.0
 40
1.0
 40
1.0
 10
148.9832112359
 20
43.6353544055
 30
0.0
 10
148.9797514012
 20
43.6353605276
 30
0.0
 10
148.9723470635
 20
43.6464913809
 30
0.0
 10
148.9665732302
 20
43.6668099439
 30
0.0
 10
148.9587254858
 20
43.7024537779
 30
0.0
 10
148.9515445331
 20
43.7507617383
 30
0.0
 10
148.9439109179
 20
43.8132924939
 30
0.0
 10
148.932955762
 20
43.9238751018
 30
0.0
 10
148.9197345121
 20
44.0964773073
 30
0.0
 10
148.9046726336
 20
44.3443155724
 30
0.0
 10
148.8895150578
 20
44.6460472024
 30
0.0
 10
148.8742852737
 20
45.0009366923
 30
0.0
 10
148.8590121893
 20
45.4081687841
 30
0.0
 10
148.8437122212
 20
45.8667881291
 30
0.0
 10
148.828391713
 20
46.3757226773
 30
0.0
 10
148.8130536461
 20
46.9337782124
 30
0.0
 10
148.7918209242
 20
47.7721830544
 30
0.0
 10
148.7656198144
 20
48.9322498055
 30
0.0
 10
148.7351156956
 20
50.4509149323
 30
0.0
 10
148.7045582556
 20
52.1277752525
 30
0.0
 10
148.6739609872
 20
53.9471165359
 30
0.0
 10
148.643336588
 20
55.8918966775
 30
0.0
 10
148.6126916375
 20
57.9438948791
 30
0.0
 10
148.5820326152
 20
60.0838820709
 30
0.0
 10
148.540770277
 20
63.0546269566
 30
0.0
 10
148.4899176069
 20
66.8330561115
 30
0.0
 10
148.4294200148
 20
71.3458341313
 30
0.0
 10
148.3689902168
 20
75.7086661273
 30
0.0
 10
148.3174412982
 20
79.1759046479
 30
0.0
 10
148.2754242063
 20
81.7530100275
 30
0.0
 10
148.2448466347
 20
83.495050264
 30
0.0
 10
148.2143165577
 20
85.0856868811
 30
0.0
 10
148.1838605281
 20
86.5100201694
 30
0.0
 10
148.1535009792
 20
87.7547032261
 30
0.0
 10
148.1271889256
 20
88.6741709327
 30
0.0
 10
148.1056781844
 20
89.3112986316
 30
0.0
 10
148.0904055147
 20
89.712637748
 30
0.0
 10
148.0751878357
 20
90.0615398302
 30
0.0
 10
148.060022057
 20
90.3571813742
 30
0.0
 10
148.0450290592
 20
90.5989075972
 30
0.0
 10
148.0301091402
 20
90.7861117378
 30
0.0
 10
148.0171724487
 20
90.9079003181
 30
0.0
 10
148.0058282021
 20
90.977550077
 30
0.0
 10
148.0001086516
 20
91.0031532346
 30
0.0
 10
147.9968744474
 20
91.0134818096
 30
0.0
  0
SPLINE
  5
4E0
100
AcDbEntity
  8
0
100
AcDbSpline
 62
7
  6
CONTINUOUS
 70
0
 71
3
 72
9
 73
5
 74
0
 42
0.0000001
 43
0.0000001
 44
0.0000000001
 40
0.0
 40
0.0
 40
0.0
 40
0.0
 40
0.298152576
 40
1.0
 40
1.0
 40
1.0
 40
1.0
 10
147.9968744474
 20
91.0134818096
 30
0.0
 10
147.996379901
 20
91.0150611656
 30
0.0
 10
147.9946329159
 20
91.0203237209
 30
0.0
 10
147.9925630841
 20
91.0255230711
 30
0.0
 10
147.9906145191
 20
91.0288965374
 30
0.0
  0
SPLINE
  5
4E1
100
AcDbEntity
  8
0
100
AcDbSpline
 62
7
  6
CONTINUOUS
 70
0
 71
3
 72
9
 73
5
 74
0
 42
0.0000001
 43
0.0000001
 44
0.0000000001
 40
0.0
 40
0.0
 40
0.0
 40
0.0
 40
0.3697502926
 40
1.0
 40
1.0
 40
1.0
 40
1.0
 10
143.1258077062
 20
43.6417722951
 30
0.0
 10
143.1211433565
 20
43.6498445724
 30
0.0
 10
143.1144648637
 20
43.6746097914
 30
0.0
 10
143.1096965899
 20
43.6992028488
 30
0.0
 10
143.1071238203
 20
43.7148844699
 30
0.0
  0
SPLINE
  5
4E2
100
AcDbEntity
  8
0
100
AcDbSpline
 62
7
  6
CONTINUOUS
 70
0
 71
3
 72
45
 73
41
 74
0
 42
0.0000001
 43
0.0000001
 44
0.0000000001
 40
0.0
 40
0.0
 40
0.0
 40
0.0
 40
0.002549444
 40
0.0062265524
 40
0.0110258216
 40
0.0169390019
 40
0.0320490188
 40
0.0514226941
 40
0.0748827256
 40
0.1022162013
 40
0.1331744532
 40
0.167473724
 40
0.2448178509
 40
0.3314297152
 40
0.4241530725
 40
0.5196082046
 40
0.6143157157
 40
0.6603056969
 40
0.7048236308
 40
0.7474622474
 40
0.7878326696
 40
0.825566487
 40
0.8603181348
 40
0.8917714375
 40
0.9196391906
 40
0.932147178
 40
0.9436662153
 40
0.9541706028
 40
0.9636351262
 40
0.9720389957
 40
0.9793639773
 40
0.9855923286
 40
0.9907108786
 40
0.994709921
 40
0.9962869672
 40
0.9975814739
 40
0.9985940138
 40
0.999326442
 40
0.999784665
 40
1.0
 40
1.0
 40
1.0
 40
1.0
 10
143.1071238203
 20
43.7148844699
 30
0.0
 10
143.1006106213
 20
43.7545839134
 30
0.0
 10
143.0893766999
 20
43.8522664428
 30
0.0
 10
143.0747145453
 20
44.0256230627
 30
0.0
 10
143.0599295099
 20
44.2522274004
 30
0.0
 10
143.0381726239
 20
44.6591246868
 30
0.0
 10
143.0122188063
 20
45.2960810312
 30
0.0
 10
142.9825302845
 20
46.2099511283
 30
0.0
 10
142.9526700896
 20
47.3167908646
 30
0.0
 10
142.9226441695
 20
48.606484086
 30
0.0
 10
142.8925357096
 20
50.0672596596
 30
0.0
 10
142.8506140856
 20
52.3171216673
 30
0.0
 10
142.7994298571
 20
55.4451708623
 30
0.0
 10
142.7398697056
 20
59.4951292159
 30
0.0
 10
142.6801708724
 20
63.8309056481
 30
0.0
 10
142.6204005557
 20
68.294441598
 30
0.0
 10
142.5701333708
 20
72.0205869849
 30
0.0
 10
142.52935569
 20
74.9429987937
 30
0.0
 10
142.4990808173
 20
77.0438307239
 30
0.0
 10
142.4688200147
 20
79.0559767822
 30
0.0
 10
142.4385790355
 20
80.9610572455
 30
0.0
 10
142.4083659619
 20
82.7416653276
 30
0.0
 10
142.3781919459
 20
84.3815404816
 30
0.0
 10
142.3480695195
 20
85.8657014619
 30
0.0
 10
142.3221961086
 20
86.9988692284
 30
0.0
 10
142.3012262689
 20
87.8174999143
 30
0.0
 10
142.2860816996
 20
88.3621949999
 30
0.0
 10
142.2709547707
 20
88.8588447541
 30
0.0
 10
142.2558459566
 20
89.306312496
 30
0.0
 10
142.2407655271
 20
89.7035796458
 30
0.0
 10
142.225728718
 20
90.0497373607
 30
0.0
 10
142.2107598739
 20
90.3440095087
 30
0.0
 10
142.1958877775
 20
90.5856982986
 30
0.0
 10
142.1828343274
 20
90.7540090267
 30
0.0
 10
142.1720163507
 20
90.861832268
 30
0.0
 10
142.1644780257
 20
90.9227911606
 30
0.0
 10
142.1573853715
 20
90.9699017443
 30
0.0
 10
142.1496384898
 20
91.0046405187
 30
0.0
 10
142.1439265337
 20
91.0245148162
 30
0.0
 10
142.1366087357
 20
91.0353207745
 30
0.0
 10
142.133210758
 20
91.0353269407
 30
0.0
  0
SPLINE
  5
4E3
100
AcDbEntity
  8
GEOM
100
AcDbSpline
 62
7
  6
CONTINUOUS
 70
0
 71
3
 72
9
 73
5
 74
0
 42
0.0000001
 43
0.0000001
 44
0.0000000001
 40
0.0
 40
0.0
 40
0.0
 40
0.0
 40
0.2105921425
 40
1.0
 40
1.0
 40
1.0
 40
1.0
 10
128.8318096371
 20
41.1218991924
 30
0.0
 10
128.830782912
 20
41.13688674
 30
0.0
 10
128.8274555725
 20
41.2081632364
 30
0.0
 10
128.8292956635
 20
41.2795808176
 30
0.0
 10
128.8318096371
 20
41.3358373981
 30
0.0
  0
SPLINE
  5
4E4
100
AcDbEntity
  8
GEOM
100
AcDbSpline
 62
7
  6
CONTINUOUS
 70
0
 71
3
 72
11
 73
7
 74
0
 42
0.0000001
 43
0.0000001
 44
0.0000000001
 40
0.0
 40
0.0
 40
0.0
 40
0.0
 40
0.2500024277
 40
0.5000009974
 40
0.7499980185
 40
1.0
 40
1.0
 40
1.0
 40
1.0
 10
128.8727168766
 20
57.4306933269
 30
0.0
 10
129.0286298355
 20
59.0765595942
 30
0.0
 10
129.2728701262
 20
62.3752582549
 30
0.0
 10
129.3999925395
 20
67.335345133
 30
0.0
 10
129.2728709028
 20
72.2954291185
 30
0.0
 10
129.0286295798
 20
75.5941144736
 30
0.0
 10
128.8727168766
 20
77.2399778009
 30
0.0
  0
SPLINE
  5
4E5
100
AcDbEntity
  8
0
100
AcDbSpline
 62
7
  6
CONTINUOUS
 70
0
 71
3
 72
22
 73
18
 74
0
 42
0.0000001
 43
0.0000001
 44
0.0000000001
 40
0.0
 40
0.0
 40
0.0
 40
0.0
 40
0.0030586425
 40
0.0079750874
 40
0.0147893645
 40
0.0235110274
 40
0.0466776995
 40
0.077456655
 40
0.1157924552
 40
0.1615947698
 40
0.2147683559
 40
0.2751993699
 40
0.3427395365
 40
0.4172363154
 40
0.586434952
 40
0.7813293095
 40
1.0
 40
1.0
 40
1.0
 40
1.0
 10
145.1258071812
 20
43.6417560947
 30
0.0
 10
145.1222644462
 20
43.6478840521
 30
0.0
 10
145.1166761137
 20
43.6657275392
 30
0.0
 10
145.1094409876
 20
43.6990798944
 30
0.0
 10
145.102169616
 20
43.7459199596
 30
0.0
 10
145.0912067454
 20
43.8347912457
 30
0.0
 10
145.0782938041
 20
43.979290803
 30
0.0
 10
145.0635265803
 20
44.1923307045
 30
0.0
 10
145.0486771996
 20
44.4578689642
 30
0.0
 10
145.0337161728
 20
44.77528506
 30
0.0
 10
145.0187116978
 20
45.14388319
 30
0.0
 10
145.0036725478
 20
45.5628210113
 30
0.0
 10
144.9886070084
 20
46.031132695
 30
0.0
 10
144.9675954656
 20
46.7510908939
 30
0.0
 10
144.9417573887
 20
47.7657532336
 30
0.0
 10
144.9118027589
 20
49.1140583784
 30
0.0
 10
144.8928209687
 20
50.0709466008
 30
0.0
 10
144.8832107988
 20
50.5769048498
 30
0.0
  0
SPLINE
  5
4E6
100
AcDbEntity
  8
0
100
AcDbSpline
 62
7
  6
CONTINUOUS
 70
0
 71
3
 72
23
 73
19
 74
0
 42
0.0000001
 43
0.0000001
 44
0.0000000001
 40
0.0
 40
0.0
 40
0.0
 40
0.0
 40
0.2190102674
 40
0.4141242874
 40
0.5834786291
 40
0.6580248606
 40
0.725589524
 40
0.7860094226
 40
0.8391524331
 40
0.884901917
 40
0.9231506414
 40
0.9538236126
 40
0.9662992967
 40
0.9768583227
 40
0.9854984641
 40
0.9922231802
 40
0.9970438678
 40
1.0
 40
1.0
 40
1.0
 40
1.0
 10
145.6337659215
 20
49.6576786572
 30
0.0
 10
145.6433914983
 20
49.1231287384
 30
0.0
 10
145.6623995083
 20
48.1123677872
 30
0.0
 10
145.6924004721
 20
46.6883245336
 30
0.0
 10
145.7182790894
 20
45.6169341934
 30
0.0
 10
145.7393257684
 20
44.8568918594
 30
0.0
 10
145.7544131842
 20
44.3627136035
 30
0.0
 10
145.7694764777
 20
43.9208096778
 30
0.0
 10
145.7845073259
 20
43.5321936584
 30
0.0
 10
145.799475359
 20
43.1977425552
 30
0.0
 10
145.8143793151
 20
42.9182084035
 30
0.0
 10
145.8273900382
 20
42.719917813
 30
0.0
 10
145.8381551301
 20
42.5892532585
 30
0.0
 10
145.845621968
 20
42.5122780277
 30
0.0
 10
145.8530644525
 20
42.4494535887
 30
0.0
 10
145.8603279797
 20
42.4006360766
 30
0.0
 10
145.8675809029
 20
42.3661043172
 30
0.0
 10
145.8731435441
 20
42.3476766538
 30
0.0
 10
145.8767478347
 20
42.3414248615
 30
0.0
  0
SPLINE
  5
4E7
100
AcDbEntity
  8
0
100
AcDbSpline
 62
7
  6
CONTINUOUS
 70
0
 71
3
 72
9
 73
5
 74
0
 42
0.0000001
 43
0.0000001
 44
0.0000000001
 40
0.0
 40
0.0
 40
0.0
 40
0.0
 40
0.315484767
 40
1.0
 40
1.0
 40
1.0
 40
1.0
 10
146.2326552449
 20
42.3353355639
 30
0.0
 10
146.2292306733
 20
42.3353355639
 30
0.0
 10
146.2219803293
 20
42.3467464469
 30
0.0
 10
146.2195407098
 20
42.3561424257
 30
0.0
 10
146.2176095514
 20
42.3633174631
 30
0.0
  0
SPLINE
  5
4E8
100
AcDbEntity
  8
0
100
AcDbSpline
 62
7
  6
CONTINUOUS
 70
0
 71
3
 72
45
 73
41
 74
0
 42
0.0000001
 43
0.0000001
 44
0.0000000001
 40
0.0
 40
0.0
 40
0.0
 40
0.0
 40
0.0017374572
 40
0.0046108333
 40
0.0086209639
 40
0.0137594195
 40
0.0200154246
 40
0.0273763328
 40
0.0453397639
 40
0.0674869195
 40
0.0936130572
 40
0.1234782431
 40
0.1568090322
 40
0.1932973965
 40
0.2326073654
 40
0.3182234995
 40
0.4105111572
 40
0.5060788974
 40
0.6014147551
 40
0.6930149584
 40
0.7363534181
 40
0.7775136585
 40
0.8161158443
 40
0.8518050037
 40
0.8842532423
 40
0.9131608215
 40
0.9382620823
 40
0.949312437
 40
0.9593273513
 40
0.968283848
 40
0.9761625271
 40
0.9829444051
 40
0.9886143083
 40
0.9931609571
 40
0.9950097886
 40
0.9965742038
 40
0.9978540819
 40
0.9988498955
 40
0.9995632745
 40
1.0
 40
1.0
 40
1.0
 40
1.0
 10
146.2176095514
 20
42.3633174631
 30
0.0
 10
146.2100861049
 20
42.3912701224
 30
0.0
 10
146.1992288152
 20
42.4676122063
 30
0.0
 10
146.1844936891
 20
42.6103456976
 30
0.0
 10
146.1699845072
 20
42.8102064996
 30
0.0
 10
146.1549874099
 20
43.0663948757
 30
0.0
 10
146.1399812508
 20
43.3785290404
 30
0.0
 10
146.1183810556
 20
43.9042370153
 30
0.0
 10
146.0922701494
 20
44.6947324714
 30
0.0
 10
146.0623158983
 20
45.7978838551
 30
0.0
 10
146.0322262496
 20
47.0993889253
 30
0.0
 10
146.0020184251
 20
48.5872610997
 30
0.0
 10
145.9717479303
 20
50.2478069014
 30
0.0
 10
145.9414268273
 20
52.0657329007
 30
0.0
 10
145.8997640529
 20
54.7547045772
 30
0.0
 10
145.848639186
 20
58.3732995277
 30
0.0
 10
145.7887084424
 20
62.9291596664
 30
0.0
 10
145.7287121323
 20
67.6469707369
 30
0.0
 10
145.6687131963
 20
72.3533272098
 30
0.0
 10
145.617903517
 20
76.1895486548
 30
0.0
 10
145.5766218583
 20
79.1232067857
 30
0.0
 10
145.5462514789
 20
81.1739412228
 30
0.0
 10
145.5159076522
 20
83.0972178837
 30
0.0
 10
145.4855981804
 20
84.8753268745
 30
0.0
 10
145.4553436615
 20
86.4918916848
 30
0.0
 10
145.4251570661
 20
87.9320206553
 30
0.0
 10
145.3991204859
 20
89.0156490707
 30
0.0
 10
145.3779461973
 20
89.7845296285
 30
0.0
 10
145.3627645545
 20
90.2844865549
 30
0.0
 10
145.3476074879
 20
90.7315749365
 30
0.0
 10
145.3324859742
 20
91.1247646311
 30
0.0
 10
145.3174252612
 20
91.4631551701
 30
0.0
 10
145.3024295119
 20
91.7459670817
 30
0.0
 10
145.2893391677
 20
91.9465733506
 30
0.0
 10
145.2785056264
 20
92.0787470798
 30
0.0
 10
145.2709911553
 20
92.1565901847
 30
0.0
 10
145.2635016842
 20
92.2201085259
 30
0.0
 10
145.2561950688
 20
92.2694512856
 30
0.0
 10
145.2488968591
 20
92.304330658
 30
0.0
 10
145.2433047462
 20
92.322938976
 30
0.0
 10
145.2396720156
 20
92.3292434414
 30
0.0
  0
SPLINE
  5
4E9
100
AcDbEntity
  8
0
100
AcDbSpline
 62
7
  6
CONTINUOUS
 70
0
 71
3
 72
9
 73
5
 74
0
 42
0.0000001
 43
0.0000001
 44
0.0000000001
 40
0.0
 40
0.0
 40
0.0
 40
0.0
 40
0.3231279378
 40
1.0
 40
1.0
 40
1.0
 40
1.0
 10
144.232655242
 20
42.3353355639
 30
0.0
 10
144.2296062654
 20
42.3353355639
 30
0.0
 10
144.222866844
 20
42.3447314992
 30
0.0
 10
144.220558489
 20
42.3530187738
 30
0.0
 10
144.2187696589
 20
42.359149992
 30
0.0
  0
SPLINE
  5
4EA
100
AcDbEntity
  8
0
100
AcDbSpline
 62
7
  6
CONTINUOUS
 70
0
 71
3
 72
18
 73
14
 74
0
 42
0.0000001
 43
0.0000001
 44
0.0000000001
 40
0.0
 40
0.0
 40
0.0
 40
0.0
 40
0.0107841026
 40
0.0288141854
 40
0.0541023257
 40
0.0866014484
 40
0.1262510453
 40
0.1729733081
 40
0.2872150812
 40
0.4283574799
 40
0.5951805545
 40
0.7863067698
 40
1.0
 40
1.0
 40
1.0
 40
1.0
 10
144.2187696589
 20
42.359149992
 30
0.0
 10
144.2114155485
 20
42.3843562187
 30
0.0
 10
144.2009927786
 20
42.4540623919
 30
0.0
 10
144.1867474636
 20
42.584854139
 30
0.0
 10
144.1727683647
 20
42.7690281494
 30
0.0
 10
144.1582807921
 20
43.005793894
 30
0.0
 10
144.1437946488
 20
43.2948753936
 30
0.0
 10
144.122918836
 20
43.7828800742
 30
0.0
 10
144.097699637
 20
44.5180306208
 30
0.0
 10
144.0687705283
 20
45.545614578
 30
0.0
 10
144.0397095047
 20
46.7604588368
 30
0.0
 10
144.0105353671
 20
48.1519890479
 30
0.0
 10
143.9920217658
 20
49.1374701512
 30
0.0
 10
143.9826550889
 20
49.6576860236
 30
0.0
  0
SPLINE
  5
4EB
100
AcDbEntity
  8
GEOM
100
AcDbSpline
 62
7
  6
CONTINUOUS
 70
0
 71
3
 72
9
 73
5
 74
0
 42
0.0000001
 43
0.0000001
 44
0.0000000001
 40
0.0
 40
0.0
 40
0.0
 40
0.0
 40
0.2891859892
 40
1.0
 40
1.0
 40
1.0
 40
1.0
 10
128.8318096371
 20
93.3348337296
 30
0.0
 10
128.8308887061
 20
93.3554411054
 30
0.0
 10
128.8282974998
 20
93.4267100191
 30
0.0
 10
128.8283445621
 20
93.4981873588
 30
0.0
 10
128.8318096371
 20
93.5487719353
 30
0.0
  0
SPLINE
  5
4EC
100
AcDbEntity
  8
0
100
AcDbSpline
 62
7
  6
CONTINUOUS
 70
0
 71
3
 72
33
 73
29
 74
0
 42
0.0000001
 43
0.0000001
 44
0.0000000001
 40
0.0
 40
0.0
 40
0.0
 40
0.0
 40
0.1366554712
 40
0.2145916139
 40
0.2967665332
 40
0.381436898
 40
0.4668027898
 40
0.5510510565
 40
0.6323929288
 40
0.7091007663
 40
0.7795450198
 40
0.8119450952
 40
0.8422299293
 40
0.870239819
 40
0.8958244661
 40
0.9188493817
 40
0.9391913819
 40
0.9567433654
 40
0.9714118503
 40
0.9776405643
 40
0.9831202394
 40
0.9878446247
 40
0.9918082742
 40
0.9950060595
 40
0.997434639
 40
0.9990951599
 40
0.9996401298
 40
1.0
 40
1.0
 40
1.0
 40
1.0
 10
143.9826550889
 20
49.6576860236
 30
0.0
 10
143.9476536874
 20
51.6016287799
 30
0.0
 10
143.9008199946
 20
54.6543680424
 30
0.0
 10
143.8421144624
 20
58.8761874422
 30
0.0
 10
143.7962279884
 20
62.358499333
 30
0.0
 10
143.7502844784
 20
65.9465250707
 30
0.0
 10
143.7043408815
 20
69.5640517557
 30
0.0
 10
143.6584076871
 20
73.1342187712
 30
0.0
 10
143.6125120661
 20
76.5811939621
 30
0.0
 10
143.5666761448
 20
79.8317559116
 30
0.0
 10
143.5275619303
 20
82.3860257148
 30
0.0
 10
143.4958568212
 20
84.2798481623
 30
0.0
 10
143.4727589414
 20
85.5699967976
 30
0.0
 10
143.4496840927
 20
86.7631631086
 30
0.0
 10
143.4266351969
 20
87.8530190167
 30
0.0
 10
143.4036258163
 20
88.8337545769
 30
0.0
 10
143.3806756821
 20
89.7001727245
 30
0.0
 10
143.3578022301
 20
90.4476546187
 30
0.0
 10
143.3379375231
 20
90.9943328435
 30
0.0
 10
143.3216795363
 20
91.3692580758
 30
0.0
 10
143.3101807208
 20
91.6027719664
 30
0.0
 10
143.2987301127
 20
91.8040229897
 30
0.0
 10
143.2873152514
 20
91.9727362526
 30
0.0
 10
143.276074786
 20
92.1087485648
 30
0.0
 10
143.2648559913
 20
92.2117662849
 30
0.0
 10
143.255219061
 20
92.2771391426
 30
0.0
 10
143.2465710094
 20
92.312553194
 30
0.0
 10
143.2422336659
 20
92.3248087815
 30
0.0
 10
143.2396764635
 20
92.3292444823
 30
0.0
  0
LINE
  5
4ED
100
AcDbEntity
  8
GEOM
100
AcDbLine
 62
7
  6
CONTINUOUS
 10
135.4600057181
 20
41.5353355639
 11
134.3847216418
 21
41.5488991526
  0
SPLINE
  5
4EE
100
AcDbEntity
  8
GEOM
100
AcDbSpline
 62
7
  6
CONTINUOUS
 70
0
 71
3
 72
15
 73
11
 74
0
 42
0.0000001
 43
0.0000001
 44
0.0000000001
 40
0.0
 40
0.0
 40
0.0
 40
0.0
 40
0.0581012978
 40
0.1191813738
 40
0.1986057968
 40
0.3037601382
 40
0.4371022824
 40
0.5987003296
 40
0.7872336542
 40
1.0
 40
1.0
 40
1.0
 40
1.0
 10
134.3847216418
 20
41.5488991526
 30
0.0
 10
134.3748223242
 20
41.5490189459
 30
0.0
 10
134.3537638535
 20
41.5543128449
 30
0.0
 10
134.3314209508
 20
41.5819258387
 30
0.0
 10
134.3202150945
 20
41.622816077
 30
0.0
 10
134.3170111631
 20
41.677099022
 30
0.0
 10
134.3220582591
 20
41.7452203643
 30
0.0
 10
134.33519475
 20
41.8266121884
 30
0.0
 10
134.356341167
 20
41.9202125968
 30
0.0
 10
134.374483489
 20
41.9861629924
 30
0.0
 10
134.3847216418
 20
42.0209411752
 30
0.0
  0
SPLINE
  5
4EF
100
AcDbEntity
  8
GEOM
100
AcDbSpline
 62
7
  6
CONTINUOUS
 70
0
 71
3
 72
13
 73
9
 74
0
 42
0.0000001
 43
0.0000001
 44
0.0000000001
 40
0.0
 40
0.0
 40
0.0
 40
0.0
 40
0.250790247
 40
0.37520686
 40
0.4993379438
 40
0.6235641531
 40
0.7482538809
 40
1.0
 40
1.0
 40
1.0
 40
1.0
 10
134.3847216418
 20
42.0209411752
 30
0.0
 10
134.7239216751
 20
43.1730223372
 30
0.0
 10
135.1317120424
 20
44.9301271234
 30
0.0
 10
135.4125969562
 20
47.3066833774
 30
0.0
 10
135.4836916094
 20
49.092331482
 30
0.0
 10
135.4125090004
 20
50.8792789295
 30
0.0
 10
135.1313853516
 20
53.2621836914
 30
0.0
 10
134.7236865809
 20
55.0252808395
 30
0.0
 10
134.3847216418
 20
56.1822018544
 30
0.0
  0
SPLINE
  5
4F0
100
AcDbEntity
  8
GEOM
100
AcDbSpline
 62
7
  6
CONTINUOUS
 70
0
 71
3
 72
10
 73
6
 74
0
 42
0.0000001
 43
0.0000001
 44
0.0000000001
 40
0.0
 40
0.0
 40
0.0
 40
0.0
 40
0.2158937743
 40
0.4600571115
 40
1.0
 40
1.0
 40
1.0
 40
1.0
 10
134.3847216418
 20
56.1822018544
 30
0.0
 10
134.3614845698
 20
56.2615318309
 30
0.0
 10
134.3278932326
 20
56.4353689796
 30
0.0
 10
134.3072224268
 20
56.8183806306
 30
0.0
 10
134.3426921943
 20
57.1193915992
 30
0.0
 10
134.3847216418
 20
57.3218121075
 30
0.0
  0
SPLINE
  5
4F1
100
AcDbEntity
  8
GEOM
100
AcDbSpline
 62
7
  6
CONTINUOUS
 70
0
 71
3
 72
11
 73
7
 74
0
 42
0.0000001
 43
0.0000001
 44
0.0000000001
 40
0.0
 40
0.0
 40
0.0
 40
0.0
 40
0.2500084112
 40
0.4999911152
 40
0.7499823939
 40
1.0
 40
1.0
 40
1.0
 40
1.0
 10
134.3847216418
 20
57.3218121075
 30
0.0
 10
134.7265007781
 20
58.9675087763
 30
0.0
 10
135.2690492361
 20
62.2909094354
 30
0.0
 10
135.5554738183
 20
67.3352132783
 30
0.0
 10
135.2690684194
 20
72.3795805846
 30
0.0
 10
134.7265125931
 20
75.7031016687
 30
0.0
 10
134.3847216418
 20
77.3488590203
 30
0.0
  0
SPLINE
  5
4F2
100
AcDbEntity
  8
GEOM
100
AcDbSpline
 62
7
  6
CONTINUOUS
 70
0
 71
3
 72
10
 73
6
 74
0
 42
0.0000001
 43
0.0000001
 44
0.0000000001
 40
0.0
 40
0.0
 40
0.0
 40
0.0
 40
0.5395606486
 40
0.7839062604
 40
1.0
 40
1.0
 40
1.0
 40
1.0
 10
134.3847216418
 20
77.3488590203
 30
0.0
 10
134.3427200882
 20
77.5511359615
 30
0.0
 10
134.3072375126
 20
77.8520642495
 30
0.0
 10
134.327869801
 20
78.2350779211
 30
0.0
 10
134.3614643996
 20
78.4090653754
 30
0.0
 10
134.3847216418
 20
78.4884692734
 30
0.0
  0
SPLINE
  5
4F3
100
AcDbEntity
  8
GEOM
100
AcDbSpline
 62
7
  6
CONTINUOUS
 70
0
 71
3
 72
13
 73
9
 74
0
 42
0.0000001
 43
0.0000001
 44
0.0000000001
 40
0.0
 40
0.0
 40
0.0
 40
0.0
 40
0.2517362777
 40
0.3764213739
 40
0.5006441461
 40
0.6247754651
 40
0.7491960139
 40
1.0
 40
1.0
 40
1.0
 40
1.0
 10
134.3847216418
 20
78.4884692734
 30
0.0
 10
134.7236737869
 20
79.6453449092
 30
0.0
 10
135.1313606913
 20
81.408372778
 30
0.0
 10
135.4124922087
 20
83.7911898997
 30
0.0
 10
135.4836935854
 20
85.578098922
 30
0.0
 10
135.4126156922
 20
87.3637513294
 30
0.0
 10
135.1317395482
 20
89.7403949932
 30
0.0
 10
134.723939642
 20
91.4975855123
 30
0.0
 10
134.3847216418
 20
92.6497299526
 30
0.0
  0
SPLINE
  5
4F4
100
AcDbEntity
  8
0
100
AcDbSpline
 62
7
  6
CONTINUOUS
 70
0
 71
3
 72
28
 73
24
 74
0
 42
0.0000001
 43
0.0000001
 44
0.0000000001
 40
0.0
 40
0.0
 40
0.0
 40
0.0
 40
0.2156464916
 40
0.3163053045
 40
0.4115271013
 40
0.5008811827
 40
0.5839530503
 40
0.6603408762
 40
0.7296902606
 40
0.7916720539
 40
0.8460004657
 40
0.8924160513
 40
0.9125884923
 40
0.9307065275
 40
0.9467473315
 40
0.9606917409
 40
0.9725270113
 40
0.982241743
 40
0.9898261129
 40
0.9952770593
 40
0.9986124758
 40
0.9995163845
 40
1.0
 40
1.0
 40
1.0
 40
1.0
 10
141.8832107988
 20
55.9467414583
 30
0.0
 10
141.8972149373
 20
54.9676117708
 30
0.0
 10
141.9184284685
 20
53.5314561845
 30
0.0
 10
141.9481297557
 20
51.6629873485
 30
0.0
 10
141.9698806739
 20
50.3679466761
 30
0.0
 10
141.9916201281
 20
49.1527783395
 30
0.0
 10
142.0133421721
 20
48.0231475077
 30
0.0
 10
142.0350457148
 20
46.9843737523
 30
0.0
 10
142.0567185552
 20
46.0413900696
 30
0.0
 10
142.0783507411
 20
45.1986040356
 30
0.0
 10
142.0999267659
 20
44.4599953139
 30
0.0
 10
142.1185917637
 20
43.9112392257
 30
0.0
 10
142.1337914955
 20
43.5268963354
 30
0.0
 10
142.1446354212
 20
43.2804214958
 30
0.0
 10
142.1554596361
 20
43.0622536431
 30
0.0
 10
142.1662502191
 20
42.872663285
 30
0.0
 10
142.1770098479
 20
42.7118197209
 30
0.0
 10
142.1876442599
 20
42.5800093315
 30
0.0
 10
142.1982549361
 20
42.4770710443
 30
0.0
 10
142.2082837982
 20
42.4037745119
 30
0.0
 10
142.2177605242
 20
42.3600309705
 30
0.0
 10
142.225253579
 20
42.3405421707
 30
0.0
 10
142.2304595584
 20
42.3353526757
 30
0.0
 10
142.2326556061
 20
42.3353486979
 30
0.0
  0
SPLINE
  5
4F5
100
AcDbEntity
  8
GEOM
100
AcDbSpline
 62
7
  6
CONTINUOUS
 70
0
 71
3
 72
15
 73
11
 74
0
 42
0.0000001
 43
0.0000001
 44
0.0000000001
 40
0.0
 40
0.0
 40
0.0
 40
0.0
 40
0.2127102939
 40
0.4010398569
 40
0.562525801
 40
0.6959113417
 40
0.8011880001
 40
0.88072158
 40
0.9418778893
 40
1.0
 40
1.0
 40
1.0
 40
1.0
 10
134.3847216418
 20
92.6497299526
 30
0.0
 10
134.3744863334
 20
92.684497521
 30
0.0
 10
134.3563457639
 20
92.7503996498
 30
0.0
 10
134.3352160346
 20
92.8439352316
 30
0.0
 10
134.3220836192
 20
92.9252766973
 30
0.0
 10
134.3170154417
 20
92.9934030081
 30
0.0
 10
134.3201898396
 20
93.0477298119
 30
0.0
 10
134.3313907063
 20
93.0886821271
 30
0.0
 10
134.3537570452
 20
93.1163096753
 30
0.0
 10
134.3748191807
 20
93.1216512712
 30
0.0
 10
134.3847216418
 20
93.1217719752
 30
0.0
  0
LINE
  5
4F6
100
AcDbEntity
  8
GEOM
100
AcDbLine
 62
7
  6
CONTINUOUS
 10
134.3847216418
 20
93.1217719752
 11
135.4600057181
 21
93.1353355639
  0
SPLINE
  5
4F7
100
AcDbEntity
  8
GEOM
100
AcDbSpline
 62
7
  6
CONTINUOUS
 70
0
 71
3
 72
9
 73
5
 74
0
 42
0.0000001
 43
0.0000001
 44
0.0000000001
 40
0.0
 40
0.0
 40
0.0
 40
0.0
 40
0.2430194438
 40
1.0
 40
1.0
 40
1.0
 40
1.0
 10
128.8318096371
 20
56.2634364967
 30
0.0
 10
128.8308373112
 20
56.3052665003
 30
0.0
 10
128.8277995161
 20
56.4774148917
 30
0.0
 10
128.8289920189
 20
56.649628123
 30
0.0
 10
128.8318096371
 20
56.7799290145
 30
0.0
  0
SPLINE
  5
4F8
100
AcDbEntity
  8
GEOM
100
AcDbSpline
 62
7
  6
CONTINUOUS
 70
0
 71
3
 72
9
 73
5
 74
0
 42
0.0000001
 43
0.0000001
 44
0.0000000001
 40
0.0
 40
0.0
 40
0.0
 40
0.0
 40
0.2148847227
 40
1.0
 40
1.0
 40
1.0
 40
1.0
 10
128.8318096371
 20
41.3358373981
 30
0.0
 10
128.833491168
 20
41.3643606871
 30
0.0
 10
128.8432335065
 20
41.4969848902
 30
0.0
 10
128.8588715468
 20
41.6291126569
 30
0.0
 10
128.8727168766
 20
41.732585752
 30
0.0
  0
SPLINE
  5
4F9
100
AcDbEntity
  8
0
100
AcDbSpline
 62
7
  6
CONTINUOUS
 70
0
 71
3
 72
35
 73
31
 74
0
 42
0.0000001
 43
0.0000001
 44
0.0000000001
 40
0.0
 40
0.0
 40
0.0
 40
0.0
 40
0.1380448539
 40
0.2168170014
 40
0.299859045
 40
0.3853738142
 40
0.4715104972
 40
0.5564048414
 40
0.6382194927
 40
0.7151838084
 40
0.7513210985
 40
0.7856322277
 40
0.8179296942
 40
0.8480403824
 40
0.8757992931
 40
0.9010582428
 40
0.9236783559
 40
0.9435396656
 40
0.9605325684
 40
0.9679253346
 40
0.9745682196
 40
0.9804517794
 40
0.9855692814
 40
0.9899145323
 40
0.993481605
 40
0.9962662573
 40
0.9982683763
 40
0.9994933288
 40
0.9998244773
 40
1.0
 40
1.0
 40
1.0
 40
1.0
 10
144.8832107988
 20
50.5769048498
 30
0.0
 10
144.8478433025
 20
52.4389402454
 30
0.0
 10
144.8005873097
 20
55.3636588077
 30
0.0
 10
144.7413467064
 20
59.4086397359
 30
0.0
 10
144.6950357903
 20
62.7450485092
 30
0.0
 10
144.6486666797
 20
66.1808204677
 30
0.0
 10
144.6022980278
 20
69.6415843143
 30
0.0
 10
144.5559426026
 20
73.0524253238
 30
0.0
 10
144.5096232318
 20
76.3395101609
 30
0.0
 10
144.4703056277
 20
78.9688435431
 30
0.0
 10
144.4385039814
 20
80.9573433313
 30
0.0
 10
144.4151665712
 20
82.3432978579
 30
0.0
 10
144.3918404459
 20
83.6479351853
 30
0.0
 10
144.368533212
 20
84.8641614772
 30
0.0
 10
144.3452457651
 20
85.9854124213
 30
0.0
 10
144.3219917303
 20
87.0055846286
 30
0.0
 10
144.2987800503
 20
87.9191805947
 30
0.0
 10
144.2756303126
 20
88.7212200093
 30
0.0
 10
144.2556063625
 20
89.3178263849
 30
0.0
 10
144.239302646
 20
89.736118213
 30
0.0
 10
144.2276663486
 20
90.0045975389
 30
0.0
 10
144.2160490439
 20
90.2423538521
 30
0.0
 10
144.2044706718
 20
90.4490612641
 30
0.0
 10
144.1929247074
 20
90.6244976708
 30
0.0
 10
144.1815174638
 20
90.7682930138
 30
0.0
 10
144.1701197843
 20
90.8806208013
 30
0.0
 10
144.1593767334
 20
90.9605946791
 30
0.0
 10
144.1491818267
 20
91.0083817156
 30
0.0
 10
144.1411838238
 20
91.0296233823
 30
0.0
 10
144.1355791964
 20
91.0353365284
 30
0.0
 10
144.1332112098
 20
91.0353346502
 30
0.0
  0
SPLINE
  5
4FA
100
AcDbEntity
  8
0
100
AcDbSpline
 62
7
  6
CONTINUOUS
 70
0
 71
3
 72
32
 73
28
 74
0
 42
0.0000001
 43
0.0000001
 44
0.0000000001
 40
0.0
 40
0.0
 40
0.0
 40
0.0
 40
0.1365779132
 40
0.2965938028
 40
0.3812165263
 40
0.4665393454
 40
0.5507518149
 40
0.6320670839
 40
0.7087598208
 40
0.7792028713
 40
0.8116072274
 40
0.8419018622
 40
0.8699240163
 40
0.8955270117
 40
0.9185728651
 40
0.9389416527
 40
0.9565232204
 40
0.9712271552
 40
0.9774743388
 40
0.9829740033
 40
0.9877198999
 40
0.9917059639
 40
0.9949267251
 40
0.9973799286
 40
0.9990668396
 40
0.9996257057
 40
1.0
 40
1.0
 40
1.0
 40
1.0
 10
144.7332107988
 20
50.5769048498
 30
0.0
 10
144.6982277025
 20
52.4187022714
 30
0.0
 10
144.6334920483
 20
56.4185751053
 30
0.0
 10
144.5610669808
 20
61.5598194607
 30
0.0
 10
144.5009593899
 20
66.0098532646
 30
0.0
 10
144.4550383977
 20
69.437566977
 30
0.0
 10
144.4091280561
 20
72.8206667521
 30
0.0
 10
144.3632550884
 20
76.0873556882
 30
0.0
 10
144.3174412048
 20
79.1683077121
 30
0.0
 10
144.2783489026
 20
81.5895871107
 30
0.0
 10
144.246659647
 20
83.3850952566
 30
0.0
 10
144.2235753563
 20
84.6085025707
 30
0.0
 10
144.2005094251
 20
85.7401576584
 30
0.0
 10
144.1774743619
 20
86.7740216909
 30
0.0
 10
144.1544729241
 20
87.704631642
 30
0.0
 10
144.131536463
 20
88.5270158837
 30
0.0
 10
144.1086692738
 20
89.2368382551
 30
0.0
 10
144.0888190992
 20
89.7561843075
 30
0.0
 10
144.072569838
 20
90.1125779162
 30
0.0
 10
144.0610754602
 20
90.3347315476
 30
0.0
 10
144.0496284835
 20
90.5263486032
 30
0.0
 10
144.0382197489
 20
90.6871551214
 30
0.0
 10
144.026973597
 20
90.8169933792
 30
0.0
 10
144.01576235
 20
90.9155991574
 30
0.0
 10
144.006102047
 20
90.9783775189
 30
0.0
 10
143.9974791208
 20
91.0126133703
 30
0.0
 10
143.9931381276
 20
91.0245508002
 30
0.0
 10
143.9906146709
 20
91.0289232611
 30
0.0
  0
SPLINE
  5
4FB
100
AcDbEntity
  8
0
100
AcDbSpline
 62
7
  6
CONTINUOUS
 70
0
 71
3
 72
9
 73
5
 74
0
 42
0.0000001
 43
0.0000001
 44
0.0000000001
 40
0.0
 40
0.0
 40
0.0
 40
0.0
 40
0.1775964954
 40
1.0
 40
1.0
 40
1.0
 40
1.0
 10
147.8767474077
 20
42.3414401975
 30
0.0
 10
147.8757129643
 20
42.3432321628
 30
0.0
 10
147.8708218645
 20
42.3538456035
 30
0.0
 10
147.8680528207
 20
42.3652596854
 30
0.0
 10
147.8659282195
 20
42.3746026728
 30
0.0
  0
SPLINE
  5
4FC
100
AcDbEntity
  8
0
100
AcDbSpline
 62
7
  6
CONTINUOUS
 70
0
 71
3
 72
48
 73
44
 74
0
 42
0.0000001
 43
0.0000001
 44
0.0000000001
 40
0.0
 40
0.0
 40
0.0
 40
0.0
 40
0.0019518155
 40
0.0050493364
 40
0.0092889957
 40
0.0146627334
 40
0.0211602661
 40
0.0287657169
 40
0.0472295034
 40
0.0698844638
 40
0.0965223974
 40
0.1268955427
 40
0.160722772
 40
0.1976915176
 40
0.2374581905
 40
0.3238897045
 40
0.4168201612
 40
0.5128119559
 40
0.6083137051
 40
0.6547723652
 40
0.6997924653
 40
0.742956075
 40
0.7838636188
 40
0.8221360874
 40
0.857417866
 40
0.889382903
 40
0.9177351477
 40
0.9304723667
 40
0.9422109706
 40
0.9529239069
 40
0.9625851801
 40
0.9711736983
 40
0.9786698635
 40
0.9850552618
 40
0.9903168094
 40
0.9925226495
 40
0.9944434129
 40
0.9960779914
 40
0.9974261086
 40
0.9984880968
 40
0.9992652201
 40
0.9997618085
 40
1.0
 40
1.0
 40
1.0
 40
1.0
 10
147.8659282195
 20
42.3746026728
 30
0.0
 10
147.858717973
 20
42.4063099137
 30
0.0
 10
147.8476141254
 20
42.4898859614
 30
0.0
 10
147.8328949368
 20
42.6438604612
 30
0.0
 10
147.8182111758
 20
42.8551671524
 30
0.0
 10
147.8031666685
 20
43.1231364029
 30
0.0
 10
147.7880871545
 20
43.4472724517
 30
0.0
 10
147.7664445852
 20
43.9893940397
 30
0.0
 10
147.7402495148
 20
44.8007144784
 30
0.0
 10
147.7101762613
 20
45.9291234648
 30
0.0
 10
147.6799756793
 20
47.2559973414
 30
0.0
 10
147.6496607483
 20
48.7690362482
 30
0.0
 10
147.6192836329
 20
50.4542133898
 30
0.0
 10
147.5888592487
 20
52.2959062108
 30
0.0
 10
147.5470848437
 20
55.0139023296
 30
0.0
 10
147.4958139492
 20
58.6641671037
 30
0.0
 10
147.4356838875
 20
63.2510919231
 30
0.0
 10
147.3754895925
 20
67.9891359969
 30
0.0
 10
147.3248859453
 20
71.9530320082
 30
0.0
 10
147.2838304716
 20
75.0678058902
 30
0.0
 10
147.2533304669
 20
77.3107038363
 30
0.0
 10
147.222844398
 20
79.4611130453
 30
0.0
 10
147.1923780621
 20
81.4990970354
 30
0.0
 10
147.161939311
 20
83.4057567638
 30
0.0
 10
147.131539678
 20
85.1634171629
 30
0.0
 10
147.1011909362
 20
86.7557832223
 30
0.0
 10
147.0751294524
 20
87.9725741635
 30
0.0
 10
147.0540090172
 20
88.8524224034
 30
0.0
 10
147.0387511537
 20
89.4384594532
 30
0.0
 10
147.0235101636
 20
89.9732336736
 30
0.0
 10
147.0082867222
 20
90.4555056504
 30
0.0
 10
146.9930909599
 20
90.8841580885
 30
0.0
 10
146.9779428729
 20
91.2581998747
 30
0.0
 10
146.9628462481
 20
91.5767622633
 30
0.0
 10
146.9497078161
 20
91.8071827043
 30
0.0
 10
146.9389305332
 20
91.9632103427
 30
0.0
 10
146.9313440967
 20
92.0589074921
 30
0.0
 10
146.9238032721
 20
92.1402061738
 30
0.0
 10
146.9162657257
 20
92.2073022316
 30
0.0
 10
146.9089370047
 20
92.2595612922
 30
0.0
 10
146.9014908127
 20
92.2985909395
 30
0.0
 10
146.8949958313
 20
92.3213730073
 30
0.0
 10
146.8886010045
 20
92.3342834119
 30
0.0
 10
146.8847442112
 20
92.3352171155
 30
0.0
  0
LINE
  5
4FD
100
AcDbEntity
  8
0
100
AcDbLine
 62
7
  6
CONTINUOUS
 10
146.8847442112
 20
92.3352171155
 11
146.8837657333
 21
92.3353355639
  0
SPLINE
  5
4FE
100
AcDbEntity
  8
0
100
AcDbSpline
 62
7
  6
CONTINUOUS
 70
0
 71
3
 72
9
 73
5
 74
0
 42
0.0000001
 43
0.0000001
 44
0.0000000001
 40
0.0
 40
0.0
 40
0.0
 40
0.0
 40
0.3901888553
 40
1.0
 40
1.0
 40
1.0
 40
1.0
 10
147.1258071705
 20
43.6417464268
 30
0.0
 10
147.122686493
 20
43.6471522769
 30
0.0
 10
147.11758758
 20
43.6625130489
 30
0.0
 10
147.1140031414
 20
43.6780535505
 30
0.0
 10
147.1120688088
 20
43.6876151439
 30
0.0
  0
SPLINE
  5
4FF
100
AcDbEntity
  8
0
100
AcDbSpline
 62
7
  6
CONTINUOUS
 70
0
 71
3
 72
47
 73
43
 74
0
 42
0.0000001
 43
0.0000001
 44
0.0000000001
 40
0.0
 40
0.0
 40
0.0
 40
0.0
 40
0.002195094
 40
0.0055288734
 40
0.0099993093
 40
0.0155964571
 40
0.0223080351
 40
0.0301204522
 40
0.0489705028
 40
0.071975217
 40
0.0989215671
 40
0.1295620337
 40
0.1636147398
 40
0.20076452
 40
0.2406695103
 40
0.3272502395
 40
0.4201691261
 40
0.5160048038
 40
0.611228754
 40
0.6575112164
 40
0.7023346929
 40
0.745286174
 40
0.7859686542
 40
0.8240072307
 40
0.8590515649
 40
0.8907772855
 40
0.9188928185
 40
0.9315144286
 40
0.9431394226
 40
0.9537398463
 40
0.9632925928
 40
0.9717758437
 40
0.9791688893
 40
0.9854562383
 40
0.9906241867
 40
0.994660405
 40
0.9962521279
 40
0.9975591908
 40
0.9985818274
 40
0.9993214525
 40
0.9997835989
 40
1.0
 40
1.0
 40
1.0
 40
1.0
 10
147.1120688088
 20
43.6876151439
 30
0.0
 10
147.1051964697
 20
43.7215857826
 30
0.0
 10
147.0939742345
 20
43.8082854006
 30
0.0
 10
147.079284835
 20
43.9654442465
 30
0.0
 10
147.0645366543
 20
44.1765619066
 30
0.0
 10
147.0495217093
 20
44.4410609977
 30
0.0
 10
147.0344505612
 20
44.7584070392
 30
0.0
 10
147.0129001381
 20
45.2849173339
 30
0.0
 10
146.9867610347
 20
46.0686976174
 30
0.0
 10
146.9567429821
 20
47.1546007131
 30
0.0
 10
146.9265968614
 20
48.426723503
 30
0.0
 10
146.8963455012
 20
49.8733246213
 30
0.0
 10
146.8660352011
 20
51.4810602381
 30
0.0
 10
146.8356775528
 20
53.2350980382
 30
0.0
 10
146.7940236364
 20
55.8184390016
 30
0.0
 10
146.7428861043
 20
59.2822896158
 30
0.0
 10
146.6828890885
 20
63.629204251
 30
0.0
 10
146.6228308825
 20
68.1126002069
 30
0.0
 10
146.5723297224
 20
71.8597055962
 30
0.0
 10
146.53135925
 20
74.8014232983
 30
0.0
 10
146.5009308968
 20
76.917866273
 30
0.0
 10
146.4705178077
 20
78.9458806829
 30
0.0
 10
146.4401240618
 20
80.8667545453
 30
0.0
 10
146.4097572459
 20
82.6627646444
 30
0.0
 10
146.3794320088
 20
84.3173336882
 30
0.0
 10
146.3491566182
 20
85.8151978145
 30
0.0
 10
146.3231530342
 20
86.959036151
 30
0.0
 10
146.3020778563
 20
87.7855251213
 30
0.0
 10
146.2868582918
 20
88.3355223404
 30
0.0
 10
146.2716522902
 20
88.837044976
 30
0.0
 10
146.2564669373
 20
89.2889373017
 30
0.0
 10
146.2413128637
 20
89.6901581602
 30
0.0
 10
146.2261967951
 20
90.0397779741
 30
0.0
 10
146.2111509968
 20
90.3370087065
 30
0.0
 10
146.1962089465
 20
90.5811375868
 30
0.0
 10
146.1830859848
 20
90.7511463642
 30
0.0
 10
146.1722118033
 20
90.8600484043
 30
0.0
 10
146.1646340801
 20
90.9216353813
 30
0.0
 10
146.1575108774
 20
90.969238367
 30
0.0
 10
146.1497181085
 20
91.0043498219
 30
0.0
 10
146.1439989018
 20
91.0244011323
 30
0.0
 10
146.1366271275
 20
91.0353239335
 30
0.0
 10
146.1332103288
 20
91.0353177734
 30
0.0
  0
LINE
  5
500
100
AcDbEntity
  8
GEOM
100
AcDbLine
 62
7
  6
CONTINUOUS
 10
128.8727168766
 20
93.6384493448
 11
129.3576188408
 21
93.6318079458
  0
SPLINE
  5
501
100
AcDbEntity
  8
0
100
AcDbSpline
 62
7
  6
CONTINUOUS
 70
0
 71
3
 72
9
 73
5
 74
0
 42
0.0000001
 43
0.0000001
 44
0.0000000001
 40
0.0
 40
0.0
 40
0.0
 40
0.0
 40
0.3699462199
 40
1.0
 40
1.0
 40
1.0
 40
1.0
 10
149.1258077859
 20
43.6417634233
 30
0.0
 10
149.1211471886
 20
43.6498420301
 30
0.0
 10
149.1144719445
 20
43.6746023318
 30
0.0
 10
149.1097033958
 20
43.6991925487
 30
0.0
 10
149.1071305674
 20
43.7148668499
 30
0.0
  0
SPLINE
  5
502
100
AcDbEntity
  8
0
100
AcDbSpline
 62
7
  6
CONTINUOUS
 70
0
 71
3
 72
45
 73
41
 74
0
 42
0.0000001
 43
0.0000001
 44
0.0000000001
 40
0.0
 40
0.0
 40
0.0
 40
0.0
 40
0.0025480358
 40
0.0062250978
 40
0.0110244817
 40
0.0169363461
 40
0.0320464839
 40
0.0514188075
 40
0.0748781947
 40
0.1022118154
 40
0.1331690183
 40
0.1674681698
 40
0.2448118059
 40
0.3314240262
 40
0.4241476906
 40
0.5196033487
 40
0.6143115216
 40
0.660302186
 40
0.7048202221
 40
0.7474593961
 40
0.7878306044
 40
0.8255642391
 40
0.8603166815
 40
0.8917706219
 40
0.9196379723
 40
0.9321468399
 40
0.9436659537
 40
0.9541697981
 40
0.96363514
 40
0.9720391807
 40
0.9793634956
 40
0.9855925562
 40
0.9907113803
 40
0.9947096584
 40
0.996286743
 40
0.9975817699
 40
0.9985947608
 40
0.9993271108
 40
0.9997849408
 40
1.0
 40
1.0
 40
1.0
 40
1.0
 10
149.1071305674
 20
43.7148668499
 30
0.0
 10
149.1006178599
 20
43.7545438599
 30
0.0
 10
149.0893778443
 20
43.8522026479
 30
0.0
 10
149.0747220855
 20
44.0255387231
 30
0.0
 10
149.0599378718
 20
44.2521233239
 30
0.0
 10
149.0381745893
 20
44.6590032861
 30
0.0
 10
149.0122280629
 20
45.2959198188
 30
0.0
 10
148.9825345856
 20
46.2097602222
 30
0.0
 10
148.9526756007
 20
47.3165709305
 30
0.0
 10
148.9226504718
 20
48.6062398769
 30
0.0
 10
148.8925403792
 20
50.0669994451
 30
0.0
 10
148.8506195404
 20
52.3168355566
 30
0.0
 10
148.7994340648
 20
55.4448811001
 30
0.0
 10
148.7398742035
 20
59.49484267
 30
0.0
 10
148.680174701
 20
63.8306383844
 30
0.0
 10
148.6204041624
 20
68.2941984636
 30
0.0
 10
148.5701362988
 20
72.0203738187
 30
0.0
 10
148.5293589127
 20
74.9428088248
 30
0.0
 10
148.499083386
 20
77.0436621922
 30
0.0
 10
148.4688223965
 20
79.0558313075
 30
0.0
 10
148.4385819185
 20
80.9609303298
 30
0.0
 10
148.4083676082
 20
82.7415606713
 30
0.0
 10
148.3781937786
 20
84.3814557483
 30
0.0
 10
148.3480723053
 20
85.8656331824
 30
0.0
 10
148.3221962984
 20
86.9988186284
 30
0.0
 10
148.3012282093
 20
87.8174582014
 30
0.0
 10
148.2860837321
 20
88.362159889
 30
0.0
 10
148.2709546473
 20
88.8588151919
 30
0.0
 10
148.2558475605
 20
89.3062900953
 30
0.0
 10
148.2407678495
 20
89.7035624259
 30
0.0
 10
148.2257277461
 20
90.0497234213
 30
0.0
 10
148.2107608025
 20
90.3440006715
 30
0.0
 10
148.1958911343
 20
90.5856931744
 30
0.0
 10
148.1828337181
 20
90.7539963892
 30
0.0
 10
148.1720155886
 20
90.8618164562
 30
0.0
 10
148.1644774619
 20
90.9227912358
 30
0.0
 10
148.1573892835
 20
90.9699171168
 30
0.0
 10
148.1496384169
 20
91.0046538441
 30
0.0
 10
148.1439335841
 20
91.0245206361
 30
0.0
 10
148.1366046959
 20
91.0353068013
 30
0.0
 10
148.1332110657
 20
91.0353066348
 30
0.0
  0
SPLINE
  5
503
100
AcDbEntity
  8
GEOM
100
AcDbSpline
 62
7
  6
CONTINUOUS
 70
0
 71
3
 72
11
 73
7
 74
0
 42
0.0000001
 43
0.0000001
 44
0.0000000001
 40
0.0
 40
0.0
 40
0.0
 40
0.0
 40
0.3789641272
 40
0.6598464586
 40
0.8544607701
 40
1.0
 40
1.0
 40
1.0
 40
1.0
 10
128.8318096371
 20
93.5487719353
 30
0.0
 10
128.833206864
 20
93.561956164
 30
0.0
 10
128.8364257339
 20
93.5849225364
 30
0.0
 10
128.8447011145
 20
93.6136139189
 30
0.0
 10
128.8556177084
 20
93.6332108615
 30
0.0
 10
128.867625605
 20
93.6385145916
 30
0.0
 10
128.8727168766
 20
93.6384493448
 30
0.0
  0
LINE
  5
504
100
AcDbEntity
  8
GEOM
100
AcDbLine
 62
7
  6
CONTINUOUS
 10
129.3576188408
 20
41.0388631819
 11
128.8727168766
 21
41.0322217829
  0
SPLINE
  5
505
100
AcDbEntity
  8
0
100
AcDbSpline
 62
7
  6
CONTINUOUS
 70
0
 71
3
 72
29
 73
25
 74
0
 42
0.0000001
 43
0.0000001
 44
0.0000000001
 40
0.0
 40
0.0
 40
0.0
 40
0.0
 40
0.0004724083
 40
0.0013910524
 40
0.0028348896
 40
0.0048210988
 40
0.0104399123
 40
0.0182584886
 40
0.0282695714
 40
0.0404623471
 40
0.0548217805
 40
0.0713240192
 40
0.0899434096
 40
0.1106539868
 40
0.1582185413
 40
0.2137218322
 40
0.2768261202
 40
0.3471402667
 40
0.424233182
 40
0.5076318165
 40
0.5968174304
 40
0.6912361584
 40
0.7903227825
 40
1.0
 40
1.0
 40
1.0
 40
1.0
 10
140.9832103744
 20
43.6353628275
 30
0.0
 10
140.9806296992
 20
43.635364763
 30
0.0
 10
140.9746160456
 20
43.6420565099
 30
0.0
 10
140.9696975052
 20
43.6560835709
 30
0.0
 10
140.9633902193
 20
43.6793481155
 30
0.0
 10
140.9544871339
 20
43.7278135512
 30
0.0
 10
140.9437474621
 20
43.8115536318
 30
0.0
 10
140.9317236039
 20
43.9390259996
 30
0.0
 10
140.9195034014
 20
44.1026099983
 30
0.0
 10
140.9072048856
 20
44.3019634466
 30
0.0
 10
140.8948512824
 20
44.5368425475
 30
0.0
 10
140.8824631947
 20
44.8068645129
 30
0.0
 10
140.8700491002
 20
45.1116137966
 30
0.0
 10
140.8526644969
 20
45.5859843396
 30
0.0
 10
140.8313176866
 20
46.2618290499
 30
0.0
 10
140.8066243341
 20
47.1692612816
 30
0.0
 10
140.781872005
 20
48.2010090065
 30
0.0
 10
140.7570690562
 20
49.3507254345
 30
0.0
 10
140.7322345607
 20
50.6113286712
 30
0.0
 10
140.7073763815
 20
51.975040973
 30
0.0
 10
140.682500874
 20
53.4334151562
 30
0.0
 10
140.6576117014
 20
54.9775012897
 30
0.0
 10
140.6237720488
 20
57.1797505212
 30
0.0
 10
140.5993848193
 20
58.8662922173
 30
0.0
 10
140.5832107414
 20
60.0116044454
 30
0.0
  0
SPLINE
  5
506
100
AcDbEntity
  8
GEOM
100
AcDbSpline
 62
7
  6
CONTINUOUS
 70
0
 71
3
 72
9
 73
5
 74
0
 42
0.0000001
 43
0.0000001
 44
0.0000000001
 40
0.0
 40
0.0
 40
0.0
 40
0.0
 40
0.2302098642
 40
1.0
 40
1.0
 40
1.0
 40
1.0
 10
128.8727168766
 20
55.7398651341
 30
0.0
 10
128.8673581859
 20
55.7798166618
 30
0.0
 10
128.8468838547
 20
55.9537355825
 30
0.0
 10
128.8362547018
 20
56.1287210346
 30
0.0
 10
128.8318096371
 20
56.2634364967
 30
0.0
  0
SPLINE
  5
507
100
AcDbEntity
  8
0
100
AcDbSpline
 62
7
  6
CONTINUOUS
 70
0
 71
3
 72
26
 73
22
 74
0
 42
0.0000001
 43
0.0000001
 44
0.0000000001
 40
0.0
 40
0.0
 40
0.0
 40
0.0
 40
0.1799124853
 40
0.3586740978
 40
0.4450010651
 40
0.527953864
 40
0.6065872559
 40
0.6800155924
 40
0.7474219931
 40
0.8080657363
 40
0.8612893255
 40
0.9065272275
 40
0.9260019356
 40
0.9433114678
 40
0.9584157186
 40
0.9712777851
 40
0.9818721822
 40
0.9901832482
 40
0.9962094911
 40
0.9983777173
 40
1.0
 40
1.0
 40
1.0
 40
1.0
 10
140.5832107456
 20
71.0428031844
 30
0.0
 10
140.6388953388
 20
69.3207658078
 30
0.0
 10
140.7472422719
 20
65.8876211327
 30
0.0
 10
140.8815959167
 20
61.6281727173
 30
0.0
 10
140.990457104
 20
58.2969214123
 30
0.0
 10
141.0708526562
 20
55.9241342077
 30
0.0
 10
141.1509264047
 20
53.6749337719
 30
0.0
 10
141.2306565539
 20
51.5747006163
 30
0.0
 10
141.3100135826
 20
49.6468643117
 30
0.0
 10
141.3889298658
 20
47.9126772541
 30
0.0
 10
141.4673607743
 20
46.3910111582
 30
0.0
 10
141.5350736433
 20
45.2635973063
 30
0.0
 10
141.5902688495
 20
44.480043456
 30
0.0
 10
141.6294469113
 20
43.9846723755
 30
0.0
 10
141.6684352461
 20
43.5528268409
 30
0.0
 10
141.7072324098
 20
43.1855867699
 30
0.0
 10
141.745621741
 20
42.883726407
 30
0.0
 10
141.7836887975
 20
42.6480442424
 30
0.0
 10
141.8170045265
 20
42.493228803
 30
0.0
 10
141.8456167032
 20
42.4036463864
 30
0.0
 10
141.8601421915
 20
42.3701864855
 30
0.0
 10
141.8679075282
 20
42.3567305622
 30
0.0
  0
SPLINE
  5
508
100
AcDbEntity
  8
0
100
AcDbSpline
 62
7
  6
CONTINUOUS
 70
0
 71
3
 72
29
 73
25
 74
0
 42
0.0000001
 43
0.0000001
 44
0.0000000001
 40
0.0
 40
0.0
 40
0.0
 40
0.0
 40
0.0005638734
 40
0.0016513337
 40
0.0032788482
 40
0.0054500529
 40
0.0081659379
 40
0.0114266111
 40
0.0195808449
 40
0.0299036463
 40
0.0423784712
 40
0.0569879496
 40
0.0737133063
 40
0.0925281334
 40
0.1134030167
 40
0.1612110639
 40
0.2168474441
 40
0.2799787025
 40
0.350216702
 40
0.4271372942
 40
0.5102674111
 40
0.5990975439
 40
0.7916286482
 40
1.0
 40
1.0
 40
1.0
 40
1.0
 10
140.8368003497
 20
43.381746013
 30
0.0
 10
140.8345895777
 20
43.383956785
 30
0.0
 10
140.8319359437
 20
43.3932800938
 30
0.0
 10
140.8281051197
 20
43.4106779739
 30
0.0
 10
140.82447019
 20
43.4377323096
 30
0.0
 10
140.8205914296
 20
43.4735651722
 30
0.0
 10
140.8167385524
 20
43.5186108741
 30
0.0
 10
140.811112297
 20
43.5967466139
 30
0.0
 10
140.8043544265
 20
43.7171011295
 30
0.0
 10
140.7966182061
 20
43.8885424245
 30
0.0
 10
140.7888431045
 20
44.0958106162
 30
0.0
 10
140.7810289883
 20
44.3385961311
 30
0.0
 10
140.7731950455
 20
44.6165508877
 30
0.0
 10
140.765342699
 20
44.9292567376
 30
0.0
 10
140.7543525153
 20
45.4142806568
 30
0.0
 10
140.7408435374
 20
46.103461852
 30
0.0
 10
140.7251986044
 20
47.0269406633
 30
0.0
 10
140.7095078324
 20
48.0748015586
 30
0.0
 10
140.6937749314
 20
49.2406879211
 30
0.0
 10
140.6780136244
 20
50.5174705518
 30
0.0
 10
140.6622254266
 20
51.8973476984
 30
0.0
 10
140.6405624244
 20
53.9182235926
 30
0.0
 10
140.6138288861
 20
56.6335082344
 30
0.0
 10
140.5935256561
 20
58.8562957705
 30
0.0
 10
140.5832107414
 20
60.0116044454
 30
0.0
  0
SPLINE
  5
509
100
AcDbEntity
  8
GEOM
100
AcDbSpline
 62
7
  6
CONTINUOUS
 70
0
 71
3
 72
11
 73
7
 74
0
 42
0.0000001
 43
0.0000001
 44
0.0000000001
 40
0.0
 40
0.0
 40
0.0
 40
0.0
 40
0.2493864166
 40
0.4993724767
 40
0.7497113757
 40
1.0
 40
1.0
 40
1.0
 40
1.0
 10
129.2590872071
 20
41.3353355639
 30
0.0
 10
129.2153102911
 20
41.3353355639
 30
0.0
 10
129.127009109
 20
41.3204014812
 30
0.0
 10
129.0092897307
 20
41.2564256444
 30
0.0
 10
128.9190555875
 20
41.1571872277
 30
0.0
 10
128.8833143068
 20
41.0748598413
 30
0.0
 10
128.8727168766
 20
41.0322217829
 30
0.0
  0
SPLINE
  5
50A
100
AcDbEntity
  8
GEOM
100
AcDbSpline
 62
7
  6
CONTINUOUS
 70
0
 71
3
 72
11
 73
7
 74
0
 42
0.0000001
 43
0.0000001
 44
0.0000000001
 40
0.0
 40
0.0
 40
0.0
 40
0.0
 40
0.2529573304
 40
0.5049575348
 40
0.7541853441
 40
1.0
 40
1.0
 40
1.0
 40
1.0
 10
129.2181799676
 20
41.4107767087
 30
0.0
 10
129.174733512
 20
41.410437614
 30
0.0
 10
129.0875442687
 20
41.3958214418
 30
0.0
 10
128.9706835528
 20
41.3351329564
 30
0.0
 10
128.8800470893
 20
41.2412085705
 30
0.0
 10
128.8430437038
 20
41.1625981487
 30
0.0
 10
128.8318096371
 20
41.1218991924
 30
0.0
  0
SPLINE
  5
50B
100
AcDbEntity
  8
GEOM
100
AcDbSpline
 62
7
  6
CONTINUOUS
 70
0
 71
3
 72
10
 73
6
 74
0
 42
0.0000001
 43
0.0000001
 44
0.0000000001
 40
0.0
 40
0.0
 40
0.0
 40
0.0
 40
0.5163583372
 40
0.763280382
 40
1.0
 40
1.0
 40
1.0
 40
1.0
 10
129.2181799677
 20
41.5897116914
 30
0.0
 10
129.1337835978
 20
41.5908933609
 30
0.0
 10
129.0036770044
 20
41.556235899
 30
0.0
 10
128.8812113875
 20
41.444506633
 30
0.0
 10
128.8431416603
 20
41.3728353794
 30
0.0
 10
128.8318096371
 20
41.3358373982
 30
0.0
  0
SPLINE
  5
50C
100
AcDbEntity
  8
GEOM
100
AcDbSpline
 62
7
  6
CONTINUOUS
 70
0
 71
3
 72
11
 73
7
 74
0
 42
0.0000001
 43
0.0000001
 44
0.0000000001
 40
0.0
 40
0.0
 40
0.0
 40
0.0
 40
0.28363383
 40
0.5490282279
 40
0.7871052021
 40
1.0
 40
1.0
 40
1.0
 40
1.0
 10
129.2590872071
 20
41.9211220015
 30
0.0
 10
129.2159555793
 20
41.9240018331
 30
0.0
 10
129.1314655866
 20
41.9199563459
 30
0.0
 10
129.0152957089
 20
41.8847106676
 30
0.0
 10
128.9232816201
 20
41.822349006
 30
0.0
 10
128.8837055881
 20
41.7631148855
 30
0.0
 10
128.8727168766
 20
41.732585752
 30
0.0
  0
SPLINE
  5
50D
100
AcDbEntity
  8
GEOM
100
AcDbSpline
 62
7
  6
CONTINUOUS
 70
0
 71
3
 72
10
 73
6
 74
0
 42
0.0000001
 43
0.0000001
 44
0.0000000001
 40
0.0
 40
0.0
 40
0.0
 40
0.0
 40
0.2773645934
 40
0.5445261906
 40
1.0
 40
1.0
 40
1.0
 40
1.0
 10
129.2590872077
 20
55.9799965007
 30
0.0
 10
129.215276639
 20
55.9770713086
 30
0.0
 10
129.1294006874
 20
55.9609503918
 30
0.0
 10
128.9843637137
 20
55.8978839672
 30
0.0
 10
128.8961370527
 20
55.8080591976
 30
0.0
 10
128.8727168766
 20
55.7398651337
 30
0.0
  0
SPLINE
  5
50E
100
AcDbEntity
  8
GEOM
100
AcDbSpline
 62
7
  6
CONTINUOUS
 70
0
 71
3
 72
11
 73
7
 74
0
 42
0.0000001
 43
0.0000001
 44
0.0000000001
 40
0.0
 40
0.0
 40
0.0
 40
0.0
 40
0.3002694891
 40
0.5783453412
 40
0.8141934068
 40
1.0
 40
1.0
 40
1.0
 40
1.0
 10
129.2181799676
 20
56.4180967048
 30
0.0
 10
129.1751016517
 20
56.417018065
 30
0.0
 10
129.0921574591
 20
56.4084456232
 30
0.0
 10
128.9787810857
 20
56.3773637433
 30
0.0
 10
128.8888448961
 20
56.3312182441
 30
0.0
 10
128.8444442793
 20
56.2869183692
 30
0.0
 10
128.8318096371
 20
56.2634364967
 30
0.0
  0
SPLINE
  5
50F
100
AcDbEntity
  8
GEOM
100
AcDbSpline
 62
7
  6
CONTINUOUS
 70
0
 71
3
 72
12
 73
8
 74
0
 42
0.0000001
 43
0.0000001
 44
0.0000000001
 40
0.0
 40
0.0
 40
0.0
 40
0.0
 40
0.3224317702
 40
0.6130912512
 40
0.8440229546
 40
0.9317657226
 40
1.0
 40
1.0
 40
1.0
 40
1.0
 10
129.2181799677
 20
56.850083967
 30
0.0
 10
129.1753377673
 20
56.8512666632
 30
0.0
 10
129.0936931355
 20
56.8500134428
 30
0.0
 10
128.9821020594
 20
56.8377660571
 30
0.0
 10
128.9027010959
 20
56.8190604322
 30
0.0
 10
128.8556015228
 20
56.7981706677
 30
0.0
 10
128.8382408154
 20
56.7863245463
 30
0.0
 10
128.8318096371
 20
56.7799290145
 30
0.0
  0
SPLINE
  5
510
100
AcDbEntity
  8
GEOM
100
AcDbSpline
 62
7
  6
CONTINUOUS
 70
0
 71
3
 72
12
 73
8
 74
0
 42
0.0000001
 43
0.0000001
 44
0.0000000001
 40
0.0
 40
0.0
 40
0.0
 40
0.0
 40
0.3224318289
 40
0.6130913726
 40
0.844023031
 40
0.931765756
 40
1.0
 40
1.0
 40
1.0
 40
1.0
 10
129.2181799676
 20
77.820587161
 30
0.0
 10
129.1753377604
 20
77.8194044732
 30
0.0
 10
129.0936931149
 20
77.8206577097
 30
0.0
 10
128.982102033
 20
77.8329051054
 30
0.0
 10
128.9027010743
 20
77.8516107232
 30
0.0
 10
128.8556015143
 20
77.8725004748
 30
0.0
 10
128.8382408147
 20
77.8843465874
 30
0.0
 10
128.8318096371
 20
77.8907421133
 30
0.0
  0
SPLINE
  5
511
100
AcDbEntity
  8
GEOM
100
AcDbSpline
 62
7
  6
CONTINUOUS
 70
0
 71
3
 72
11
 73
7
 74
0
 42
0.0000001
 43
0.0000001
 44
0.0000000001
 40
0.0
 40
0.0
 40
0.0
 40
0.0
 40
0.3002694956
 40
0.5783453514
 40
0.8141934312
 40
1.0
 40
1.0
 40
1.0
 40
1.0
 10
129.2181799677
 20
78.2525744231
 30
0.0
 10
129.1751016531
 20
78.2536530751
 30
0.0
 10
129.0921574658
 20
78.2622255336
 30
0.0
 10
128.9787810969
 20
78.2933074206
 30
0.0
 10
128.8888449124
 20
78.3394529112
 30
0.0
 10
128.8444442837
 20
78.3837527664
 30
0.0
 10
128.8318096371
 20
78.4072346311
 30
0.0
  0
SPLINE
  5
512
100
AcDbEntity
  8
GEOM
100
AcDbSpline
 62
7
  6
CONTINUOUS
 70
0
 71
3
 72
10
 73
6
 74
0
 42
0.0000001
 43
0.0000001
 44
0.0000000001
 40
0.0
 40
0.0
 40
0.0
 40
0.0
 40
0.2773646608
 40
0.544526335
 40
1.0
 40
1.0
 40
1.0
 40
1.0
 10
129.2590872071
 20
78.6906746232
 30
0.0
 10
129.2152766212
 20
78.6935997879
 30
0.0
 10
129.1294006324
 20
78.7097206914
 30
0.0
 10
128.9843636237
 20
78.772787097
 30
0.0
 10
128.8961370203
 20
78.8626119347
 30
0.0
 10
128.8727168766
 20
78.9308059937
 30
0.0
  0
SPLINE
  5
513
100
AcDbEntity
  8
GEOM
100
AcDbSpline
 62
7
  6
CONTINUOUS
 70
0
 71
3
 72
11
 73
7
 74
0
 42
0.0000001
 43
0.0000001
 44
0.0000000001
 40
0.0
 40
0.0
 40
0.0
 40
0.0
 40
0.2836337562
 40
0.549028086
 40
0.7871050892
 40
1.0
 40
1.0
 40
1.0
 40
1.0
 10
129.2590872071
 20
92.7495491262
 30
0.0
 10
129.2159555879
 20
92.7466692706
 30
0.0
 10
129.1314656049
 20
92.7507147157
 30
0.0
 10
129.0152957232
 20
92.7859603759
 30
0.0
 10
128.9232816245
 20
92.8483220672
 30
0.0
 10
128.8837055898
 20
92.9075562212
 30
0.0
 10
128.8727168766
 20
92.9380853757
 30
0.0
  0
SPLINE
  5
514
100
AcDbEntity
  8
GEOM
100
AcDbSpline
 62
7
  6
CONTINUOUS
 70
0
 71
3
 72
10
 73
6
 74
0
 42
0.0000001
 43
0.0000001
 44
0.0000000001
 40
0.0
 40
0.0
 40
0.0
 40
0.0
 40
0.5163583897
 40
0.7632804203
 40
1.0
 40
1.0
 40
1.0
 40
1.0
 10
129.2181799676
 20
93.0809594364
 30
0.0
 10
129.133783591
 20
93.0797777802
 30
0.0
 10
129.0036770031
 20
93.1144352561
 30
0.0
 10
128.8812113828
 20
93.2261645118
 30
0.0
 10
128.8431416599
 20
93.2978357557
 30
0.0
 10
128.8318096371
 20
93.3348337296
 30
0.0
  0
SPLINE
  5
515
100
AcDbEntity
  8
GEOM
100
AcDbSpline
 62
7
  6
CONTINUOUS
 70
0
 71
3
 72
11
 73
7
 74
0
 42
0.0000001
 43
0.0000001
 44
0.0000000001
 40
0.0
 40
0.0
 40
0.0
 40
0.0
 40
0.2529573238
 40
0.5049575188
 40
0.7541853409
 40
1.0
 40
1.0
 40
1.0
 40
1.0
 10
129.2181799677
 20
93.2598944191
 30
0.0
 10
129.1747335138
 20
93.2602335177
 30
0.0
 10
129.0875442759
 20
93.274849692
 30
0.0
 10
128.9706835627
 20
93.3355381767
 30
0.0
 10
128.8800470995
 20
93.4294625603
 30
0.0
 10
128.8430437052
 20
93.5080729796
 30
0.0
 10
128.8318096371
 20
93.5487719353
 30
0.0
  0
SPLINE
  5
516
100
AcDbEntity
  8
GEOM
100
AcDbSpline
 62
7
  6
CONTINUOUS
 70
0
 71
3
 72
11
 73
7
 74
0
 42
0.0000001
 43
0.0000001
 44
0.0000000001
 40
0.0
 40
0.0
 40
0.0
 40
0.0
 40
0.249386432
 40
0.4993725091
 40
0.7497113926
 40
1.0
 40
1.0
 40
1.0
 40
1.0
 10
129.2590872071
 20
93.3353355639
 30
0.0
 10
129.2153102883
 20
93.3353355639
 30
0.0
 10
129.1270091008
 20
93.3502696516
 30
0.0
 10
129.0092897209
 20
93.4142454907
 30
0.0
 10
128.9190555782
 20
93.5134839054
 30
0.0
 10
128.8833143057
 20
93.5958112892
 30
0.0
 10
128.8727168766
 20
93.6384493448
 30
0.0
  0
SPLINE
  5
517
100
AcDbEntity
  8
0
100
AcDbSpline
 62
7
  6
CONTINUOUS
 70
0
 71
3
 72
48
 73
44
 74
0
 42
0.0000001
 43
0.0000001
 44
0.0000000001
 40
0.0
 40
0.0
 40
0.0
 40
0.0
 40
0.0002185058
 40
0.0006861252
 40
0.0014348528
 40
0.0024707274
 40
0.0037950526
 40
0.0054078425
 40
0.0094967246
 40
0.0147315637
 40
0.0211010203
 40
0.0285896498
 40
0.0371814754
 40
0.0468565836
 40
0.0575913801
 40
0.0693619401
 40
0.0821408696
 40
0.1105998905
 40
0.1427037993
 40
0.1781522364
 40
0.2166131149
 40
0.2577277425
 40
0.3011112022
 40
0.3463574621
 40
0.3930439325
 40
0.4889803351
 40
0.5853394985
 40
0.6785248394
 40
0.765058207
 40
0.8048078161
 40
0.8417095348
 40
0.8754188349
 40
0.9056194148
 40
0.9320299309
 40
0.9544042308
 40
0.9640102105
 40
0.9725324661
 40
0.9799511135
 40
0.9862479108
 40
0.9914101291
 40
0.9954266915
 40
0.9982892942
 40
1.0
 40
1.0
 40
1.0
 40
1.0
 10
142.9832111547
 20
43.6353639636
 30
0.0
 10
142.9797590299
 20
43.6353629472
 30
0.0
 10
142.9723486823
 20
43.6464607357
 30
0.0
 10
142.9665869818
 20
43.6667479695
 30
0.0
 10
142.9587417105
 20
43.702341616
 30
0.0
 10
142.9515707786
 20
43.7505901236
 30
0.0
 10
142.9439417775
 20
43.8130331552
 30
0.0
 10
142.9329943598
 20
43.9234374578
 30
0.0
 10
142.9197804686
 20
44.0957721272
 30
0.0
 10
142.9047340092
 20
44.3432345361
 30
0.0
 10
142.8895874362
 20
44.6445098766
 30
0.0
 10
142.8743671637
 20
44.9988641563
 30
0.0
 10
142.8591077566
 20
45.4054867283
 30
0.0
 10
142.8438195923
 20
45.8634243155
 30
0.0
 10
142.8285092003
 20
46.3716066227
 30
0.0
 10
142.8131841618
 20
46.928845115
 30
0.0
 10
142.7919674003
 20
47.7660466561
 30
0.0
 10
142.765785931
 20
48.9244647996
 30
0.0
 10
142.7353046088
 20
50.4410220031
 30
0.0
 10
142.7047714394
 20
52.1156240929
 30
0.0
 10
142.6741968837
 20
53.9326053286
 30
0.0
 10
142.6435957988
 20
55.8749662787
 30
0.0
 10
142.6129746694
 20
57.9245401696
 30
0.0
 10
142.5823385769
 20
60.062151514
 30
0.0
 10
142.5411059281
 20
63.029968351
 30
0.0
 10
142.4902886591
 20
66.8052511477
 30
0.0
 10
142.4298353492
 20
71.315096177
 30
0.0
 10
142.3694494464
 20
75.6763720099
 30
0.0
 10
142.3179418824
 20
79.1433226101
 30
0.0
 10
142.275961993
 20
81.7211004635
 30
0.0
 10
142.2454058178
 20
83.4643966258
 30
0.0
 10
142.2148984919
 20
85.0568055729
 30
0.0
 10
142.1844641567
 20
86.4834348367
 30
0.0
 10
142.1541215006
 20
87.730940578
 30
0.0
 10
142.1278364215
 20
88.6530750034
 30
0.0
 10
142.1063416981
 20
89.2926052781
 30
0.0
 10
142.0910855603
 20
89.6959296421
 30
0.0
 10
142.0758628399
 20
90.0469254756
 30
0.0
 10
142.0607473834
 20
90.3448046917
 30
0.0
 10
142.0456283761
 20
90.5887991029
 30
0.0
 10
142.0310451221
 20
90.7785895603
 30
0.0
 10
142.0161810071
 20
90.9133069022
 30
0.0
 10
142.005312186
 20
90.9850873251
 30
0.0
 10
141.9976302514
 20
91.0109996803
 30
0.0
  0
SPLINE
  5
518
100
AcDbEntity
  8
0
100
AcDbSpline
 62
7
  6
CONTINUOUS
 70
0
 71
3
 72
9
 73
5
 74
0
 42
0.0000001
 43
0.0000001
 44
0.0000000001
 40
0.0
 40
0.0
 40
0.0
 40
0.0
 40
0.302580157
 40
1.0
 40
1.0
 40
1.0
 40
1.0
 10
141.9976302514
 20
91.0109996803
 30
0.0
 10
141.9970781325
 20
91.0128620627
 30
0.0
 10
141.9951472679
 20
91.018975574
 30
0.0
 10
141.9928515148
 20
91.0250369536
 30
0.0
 10
141.9906142163
 20
91.0289151714
 30
0.0
  0
SPLINE
  5
519
100
AcDbEntity
  8
GEOM
100
AcDbSpline
 62
7
  6
CONTINUOUS
 70
0
 71
3
 72
11
 73
7
 74
0
 42
0.0000001
 43
0.0000001
 44
0.0000000001
 40
0.0
 40
0.0
 40
0.0
 40
0.0
 40
0.2505347022
 40
0.5003339379
 40
0.7499513193
 40
1.0
 40
1.0
 40
1.0
 40
1.0
 10
128.8727168766
 20
41.732585752
 30
0.0
 10
129.0283154586
 20
42.895452555
 30
0.0
 10
129.2725453144
 20
45.2275098055
 30
0.0
 10
129.400063961
 20
48.7400819573
 30
0.0
 10
129.2727131792
 20
52.2503898409
 30
0.0
 10
129.0283845489
 20
54.5793039135
 30
0.0
 10
128.8727168766
 20
55.7398651341
 30
0.0
  0
SPLINE
  5
51A
100
AcDbEntity
  8
0
100
AcDbSpline
 62
7
  6
CONTINUOUS
 70
0
 71
3
 72
33
 73
29
 74
0
 42
0.0000001
 43
0.0000001
 44
0.0000000001
 40
0.0
 40
0.0
 40
0.0
 40
0.0
 40
0.1637760525
 40
0.2497972432
 40
0.3367854081
 40
0.4233645112
 40
0.5081632102
 40
0.5898341337
 40
0.6670766502
 40
0.7386553276
 40
0.803421067
 40
0.8329186452
 40
0.8603314641
 40
0.8855480122
 40
0.9084668839
 40
0.9289934782
 40
0.9470456799
 40
0.9625475414
 40
0.9754377389
 40
0.9808855734
 40
0.9856611647
 40
0.9897601638
 40
0.9931783079
 40
0.9959116029
 40
0.9979580353
 40
0.9993180863
 40
0.9997423814
 40
1.0
 40
1.0
 40
1.0
 40
1.0
 10
141.8832107988
 20
55.9467414583
 30
0.0
 10
141.8654747435
 20
57.9108216969
 30
0.0
 10
141.8400989329
 20
60.9065239773
 30
0.0
 10
141.8070990693
 20
64.9454444181
 30
0.0
 10
141.7819242124
 20
68.0585777067
 30
0.0
 10
141.7567238533
 20
71.1570489938
 30
0.0
 10
141.7315077247
 20
74.1917485423
 30
0.0
 10
141.7062823754
 20
77.1144706906
 30
0.0
 10
141.6810593764
 20
79.8786394761
 30
0.0
 10
141.6558490516
 20
82.4400560909
 30
0.0
 10
141.6342573652
 20
84.4288765814
 30
0.0
 10
141.6167461934
 20
85.8880292052
 30
0.0
 10
141.6040276644
 20
86.8728927576
 30
0.0
 10
141.591314021
 20
87.7788510974
 30
0.0
 10
141.578610866
 20
88.6022145194
 30
0.0
 10
141.5659209219
 20
89.3396451331
 30
0.0
 10
141.5532617586
 20
89.9881097879
 30
0.0
 10
141.5406359299
 20
90.5449720875
 30
0.0
 10
141.5296606229
 20
90.9506665032
 30
0.0
 10
141.5206649435
 20
91.2277225954
 30
0.0
 10
141.5143119943
 20
91.3993728825
 30
0.0
 10
141.5079899534
 20
91.546668499
 30
0.0
 10
141.5016779474
 20
91.6694309362
 30
0.0
 10
141.4954970748
 20
91.7675842887
 30
0.0
 10
141.4892701515
 20
91.8408980968
 30
0.0
 10
141.4840614336
 20
91.8866759988
 30
0.0
 10
141.4791886275
 20
91.9105981731
 30
0.0
 10
141.4768418916
 20
91.9185558299
 30
0.0
 10
141.4752997813
 20
91.9212330657
 30
0.0
  0
SPLINE
  5
51B
100
AcDbEntity
  8
0
100
AcDbSpline
 62
7
  6
CONTINUOUS
 70
0
 71
3
 72
10
 73
6
 74
0
 42
0.0000001
 43
0.0000001
 44
0.0000000001
 40
0.0
 40
0.0
 40
0.0
 40
0.0
 40
0.7143811974
 40
0.9079629918
 40
1.0
 40
1.0
 40
1.0
 40
1.0
 10
121.1064158796
 20
163.9184668282
 30
0.0
 10
121.1131452132
 20
163.9197080971
 30
0.0
 10
121.1220293123
 20
163.9215962193
 30
0.0
 10
121.1305051078
 20
163.9246162267
 30
0.0
 10
121.1332107988
 20
163.9265452813
 30
0.0
 10
121.1332107988
 20
163.9274268778
 30
0.0
  0
SPLINE
  5
51C
100
AcDbEntity
  8
0
100
AcDbSpline
 62
7
  6
CONTINUOUS
 70
0
 71
3
 72
9
 73
5
 74
0
 42
0.0000001
 43
0.0000001
 44
0.0000000001
 40
0.0
 40
0.0
 40
0.0
 40
0.0
 40
0.1880542332
 40
1.0
 40
1.0
 40
1.0
 40
1.0
 10
78.382656468
 20
92.3353032109
 30
0.0
 10
78.3832546713
 20
92.3353039097
 30
0.0
 10
78.3864473132
 20
92.3345091178
 30
0.0
 10
78.388381477
 20
92.3314753748
 30
0.0
 10
78.389674393
 20
92.3292394652
 30
0.0
  0
SPLINE
  5
51D
100
AcDbEntity
  8
0
100
AcDbSpline
 62
7
  6
CONTINUOUS
 70
0
 71
3
 72
9
 73
5
 74
0
 42
0.0000001
 43
0.0000001
 44
0.0000000001
 40
0.0
 40
0.0
 40
0.0
 40
0.0
 40
0.187901341
 40
1.0
 40
1.0
 40
1.0
 40
1.0
 10
78.03376624
 20
92.33530677
 30
0.0
 10
78.0331675228
 20
92.3353054379
 30
0.0
 10
78.0299727719
 20
92.334498019
 30
0.0
 10
78.0280408659
 20
92.3314590043
 30
0.0
 10
78.026747336
 20
92.3292178896
 30
0.0
  0
SPLINE
  5
51E
100
AcDbEntity
  8
0
100
AcDbSpline
 62
7
  6
CONTINUOUS
 70
0
 71
3
 72
9
 73
5
 74
0
 42
0.0000001
 43
0.0000001
 44
0.0000000001
 40
0.0
 40
0.0
 40
0.0
 40
0.0
 40
0.5485852532
 40
1.0
 40
1.0
 40
1.0
 40
1.0
 10
79.4928151092
 20
91.3983846249
 30
0.0
 10
79.492553644
 20
91.3986457121
 30
0.0
 10
79.4920200121
 20
91.3990807481
 30
0.0
 10
79.4913315909
 20
91.399242088
 30
0.0
 10
79.4910280695
 20
91.3992241482
 30
0.0
  0
SPLINE
  5
51F
100
AcDbEntity
  8
0
100
AcDbSpline
 62
7
  6
CONTINUOUS
 70
0
 71
3
 72
9
 73
5
 74
0
 42
0.0000001
 43
0.0000001
 44
0.0000000001
 40
0.0
 40
0.0
 40
0.0
 40
0.0
 40
0.4013215831
 40
1.0
 40
1.0
 40
1.0
 40
1.0
 10
79.4910280695
 20
91.3992241482
 30
0.0
 10
79.4905052156
 20
91.3991932446
 30
0.0
 10
79.4892879052
 20
91.3984617136
 30
0.0
 10
79.4885833806
 20
91.3973558806
 30
0.0
 10
79.4881934752
 20
91.3966787821
 30
0.0
  0
SPLINE
  5
520
100
AcDbEntity
  8
0
100
AcDbSpline
 62
7
  6
CONTINUOUS
 70
0
 71
3
 72
9
 73
5
 74
0
 42
0.0000001
 43
0.0000001
 44
0.0000000001
 40
0.0
 40
0.0
 40
0.0
 40
0.0
 40
0.4204311498
 40
1.0
 40
1.0
 40
1.0
 40
1.0
 10
78.858839102
 20
42.6383543106
 30
0.0
 10
78.8582824158
 20
42.6377973304
 30
0.0
 10
78.8560394661
 20
42.637014011
 30
0.0
 10
78.8548810532
 20
42.6390513586
 30
0.0
 10
78.8543373218
 20
42.6399909209
 30
0.0
  0
SPLINE
  5
521
100
AcDbEntity
  8
0
100
AcDbSpline
 62
7
  6
CONTINUOUS
 70
0
 71
3
 72
11
 73
7
 74
0
 42
0.0000001
 43
0.0000001
 44
0.0000000001
 40
0.0
 40
0.0
 40
0.0
 40
0.0
 40
0.2188990937
 40
0.4641609746
 40
0.7290729742
 40
1.0
 40
1.0
 40
1.0
 40
1.0
 10
115.636154524
 20
94.2539114816
 30
0.0
 10
115.5285188302
 20
94.2808307443
 30
0.0
 10
115.3123855031
 20
94.3895442468
 30
0.0
 10
115.0506725368
 20
94.6572511721
 30
0.0
 10
114.8557953836
 20
95.0065364695
 30
0.0
 10
114.7834859934
 20
95.2716244258
 30
0.0
 10
114.7640577316
 20
95.4075647592
 30
0.0
  0
SPLINE
  5
522
100
AcDbEntity
  8
0
100
AcDbSpline
 62
7
  6
CONTINUOUS
 70
0
 71
3
 72
46
 73
42
 74
0
 42
0.0000001
 43
0.0000001
 44
0.0000000001
 40
0.0
 40
0.0
 40
0.0
 40
0.0
 40
0.0002182477
 40
0.0006853148
 40
0.0014324446
 40
0.0024652921
 40
0.0037854641
 40
0.0053933932
 40
0.0094717948
 40
0.0146930689
 40
0.0210445823
 40
0.0285131091
 40
0.0370827357
 40
0.0467318928
 40
0.0574381854
 40
0.0819245021
 40
0.1103110837
 40
0.1423360683
 40
0.1776993744
 40
0.2160717074
 40
0.257095999
 40
0.3003883216
 40
0.3455464471
 40
0.3921479729
 40
0.4879351894
 40
0.5841848178
 40
0.677314605
 40
0.7638583427
 40
0.8036403135
 40
0.8405948304
 40
0.8743755584
 40
0.9046686687
 40
0.9311921232
 40
0.9536973799
 40
0.9719780088
 40
0.9794779844
 40
0.9858620768
 40
0.9911159945
 40
0.9952266288
 40
0.9981877306
 40
1.0
 40
1.0
 40
1.0
 40
1.0
 10
75.2832107988
 20
91.0353355639
 30
0.0
 10
75.2866584754
 20
91.0353355639
 30
0.0
 10
75.2940447563
 20
91.0242374086
 30
0.0
 10
75.2997999253
 20
91.0039954731
 30
0.0
 10
75.3076315914
 20
90.9684848117
 30
0.0
 10
75.3147982871
 20
90.9203818871
 30
0.0
 10
75.3224197182
 20
90.8581361384
 30
0.0
 10
75.3333593712
 20
90.7480526462
 30
0.0
 10
75.3465529995
 20
90.5761928595
 30
0.0
 10
75.3615775201
 20
90.3294204971
 30
0.0
 10
75.3767041309
 20
90.0289929813
 30
0.0
 10
75.3919005229
 20
89.6756284847
 30
0.0
 10
75.4071359502
 20
89.2701278299
 30
0.0
 10
75.4224052482
 20
88.8134505684
 30
0.0
 10
75.4437594714
 20
88.1054025081
 30
0.0
 10
75.4699733587
 20
87.1013755452
 30
0.0
 10
75.5003334092
 20
85.7605791202
 30
0.0
 10
75.5307645947
 20
84.2479207155
 30
0.0
 10
75.5612573106
 20
82.5774894138
 30
0.0
 10
75.5917878458
 20
80.764874376
 30
0.0
 10
75.6223453933
 20
78.8269880343
 30
0.0
 10
75.6529241735
 20
76.7818937911
 30
0.0
 10
75.683516095
 20
74.648686361
 30
0.0
 10
75.7246949348
 20
71.6862798206
 30
0.0
 10
75.7754460634
 20
67.9168322234
 30
0.0
 10
75.8358172882
 20
63.4124369831
 30
0.0
 10
75.8961225315
 20
59.0540741887
 30
0.0
 10
75.9475524383
 20
55.5876985329
 30
0.0
 10
75.9894653733
 20
53.0086879948
 30
0.0
 10
76.0199793935
 20
51.2631049754
 30
0.0
 10
76.0504452439
 20
49.6674418853
 30
0.0
 10
76.0808475273
 20
48.23659114
 30
0.0
 10
76.1111296278
 20
46.9839005773
 30
0.0
 10
76.1412849868
 20
45.9210358192
 30
0.0
 10
76.1675533744
 20
45.1586991205
 30
0.0
 10
76.1892880946
 20
44.6510574952
 30
0.0
 10
76.2043993611
 20
44.3490969522
 30
0.0
 10
76.2194855884
 20
44.1007947636
 30
0.0
 10
76.2341292963
 20
43.906552623
 30
0.0
 10
76.2489299706
 20
43.7671199782
 30
0.0
 10
76.2599251165
 20
43.6922453247
 30
0.0
 10
76.2673926706
 20
43.6646078463
 30
0.0
  0
SPLINE
  5
523
100
AcDbEntity
  8
0
100
AcDbSpline
 62
7
  6
CONTINUOUS
 70
0
 71
3
 72
9
 73
5
 74
0
 42
0.0000001
 43
0.0000001
 44
0.0000000001
 40
0.0
 40
0.0
 40
0.0
 40
0.0
 40
0.3102464311
 40
1.0
 40
1.0
 40
1.0
 40
1.0
 10
76.2673926706
 20
43.6646078463
 30
0.0
 10
76.268050559
 20
43.6621729958
 30
0.0
 10
76.2703145461
 20
43.6543815742
 30
0.0
 10
76.2730033866
 20
43.6466022636
 30
0.0
 10
76.2758069491
 20
43.6417460476
 30
0.0
  0
SPLINE
  5
524
100
AcDbEntity
  8
0
100
AcDbSpline
 62
7
  6
CONTINUOUS
 70
0
 71
3
 72
9
 73
5
 74
0
 42
0.0000001
 43
0.0000001
 44
0.0000000001
 40
0.0
 40
0.0
 40
0.0
 40
0.0
 40
0.4999897802
 40
1.0
 40
1.0
 40
1.0
 40
1.0
 10
96.9351717716
 20
143.1696501389
 30
0.0
 10
96.9351717716
 20
143.221939372
 30
0.0
 10
96.9135243671
 20
143.3276164937
 30
0.0
 10
96.8520844814
 20
143.4160482237
 30
0.0
 10
96.8145854607
 20
143.4524928514
 30
0.0
  0
SPLINE
  5
525
100
AcDbEntity
  8
0
100
AcDbSpline
 62
7
  6
CONTINUOUS
 70
0
 71
3
 72
9
 73
5
 74
0
 42
0.0000001
 43
0.0000001
 44
0.0000000001
 40
0.0
 40
0.0
 40
0.0
 40
0.0
 40
0.307004881
 40
1.0
 40
1.0
 40
1.0
 40
1.0
 10
76.0337661488
 20
92.3353355639
 30
0.0
 10
76.0377273037
 20
92.3353355639
 30
0.0
 10
76.0455817431
 20
92.3209459709
 30
0.0
 10
76.048237136
 20
92.3100027471
 30
0.0
 10
76.0503576754
 20
92.3013164135
 30
0.0
  0
SPLINE
  5
526
100
AcDbEntity
  8
0
100
AcDbSpline
 62
7
  6
CONTINUOUS
 70
0
 71
3
 72
43
 73
39
 74
0
 42
0.0000001
 43
0.0000001
 44
0.0000000001
 40
0.0
 40
0.0
 40
0.0
 40
0.0
 40
0.0018483633
 40
0.0048294796
 40
0.0089436732
 40
0.0141823161
 40
0.0205333968
 40
0.0279843203
 40
0.0461143692
 40
0.0684061244
 40
0.0946549239
 40
0.1246219606
 40
0.1580306278
 40
0.1945759234
 40
0.2339226674
 40
0.3195509567
 40
0.4117781228
 40
0.5072270685
 40
0.6023991506
 40
0.6938097054
 40
0.7370498622
 40
0.7781117692
 40
0.8166178155
 40
0.8522152154
 40
0.8845752513
 40
0.9134033902
 40
0.9384349911
 40
0.9594401026
 40
0.9683719901
 40
0.9762284944
 40
0.9829905822
 40
0.9886448266
 40
0.9931790157
 40
0.9965824197
 40
0.9978588689
 40
0.9988522032
 40
0.9995640058
 40
1.0
 40
1.0
 40
1.0
 40
1.0
 10
76.0503576754
 20
92.3013164135
 30
0.0
 10
76.0576601258
 20
92.2714034952
 30
0.0
 10
76.0686378835
 20
92.1914762023
 30
0.0
 10
76.0833124514
 20
92.0433082565
 30
0.0
 10
76.0978756933
 20
91.8382889739
 30
0.0
 10
76.1128444254
 20
91.5771273743
 30
0.0
 10
76.1278437733
 20
91.2602777333
 30
0.0
 10
76.149391308
 20
90.7287679241
 30
0.0
 10
76.1754602389
 20
89.9316835297
 30
0.0
 10
76.2053787044
 20
88.8214379063
 30
0.0
 10
76.2354285755
 20
87.5139439183
 30
0.0
 10
76.265590213
 20
86.0212178638
 30
0.0
 10
76.2958170802
 20
84.3569352757
 30
0.0
 10
76.3260915301
 20
82.5363764176
 30
0.0
 10
76.3676785829
 20
79.8459751454
 30
0.0
 10
76.4187187332
 20
76.2280228342
 30
0.0
 10
76.478559648
 20
71.6755139889
 30
0.0
 10
76.538464487
 20
66.9640054143
 30
0.0
 10
76.5983708141
 20
62.2661017563
 30
0.0
 10
76.649105518
 20
58.437883481
 30
0.0
 10
76.6903249518
 20
55.5110259126
 30
0.0
 10
76.7206480276
 20
53.4654242782
 30
0.0
 10
76.7509458331
 20
51.5471555864
 30
0.0
 10
76.7812052419
 20
49.7738675804
 30
0.0
 10
76.811417127
 20
48.1618258149
 30
0.0
 10
76.8415453067
 20
46.7258287216
 30
0.0
 10
76.871572048
 20
45.4790355623
 30
0.0
 10
76.8976309214
 20
44.5636937821
 30
0.0
 10
76.9189807119
 20
43.9344631568
 30
0.0
 10
76.934075254
 20
43.5424301456
 30
0.0
 10
76.9491258524
 20
43.2050458759
 30
0.0
 10
76.9640648822
 20
42.9230556614
 30
0.0
 10
76.9789175364
 20
42.6971302366
 30
0.0
 10
76.9919036604
 20
42.5441324541
 30
0.0
 10
77.0029545581
 20
42.4502995211
 30
0.0
 10
77.0102526753
 20
42.4010887122
 30
0.0
 10
77.0175380746
 20
42.3662918083
 30
0.0
 10
77.0231220269
 20
42.34772502
 30
0.0
 10
77.0267471551
 20
42.341431281
 30
0.0
  0
SPLINE
  5
527
100
AcDbEntity
  8
0
100
AcDbSpline
 62
7
  6
CONTINUOUS
 70
0
 71
3
 72
9
 73
5
 74
0
 42
0.0000001
 43
0.0000001
 44
0.0000000001
 40
0.0
 40
0.0
 40
0.0
 40
0.0
 40
0.3070260142
 40
1.0
 40
1.0
 40
1.0
 40
1.0
 10
77.3826556463
 20
42.3353355639
 30
0.0
 10
77.3786959428
 20
42.3353355639
 30
0.0
 10
77.3708429691
 20
42.3497168942
 30
0.0
 10
77.3681881871
 20
42.3606559394
 30
0.0
 10
77.3660681386
 20
42.3693381062
 30
0.0
  0
SPLINE
  5
528
100
AcDbEntity
  8
0
100
AcDbSpline
 62
7
  6
CONTINUOUS
 70
0
 71
3
 72
43
 73
39
 74
0
 42
0.0000001
 43
0.0000001
 44
0.0000000001
 40
0.0
 40
0.0
 40
0.0
 40
0.0
 40
0.0018480538
 40
0.0048288261
 40
0.0089425921
 40
0.0141807007
 40
0.0205312143
 40
0.0279815454
 40
0.0461099518
 40
0.0684005428
 40
0.0946484072
 40
0.1246151412
 40
0.1580242607
 40
0.1945702875
 40
0.2339175532
 40
0.3195454163
 40
0.4117735023
 40
0.5072260461
 40
0.6024026295
 40
0.693813812
 40
0.7370533911
 40
0.7781147719
 40
0.816620703
 40
0.8522181081
 40
0.8845782949
 40
0.9134065218
 40
0.9384374357
 40
0.9594418245
 40
0.9683731359
 40
0.9762292512
 40
0.9829910749
 40
0.988645068
 40
0.9931790896
 40
0.9965824356
 40
0.9978588729
 40
0.9988522023
 40
0.9995640045
 40
1.0
 40
1.0
 40
1.0
 40
1.0
 10
77.3660681386
 20
42.3693381062
 30
0.0
 10
77.3587651971
 20
42.3992456084
 30
0.0
 10
77.3477877697
 20
42.479162129
 30
0.0
 10
77.3331133788
 20
42.6273119566
 30
0.0
 10
77.3185506592
 20
42.8323095827
 30
0.0
 10
77.3035822475
 20
43.0934457589
 30
0.0
 10
77.288583434
 20
43.410267294
 30
0.0
 10
77.2670367989
 20
43.9417306027
 30
0.0
 10
77.2409676951
 20
44.7387586125
 30
0.0
 10
77.2110504034
 20
45.8489422931
 30
0.0
 10
77.1809999912
 20
47.1563966891
 30
0.0
 10
77.1508378332
 20
48.6491101554
 30
0.0
 10
77.1206101916
 20
50.3134079758
 30
0.0
 10
77.090334676
 20
52.1339958505
 30
0.0
 10
77.0487470369
 20
54.8244118096
 30
0.0
 10
76.9977062213
 20
58.4423822666
 30
0.0
 10
76.9378642083
 20
62.9949608266
 30
0.0
 10
76.8779573672
 20
67.7066212493
 30
0.0
 10
76.8180491583
 20
72.4046718856
 30
0.0
 10
76.7673132136
 20
76.2329672795
 30
0.0
 10
76.7260938198
 20
79.1598179186
 30
0.0
 10
76.6957707146
 20
81.205399942
 30
0.0
 10
76.6654730269
 20
83.1236586922
 30
0.0
 10
76.6352133524
 20
84.8969479821
 30
0.0
 10
76.6050008779
 20
86.5089943542
 30
0.0
 10
76.5748728937
 20
87.944984477
 30
0.0
 10
76.54484549
 20
89.1917560203
 30
0.0
 10
76.5187878441
 20
90.1070650569
 30
0.0
 10
76.4974381023
 20
90.7362677693
 30
0.0
 10
76.4823440533
 20
91.1282804414
 30
0.0
 10
76.4672940794
 20
91.4656497732
 30
0.0
 10
76.4523554337
 20
91.7476287114
 30
0.0
 10
76.4375030703
 20
91.9735462729
 30
0.0
 10
76.4245172987
 20
92.1265401672
 30
0.0
 10
76.4134664935
 20
92.2203718921
 30
0.0
 10
76.4061683829
 20
92.2695824286
 30
0.0
 10
76.3988829673
 20
92.304379274
 30
0.0
 10
76.3932989981
 20
92.3229460783
 30
0.0
 10
76.3896738561
 20
92.3292398367
 30
0.0
  0
SPLINE
  5
529
100
AcDbEntity
  8
0
100
AcDbSpline
 62
7
  6
CONTINUOUS
 70
0
 71
3
 72
9
 73
5
 74
0
 42
0.0000001
 43
0.0000001
 44
0.0000000001
 40
0.0
 40
0.0
 40
0.0
 40
0.0
 40
0.3069988699
 40
1.0
 40
1.0
 40
1.0
 40
1.0
 10
75.3826550541
 20
42.3353355639
 30
0.0
 10
75.3786934603
 20
42.3353355639
 30
0.0
 10
75.3708385805
 20
42.3497276303
 30
0.0
 10
75.3681829952
 20
42.3606721037
 30
0.0
 10
75.3660623055
 20
42.3693596802
 30
0.0
  0
SPLINE
  5
52A
100
AcDbEntity
  8
0
100
AcDbSpline
 62
7
  6
CONTINUOUS
 70
0
 71
3
 72
43
 73
39
 74
0
 42
0.0000001
 43
0.0000001
 44
0.0000000001
 40
0.0
 40
0.0
 40
0.0
 40
0.0
 40
0.0018484507
 40
0.0048296522
 40
0.0089439287
 40
0.0141826521
 40
0.0205338097
 40
0.0279848061
 40
0.0461149929
 40
0.068406871
 40
0.0946557856
 40
0.1246230168
 40
0.1580324121
 40
0.1945790587
 40
0.2339269513
 40
0.3195566269
 40
0.4117837211
 40
0.5072315338
 40
0.6024046449
 40
0.693814809
 40
0.7370543176
 40
0.7781151494
 40
0.8166199318
 40
0.8522160648
 40
0.8845756016
 40
0.9134036263
 40
0.9384351553
 40
0.9594402112
 40
0.968372074
 40
0.9762285578
 40
0.9829906277
 40
0.9886448564
 40
0.9931790332
 40
0.9965824285
 40
0.9978588744
 40
0.9988522061
 40
0.9995640069
 40
1.0
 40
1.0
 40
1.0
 40
1.0
 10
75.3660623055
 20
42.3693596802
 30
0.0
 10
75.3587600081
 20
42.399274131
 30
0.0
 10
75.3477821613
 20
42.479204263
 30
0.0
 10
75.3331076163
 20
42.6273765003
 30
0.0
 10
75.3185443244
 20
42.8323998955
 30
0.0
 10
75.3035756
 20
43.0935654841
 30
0.0
 10
75.2885762465
 20
43.4104189299
 30
0.0
 10
75.2670287314
 20
43.9419334833
 30
0.0
 10
75.2409598138
 20
44.7390233572
 30
0.0
 10
75.2110413521
 20
45.8492751333
 30
0.0
 10
75.1809914498
 20
47.1567761939
 30
0.0
 10
75.1508295593
 20
48.6495193813
 30
0.0
 10
75.1206021606
 20
50.3138396728
 30
0.0
 10
75.0903270381
 20
52.1344521107
 30
0.0
 10
75.048739112
 20
54.8249178365
 30
0.0
 10
74.9976987689
 20
58.4429108098
 30
0.0
 10
74.9378579621
 20
62.9954222157
 30
0.0
 10
74.8779532003
 20
67.7069273807
 30
0.0
 10
74.8180469544
 20
72.4048223194
 30
0.0
 10
74.7673120175
 20
76.2330400357
 30
0.0
 10
74.7260930043
 20
79.1598620912
 30
0.0
 10
74.6957703574
 20
81.2054137544
 30
0.0
 10
74.6654735424
 20
83.1236221871
 30
0.0
 10
74.6352147724
 20
84.8968595412
 30
0.0
 10
74.6050034325
 20
86.5088698249
 30
0.0
 10
74.5748754891
 20
87.94485536
 30
0.0
 10
74.5448488139
 20
89.1916443659
 30
0.0
 10
74.5187899985
 20
90.1069835171
 30
0.0
 10
74.4974402482
 20
90.7362123989
 30
0.0
 10
74.4823457385
 20
91.1282443208
 30
0.0
 10
74.4672951727
 20
91.4656276557
 30
0.0
 10
74.4523561738
 20
91.7476170767
 30
0.0
 10
74.4375035506
 20
91.9735418665
 30
0.0
 10
74.4245174581
 20
92.1265392291
 30
0.0
 10
74.4134665841
 20
92.2203719118
 30
0.0
 10
74.4061684822
 20
92.269582588
 30
0.0
 10
74.3988830983
 20
92.3043793986
 30
0.0
 10
74.393299157
 20
92.3229461369
 30
0.0
 10
74.3896740367
 20
92.3292398591
 30
0.0
  0
SPLINE
  5
52B
100
AcDbEntity
  8
0
100
AcDbSpline
 62
7
  6
CONTINUOUS
 70
0
 71
3
 72
9
 73
5
 74
0
 42
0.0000001
 43
0.0000001
 44
0.0000000001
 40
0.0
 40
0.0
 40
0.0
 40
0.0
 40
0.306935529
 40
1.0
 40
1.0
 40
1.0
 40
1.0
 10
74.0337663462
 20
92.3353355639
 30
0.0
 10
74.0377325334
 20
92.3353355639
 30
0.0
 10
74.0455919513
 20
92.3209174962
 30
0.0
 10
74.0482495451
 20
92.3099599517
 30
0.0
 10
74.0503717976
 20
92.3012593389
 30
0.0
  0
SPLINE
  5
52C
100
AcDbEntity
  8
0
100
AcDbSpline
 62
7
  6
CONTINUOUS
 70
0
 71
3
 72
43
 73
39
 74
0
 42
0.0000001
 43
0.0000001
 44
0.0000000001
 40
0.0
 40
0.0
 40
0.0
 40
0.0
 40
0.0018493586
 40
0.0048314302
 40
0.0089465146
 40
0.0141859683
 40
0.0205377892
 40
0.0279893715
 40
0.0461203135
 40
0.0684126874
 40
0.0946620378
 40
0.1246302078
 40
0.1580406457
 40
0.1945880358
 40
0.2339365502
 40
0.3195668739
 40
0.4117937078
 40
0.5072433116
 40
0.6024170091
 40
0.6938258217
 40
0.7370640206
 40
0.778123119
 40
0.8166268079
 40
0.8522223798
 40
0.8845812489
 40
0.9134085205
 40
0.938438889
 40
0.9594429356
 40
0.9683741622
 40
0.9762301854
 40
0.9829918313
 40
0.988645587
 40
0.9931793959
 40
0.9965825987
 40
0.9978589769
 40
0.9988522579
 40
0.9995640247
 40
1.0
 40
1.0
 40
1.0
 40
1.0
 10
74.0503717976
 20
92.3012593389
 30
0.0
 10
74.0576724164
 20
92.2713289434
 30
0.0
 10
74.0686510833
 20
92.1913695722
 30
0.0
 10
74.0833251493
 20
92.0431538686
 30
0.0
 10
74.0978886819
 20
91.8380906499
 30
0.0
 10
74.1128570515
 20
91.5768885253
 30
0.0
 10
74.127856102
 20
91.2600024147
 30
0.0
 10
74.1494026836
 20
90.7284549646
 30
0.0
 10
74.1754710145
 20
89.9313353172
 30
0.0
 10
74.2053884242
 20
88.821056587
 30
0.0
 10
74.2354379935
 20
87.5135257504
 30
0.0
 10
74.2655996884
 20
86.0207438776
 30
0.0
 10
74.2958271627
 20
84.3563799639
 30
0.0
 10
74.3261023612
 20
82.5357293528
 30
0.0
 10
74.36769
 20
79.8452329476
 30
0.0
 10
74.4187300312
 20
76.2272270101
 30
0.0
 10
74.4785709122
 20
71.6746841629
 30
0.0
 10
74.5384759869
 20
66.9631487577
 30
0.0
 10
74.5983825411
 20
62.2652417425
 30
0.0
 10
74.6491174847
 20
58.4370626778
 30
0.0
 10
74.6903357904
 20
55.5103169516
 30
0.0
 10
74.7206578655
 20
53.4648363819
 30
0.0
 10
74.7509542024
 20
51.5466864359
 30
0.0
 10
74.7812127427
 20
49.7734896611
 30
0.0
 10
74.8114242025
 20
48.1615141219
 30
0.0
 10
74.8415516019
 20
46.7255731177
 30
0.0
 10
74.8715783758
 20
45.4788341531
 30
0.0
 10
74.8976360697
 20
44.5635427076
 30
0.0
 10
74.9189857897
 20
43.934349601
 30
0.0
 10
74.9340797336
 20
43.5423434327
 30
0.0
 10
74.9491295519
 20
43.204983064
 30
0.0
 10
74.9640679927
 20
42.9230150147
 30
0.0
 10
74.9789200842
 20
42.6971076844
 30
0.0
 10
74.9919053664
 20
42.5441209213
 30
0.0
 10
75.0029558791
 20
42.4502935105
 30
0.0
 10
75.0102538047
 20
42.4010854324
 30
0.0
 10
75.0175390364
 20
42.3662903655
 30
0.0
 10
75.0231229059
 20
42.3477245354
 30
0.0
 10
75.0267479443
 20
42.3414311169
 30
0.0
  0
SPLINE
  5
52D
100
AcDbEntity
  8
0
100
AcDbSpline
 62
7
  6
CONTINUOUS
 70
0
 71
3
 72
9
 73
5
 74
0
 42
0.0000001
 43
0.0000001
 44
0.0000000001
 40
0.0
 40
0.0
 40
0.0
 40
0.0
 40
0.3074403087
 40
1.0
 40
1.0
 40
1.0
 40
1.0
 10
72.033765754
 20
92.3353355639
 30
0.0
 10
72.037695842
 20
92.3353355639
 30
0.0
 10
72.0455192472
 20
92.3211217848
 30
0.0
 10
72.0481611924
 20
92.3102671707
 30
0.0
 10
72.0502711459
 20
92.3016691087
 30
0.0
  0
SPLINE
  5
52E
100
AcDbEntity
  8
0
100
AcDbSpline
 62
7
  6
CONTINUOUS
 70
0
 71
3
 72
43
 73
39
 74
0
 42
0.0000001
 43
0.0000001
 44
0.0000000001
 40
0.0
 40
0.0
 40
0.0
 40
0.0
 40
0.0018421371
 40
0.0048171449
 40
0.0089253377
 40
0.0141580979
 40
0.0205035664
 40
0.0279492222
 40
0.0460692304
 40
0.0683524376
 40
0.0945939221
 40
0.1245551985
 40
0.1579596807
 40
0.1945018527
 40
0.2338460254
 40
0.3194723505
 40
0.4117032882
 40
0.5071611345
 40
0.6023447646
 40
0.6937660335
 40
0.7370119931
 40
0.7780796806
 40
0.8165914431
 40
0.8521943465
 40
0.8845595213
 40
0.9133920799
 40
0.9384268067
 40
0.9594345996
 40
0.9683675878
 40
0.9762251374
 40
0.9829881729
 40
0.9886432103
 40
0.9931780471
 40
0.9965819506
 40
0.9978585853
 40
0.9988520604
 40
0.9995639578
 40
1.0
 40
1.0
 40
1.0
 40
1.0
 10
72.0502711459
 20
92.3016691087
 30
0.0
 10
72.0575849101
 20
92.271865513
 30
0.0
 10
72.0685568153
 20
92.1921411122
 30
0.0
 10
72.0832336534
 20
92.0442812315
 30
0.0
 10
72.0977938637
 20
91.8395596421
 30
0.0
 10
72.1127636794
 20
91.5786885442
 30
0.0
 10
72.1277631049
 20
91.2621159946
 30
0.0
 10
72.1493127805
 20
90.730951275
 30
0.0
 10
72.1753843522
 20
89.9342587451
 30
0.0
 10
72.2053040861
 20
88.8244367946
 30
0.0
 10
72.2353565579
 20
87.5172936828
 30
0.0
 10
72.2655208339
 20
86.0248444454
 30
0.0
 10
72.2957504429
 20
84.3607675776
 30
0.0
 10
72.3260277076
 20
82.540360168
 30
0.0
 10
72.3676187084
 20
79.8500670436
 30
0.0
 10
72.4186635441
 20
76.2321012748
 30
0.0
 10
72.4785099572
 20
71.6793810738
 30
0.0
 10
72.5384210317
 20
66.9674348851
 30
0.0
 10
72.5983335402
 20
62.2689780461
 30
0.0
 10
72.649073168
 20
58.440264494
 30
0.0
 10
72.6902962445
 20
55.513014255
 30
0.0
 10
72.7206223171
 20
53.4671096034
 30
0.0
 10
72.7509230796
 20
51.5485438027
 30
0.0
 10
72.781185512
 20
49.7749704279
 30
0.0
 10
72.8114006752
 20
48.1626660669
 30
0.0
 10
72.841531255
 20
46.7264472462
 30
0.0
 10
72.871560774
 20
45.4794746858
 30
0.0
 10
72.8976210481
 20
44.5640111739
 30
0.0
 10
72.9189724518
 20
43.9346955678
 30
0.0
 10
72.9340680356
 20
43.5426081728
 30
0.0
 10
72.9491196641
 20
43.2051750391
 30
0.0
 10
72.9640598231
 20
42.9231429885
 30
0.0
 10
72.9789136504
 20
42.6971836082
 30
0.0
 10
72.9919007819
 20
42.5441625037
 30
0.0
 10
73.0029526366
 20
42.4503151522
 30
0.0
 10
73.0102513602
 20
42.4010969568
 30
0.0
 10
73.0175374122
 20
42.3662951409
 30
0.0
 10
73.0231217999
 20
42.3477257894
 30
0.0
 10
73.0267473469
 20
42.341431307
 30
0.0
  0
SPLINE
  5
52F
100
AcDbEntity
  8
0
100
AcDbSpline
 62
7
  6
CONTINUOUS
 70
0
 71
3
 72
9
 73
5
 74
0
 42
0.0000001
 43
0.0000001
 44
0.0000000001
 40
0.0
 40
0.0
 40
0.0
 40
0.0
 40
0.3074695638
 40
1.0
 40
1.0
 40
1.0
 40
1.0
 10
73.3826558436
 20
42.3353355639
 30
0.0
 10
73.3787278328
 20
42.3353355639
 30
0.0
 10
73.3709065088
 20
42.3495375963
 30
0.0
 10
73.368265461
 20
42.3603862886
 30
0.0
 10
73.3661562167
 20
42.3689784549
 30
0.0
  0
SPLINE
  5
530
100
AcDbEntity
  8
0
100
AcDbSpline
 62
7
  6
CONTINUOUS
 70
0
 71
3
 72
43
 73
39
 74
0
 42
0.0000001
 43
0.0000001
 44
0.0000000001
 40
0.0
 40
0.0
 40
0.0
 40
0.0
 40
0.0018417216
 40
0.0048163277
 40
0.008924138
 40
0.0141565347
 40
0.0205016569
 40
0.0279469841
 40
0.0460664013
 40
0.0683490864
 40
0.0945901281
 40
0.1245510339
 40
0.1579552043
 40
0.1944971384
 40
0.2338411713
 40
0.3194674789
 40
0.4116986192
 40
0.5071568237
 40
0.6023409405
 40
0.6937628743
 40
0.7370092069
 40
0.778077272
 40
0.8165894027
 40
0.8521926694
 40
0.8845581873
 40
0.913391056
 40
0.9384260678
 40
0.9594341099
 40
0.9683672147
 40
0.9762248635
 40
0.9829879809
 40
0.9886430864
 40
0.9931779757
 40
0.9965819163
 40
0.9978585646
 40
0.9988520499
 40
0.9995639543
 40
1.0
 40
1.0
 40
1.0
 40
1.0
 10
73.3661562167
 20
42.3689784549
 30
0.0
 10
73.3588416854
 20
42.3987747515
 30
0.0
 10
73.3478701683
 20
42.4784857159
 30
0.0
 10
73.333193144
 20
42.6263254312
 30
0.0
 10
73.3186330994
 20
42.8310280361
 30
0.0
 10
73.3036631708
 20
43.0918810002
 30
0.0
 10
73.2886636883
 20
43.4084363935
 30
0.0
 10
73.2671137848
 20
43.9395802514
 30
0.0
 10
73.2410420746
 20
44.7362491374
 30
0.0
 10
73.211122169
 20
45.846045693
 30
0.0
 10
73.1810695512
 20
47.1531671835
 30
0.0
 10
73.1509051214
 20
48.6455983931
 30
0.0
 10
73.1206753569
 20
50.3096607315
 30
0.0
 10
73.0903979421
 20
52.1300575334
 30
0.0
 10
73.0488066646
 20
54.8203453724
 30
0.0
 10
72.9977615133
 20
58.4383136444
 30
0.0
 10
72.9379147846
 20
62.9910450986
 30
0.0
 10
72.8780034173
 20
67.7030110199
 30
0.0
 10
72.8180906166
 20
72.4014952846
 30
0.0
 10
72.7673507504
 20
76.230236088
 30
0.0
 10
72.7261274526
 20
79.1575113238
 30
0.0
 10
72.6958012103
 20
81.2034356048
 30
0.0
 10
72.6655002652
 20
83.1220208131
 30
0.0
 10
72.6352376565
 20
84.8956129508
 30
0.0
 10
72.6050223159
 20
86.5079350269
 30
0.0
 10
72.5748915468
 20
87.9441701708
 30
0.0
 10
72.5448618651
 20
89.1911573988
 30
0.0
 10
72.5188013954
 20
90.1066321948
 30
0.0
 10
72.4974498608
 20
90.7359558521
 30
0.0
 10
72.4823541711
 20
91.1280483971
 30
0.0
 10
72.4673024353
 20
91.4654858442
 30
0.0
 10
72.4523621777
 20
91.7475214052
 30
0.0
 10
72.4375082533
 20
91.9734835211
 30
0.0
 10
72.4245210319
 20
92.1265064198
 30
0.0
 10
72.4134691064
 20
92.2203548319
 30
0.0
 10
72.40617034
 20
92.2695735659
 30
0.0
 10
72.398884243
 20
92.3043757395
 30
0.0
 10
72.3932998262
 20
92.3229452774
 30
0.0
 10
72.3896742507
 20
92.329239815
 30
0.0
  0
SPLINE
  5
531
100
AcDbEntity
  8
0
100
AcDbSpline
 62
7
  6
CONTINUOUS
 70
0
 71
3
 72
30
 73
26
 74
0
 42
0.0000001
 43
0.0000001
 44
0.0000000001
 40
0.0
 40
0.0
 40
0.0
 40
0.0
 40
0.1912229318
 40
0.2853362816
 40
0.3771375307
 40
0.4656653172
 40
0.5499831015
 40
0.6292069582
 40
0.7025082351
 40
0.7691148305
 40
0.8283282135
 40
0.8795299484
 40
0.9019528449
 40
0.9221796948
 40
0.9401565366
 40
0.9558339332
 40
0.9691748638
 40
0.9801447856
 40
0.988713379
 40
0.9920921869
 40
0.9948657729
 40
0.9970338695
 40
0.9985982176
 40
0.9995677984
 40
1.0
 40
1.0
 40
1.0
 40
1.0
 10
78.5558605296
 20
65.6014407513
 30
0.0
 10
78.5341034431
 20
67.3061228224
 30
0.0
 10
78.501871018
 20
69.8497937531
 30
0.0
 10
78.4583714213
 20
73.2118285208
 30
0.0
 10
78.4259265621
 20
75.6583655967
 30
0.0
 10
78.3934955075
 20
78.0175639907
 30
0.0
 10
78.3610843303
 20
80.2646196886
 30
0.0
 10
78.3287011359
 20
82.3759111725
 30
0.0
 10
78.2963590907
 20
84.329281877
 30
0.0
 10
78.2640791982
 20
86.1042268077
 30
0.0
 10
78.23187672
 20
87.6821116346
 30
0.0
 10
78.2040820439
 20
88.866087219
 30
0.0
 10
78.1814408307
 20
89.702501456
 30
0.0
 10
78.1652423778
 20
90.2427669909
 30
0.0
 10
78.1490782011
 20
90.722866724
 30
0.0
 10
78.1329536187
 20
91.141533634
 30
0.0
 10
78.1169054719
 20
91.4976957675
 30
0.0
 10
78.1009685981
 20
91.790371165
 30
0.0
 10
78.0869706532
 20
91.9942846831
 30
0.0
 10
78.0753724315
 20
92.1249246605
 30
0.0
 10
78.0672890982
 20
92.1988709259
 30
0.0
 10
78.0596991062
 20
92.2558559606
 30
0.0
 10
78.0513935259
 20
92.298232661
 30
0.0
 10
78.0453518299
 20
92.3216100732
 30
0.0
 10
78.0376194625
 20
92.3353153436
 30
0.0
 10
78.03376624
 20
92.33530677
 30
0.0
  0
SPLINE
  5
532
100
AcDbEntity
  8
0
100
AcDbSpline
 62
7
  6
CONTINUOUS
 70
0
 71
3
 72
29
 73
25
 74
0
 42
0.0000001
 43
0.0000001
 44
0.0000000001
 40
0.0
 40
0.0
 40
0.0
 40
0.0
 40
0.0006752764
 40
0.001917132
 40
0.0037346591
 40
0.0061288096
 40
0.0090986821
 40
0.0126428416
 40
0.0214471869
 40
0.0325268663
 40
0.0458572647
 40
0.0614063612
 40
0.0791417777
 40
0.099027129
 40
0.1210157813
 40
0.171108911
 40
0.2289894586
 40
0.2941561355
 40
0.3660449003
 40
0.4440406526
 40
0.5274728245
 40
0.6156304442
 40
0.8030621357
 40
1.0
 40
1.0
 40
1.0
 40
1.0
 10
78.8543373218
 20
42.6399909209
 30
0.0
 10
78.851748109
 20
42.6444650547
 30
0.0
 10
78.8486316792
 20
42.659151758
 30
0.0
 10
78.8440239006
 20
42.6871484107
 30
0.0
 10
78.8396881392
 20
42.7287944561
 30
0.0
 10
78.8350689496
 20
42.7835299866
 30
0.0
 10
78.8304866124
 20
42.851589176
 30
0.0
 10
78.8238173178
 20
42.9686564814
 30
0.0
 10
78.8157944467
 20
43.1478331349
 30
0.0
 10
78.8066106407
 20
43.4019265661
 30
0.0
 10
78.7973891842
 20
43.7076821927
 30
0.0
 10
78.788128116
 20
44.0644051379
 30
0.0
 10
78.7788498013
 20
44.4713217324
 30
0.0
 10
78.769559379
 20
44.9275447596
 30
0.0
 10
78.7565901743
 20
45.6314451446
 30
0.0
 10
78.7406602108
 20
46.6261962043
 30
0.0
 10
78.7222157108
 20
47.9514787214
 30
0.0
 10
78.7037419989
 20
49.4436233372
 30
0.0
 10
78.685246831
 20
51.0897625173
 30
0.0
 10
78.6667445934
 20
52.8757342449
 30
0.0
 10
78.6482376011
 20
54.7862521521
 30
0.0
 10
78.6230500762
 20
57.5344895721
 30
0.0
 10
78.5920669609
 20
61.1516096439
 30
0.0
 10
78.5680655924
 20
64.0939070584
 30
0.0
 10
78.5558605296
 20
65.6014407513
 30
0.0
  0
SPLINE
  5
533
100
AcDbEntity
  8
0
100
AcDbSpline
 62
7
  6
CONTINUOUS
 70
0
 71
3
 72
11
 73
7
 74
0
 42
0.0000001
 43
0.0000001
 44
0.0000000001
 40
0.0
 40
0.0
 40
0.0
 40
0.0
 40
0.3715048956
 40
0.6618498869
 40
0.8711073044
 40
1.0
 40
1.0
 40
1.0
 40
1.0
 10
71.3332107988
 20
42.636338805
 30
0.0
 10
71.336175662
 20
42.6003129939
 30
0.0
 10
71.3419296763
 20
42.5361876959
 30
0.0
 10
71.3513588023
 20
42.4518784708
 30
0.0
 10
71.3608322646
 20
42.3915734912
 30
0.0
 10
71.3679849761
 20
42.3592057345
 30
0.0
 10
71.3727099573
 20
42.3475885356
 30
0.0
  0
SPLINE
  5
534
100
AcDbEntity
  8
0
100
AcDbSpline
 62
7
  6
CONTINUOUS
 70
0
 71
3
 72
9
 73
5
 74
0
 42
0.0000001
 43
0.0000001
 44
0.0000000001
 40
0.0
 40
0.0
 40
0.0
 40
0.0
 40
0.3673750905
 40
1.0
 40
1.0
 40
1.0
 40
1.0
 10
71.3727099573
 20
42.3475885356
 30
0.0
 10
71.3734509798
 20
42.345766601
 30
0.0
 10
71.3755167582
 20
42.3411985202
 30
0.0
 10
71.3792681146
 20
42.3353497562
 30
0.0
 10
71.382655061
 20
42.3353372839
 30
0.0
  0
SPLINE
  5
535
100
AcDbEntity
  8
0
100
AcDbSpline
 62
7
  6
CONTINUOUS
 70
0
 71
3
 72
9
 73
5
 74
0
 42
0.0000001
 43
0.0000001
 44
0.0000000001
 40
0.0
 40
0.0
 40
0.0
 40
0.0
 40
0.50001125
 40
1.0
 40
1.0
 40
1.0
 40
1.0
 10
96.5414089925
 20
143.7181782764
 30
0.0
 10
96.5039488271
 20
143.7546366409
 30
0.0
 10
96.4426295874
 20
143.8431124822
 30
0.0
 10
96.421068156
 20
143.9487502473
 30
0.0
 10
96.421068156
 20
144.0010209888
 30
0.0
  0
SPLINE
  5
536
100
AcDbEntity
  8
0
100
AcDbSpline
 62
7
  6
CONTINUOUS
 70
0
 71
3
 72
28
 73
24
 74
0
 42
0.0000001
 43
0.0000001
 44
0.0000000001
 40
0.0
 40
0.0
 40
0.0
 40
0.0
 40
0.0004560023
 40
0.0013890546
 40
0.0028708042
 40
0.0049159816
 40
0.0107111386
 40
0.0187781494
 40
0.0291055352
 40
0.0416787995
 40
0.0564769492
 40
0.0734688168
 40
0.0926219377
 40
0.1139033175
 40
0.1626814338
 40
0.2194266162
 40
0.2837082804
 40
0.3550322685
 40
0.4328543614
 40
0.5165816507
 40
0.6055666032
 40
0.7965560955
 40
1.0
 40
1.0
 40
1.0
 40
1.0
 10
79.2832111983
 20
91.0352904604
 30
0.0
 10
79.2862056666
 20
91.0352894536
 30
0.0
 10
79.2929379725
 20
91.0265719332
 30
0.0
 10
79.2982567726
 20
91.0095674209
 30
0.0
 10
79.3053317837
 20
90.9805636134
 30
0.0
 10
79.3152173758
 20
90.9204390888
 30
0.0
 10
79.3272078079
 20
90.8164035459
 30
0.0
 10
79.3405955401
 20
90.6582228295
 30
0.0
 10
79.3542199571
 20
90.4552713568
 30
0.0
 10
79.36792483
 20
90.2081032106
 30
0.0
 10
79.381693662
 20
89.917097046
 30
0.0
 10
79.395500922
 20
89.5828498359
 30
0.0
 10
79.4093375515
 20
89.2059956509
 30
0.0
 10
79.428699211
 20
88.6204749876
 30
0.0
 10
79.4524742058
 20
87.7881117055
 30
0.0
 10
79.4799899681
 20
86.6733772868
 30
0.0
 10
79.5075718483
 20
85.410550843
 30
0.0
 10
79.5352093828
 20
84.0092888743
 30
0.0
 10
79.5628818339
 20
82.4803097844
 30
0.0
 10
79.590580918
 20
80.8353379575
 30
0.0
 10
79.6284349465
 20
78.4472871885
 30
0.0
 10
79.6750592406
 20
75.2731251594
 30
0.0
 10
79.7108613773
 20
72.6832138643
 30
0.0
 10
79.7290656104
 20
71.3473658628
 30
0.0
  0
SPLINE
  5
537
100
AcDbEntity
  8
0
100
AcDbSpline
 62
7
  6
CONTINUOUS
 70
0
 71
3
 72
9
 73
5
 74
0
 42
0.0000001
 43
0.0000001
 44
0.0000000001
 40
0.0
 40
0.0
 40
0.0
 40
0.0
 40
0.1753020914
 40
1.0
 40
1.0
 40
1.0
 40
1.0
 10
77.1406140688
 20
91.0288818275
 30
0.0
 10
77.1417677118
 20
91.0268832114
 30
0.0
 10
77.1472397238
 20
91.014862917
 30
0.0
 10
77.1502617628
 20
91.0019388246
 30
0.0
 10
77.1526015233
 20
90.9913376462
 30
0.0
  0
SPLINE
  5
538
100
AcDbEntity
  8
0
100
AcDbSpline
 62
7
  6
CONTINUOUS
 70
0
 71
3
 72
45
 73
41
 74
0
 42
0.0000001
 43
0.0000001
 44
0.0000000001
 40
0.0
 40
0.0
 40
0.0
 40
0.0
 40
0.0020685104
 40
0.0052811282
 40
0.0096339266
 40
0.0151177442
 40
0.0294330344
 40
0.0480958677
 40
0.0709378906
 40
0.0977454703
 40
0.1282727173
 40
0.1622366298
 40
0.1993222607
 40
0.2391879021
 40
0.3257566929
 40
0.4187447195
 40
0.5147161413
 40
0.6101245078
 40
0.6565116112
 40
0.701444329
 40
0.7445077347
 40
0.7853015552
 40
0.823449804
 40
0.8585981429
 40
0.8904215696
 40
0.918626604
 40
0.9429502728
 40
0.9535863497
 40
0.9631708438
 40
0.9716811059
 40
0.9790994175
 40
0.9854086074
 40
0.9905928802
 40
0.9946427886
 40
0.9962403402
 40
0.997552163
 40
0.9985781994
 40
0.9993197796
 40
0.9997830604
 40
1.0
 40
1.0
 40
1.0
 40
1.0
 10
77.1526015233
 20
90.9913376462
 30
0.0
 10
77.1596417188
 20
90.9594393527
 30
0.0
 10
77.1708260605
 20
90.8766316929
 30
0.0
 10
77.1855266822
 20
90.725260403
 30
0.0
 10
77.2002612154
 20
90.5196685822
 30
0.0
 10
77.2223094346
 20
90.1389091486
 30
0.0
 10
77.2483661123
 20
89.5320396031
 30
0.0
 10
77.2782133291
 20
88.6510351068
 30
0.0
 10
77.3082198184
 20
87.5726526899
 30
0.0
 10
77.3384314717
 20
86.3068575131
 30
0.0
 10
77.3687254342
 20
84.865381975
 30
0.0
 10
77.3990889396
 20
83.2615654621
 30
0.0
 10
77.4294983173
 20
81.5102535011
 30
0.0
 10
77.4712361502
 20
78.9282774685
 30
0.0
 10
77.5224707456
 20
75.4635299823
 30
0.0
 10
77.5825690846
 20
71.1127960571
 30
0.0
 10
77.6427301361
 20
66.622455413
 30
0.0
 10
77.693313912
 20
62.8679753867
 30
0.0
 10
77.734352453
 20
59.9194446957
 30
0.0
 10
77.7648352878
 20
57.7974802662
 30
0.0
 10
77.795301922
 20
55.763854289
 30
0.0
 10
77.8257507633
 20
53.8373811189
 30
0.0
 10
77.8561700644
 20
52.035918893
 30
0.0
 10
77.8865519618
 20
50.3761383618
 30
0.0
 10
77.9168756754
 20
48.8734086186
 30
0.0
 10
77.9471214007
 20
47.5416595234
 30
0.0
 10
77.9732468913
 20
46.5444983048
 30
0.0
 10
77.9945202272
 20
45.8413752289
 30
0.0
 10
78.0097325682
 20
45.3879115266
 30
0.0
 10
78.0249170366
 20
44.9852924737
 30
0.0
 10
78.0400591926
 20
44.6344399437
 30
0.0
 10
78.0551276791
 20
44.3361543098
 30
0.0
 10
78.0701014191
 20
44.0911634171
 30
0.0
 10
78.0832480807
 20
43.9205581637
 30
0.0
 10
78.0941397644
 20
43.8112533607
 30
0.0
 10
78.1017300273
 20
43.749433477
 30
0.0
 10
78.1088647413
 20
43.7016638477
 30
0.0
 10
78.116671177
 20
43.6664400727
 30
0.0
 10
78.1224063653
 20
43.6463361027
 30
0.0
 10
78.1297850923
 20
43.6353767711
 30
0.0
 10
78.1332110065
 20
43.6353794295
 30
0.0
  0
LINE
  5
539
100
AcDbEntity
  8
0
100
AcDbLine
 62
7
  6
CONTINUOUS
 10
96.8145854607
 20
143.4524928514
 11
96.5414089925
 21
143.7181782764
  0
SPLINE
  5
53A
100
AcDbEntity
  8
0
100
AcDbSpline
 62
7
  6
CONTINUOUS
 70
0
 71
3
 72
9
 73
5
 74
0
 42
0.0000001
 43
0.0000001
 44
0.0000000001
 40
0.0
 40
0.0
 40
0.0
 40
0.0
 40
0.3109441354
 40
1.0
 40
1.0
 40
1.0
 40
1.0
 10
79.5558605296
 20
90.1736054958
 30
0.0
 10
79.5533229583
 20
90.2687778029
 30
0.0
 10
79.5445728259
 20
90.5748303438
 30
0.0
 10
79.5345295465
 20
90.8808890986
 30
0.0
 10
79.5234387489
 20
91.0915752898
 30
0.0
  0
SPLINE
  5
53B
100
AcDbEntity
  8
0
100
AcDbSpline
 62
7
  6
CONTINUOUS
 70
0
 71
3
 72
13
 73
9
 74
0
 42
0.0000001
 43
0.0000001
 44
0.0000000001
 40
0.0
 40
0.0
 40
0.0
 40
0.0
 40
0.4160589667
 40
0.7210786444
 40
0.8319633426
 40
0.9151644917
 40
0.9708856404
 40
1.0
 40
1.0
 40
1.0
 40
1.0
 10
79.5234387489
 20
91.0915752898
 30
0.0
 10
79.5211850005
 20
91.1343885915
 30
0.0
 10
79.5168695984
 20
91.2085390309
 30
0.0
 10
79.5104099291
 20
91.2941169099
 30
0.0
 10
79.5047899413
 20
91.3451413654
 30
0.0
 10
79.5012475434
 20
91.3708268575
 30
0.0
 10
79.4975450813
 20
91.3873980067
 30
0.0
 10
79.4949380161
 20
91.3962647874
 30
0.0
 10
79.4928151092
 20
91.3983846249
 30
0.0
  0
SPLINE
  5
53C
100
AcDbEntity
  8
0
100
AcDbSpline
 62
7
  6
CONTINUOUS
 70
0
 71
3
 72
18
 73
14
 74
0
 42
0.0000001
 43
0.0000001
 44
0.0000000001
 40
0.0
 40
0.0
 40
0.0
 40
0.0
 40
0.0091248005
 40
0.0254109389
 40
0.048965233
 40
0.0797896661
 40
0.1178642422
 40
0.1631611757
 40
0.2752647874
 40
0.4156471005
 40
0.5837826915
 40
0.778909091
 40
1.0
 40
1.0
 40
1.0
 40
1.0
 10
78.389674393
 20
92.3292394652
 30
0.0
 10
78.395172279
 20
92.3197316734
 30
0.0
 10
78.4023254046
 20
92.2893523215
 30
0.0
 10
78.4123973746
 20
92.2316617571
 30
0.0
 10
78.4221103109
 20
92.1469443697
 30
0.0
 10
78.4323159381
 20
92.0362096225
 30
0.0
 10
78.4424878665
 20
91.8991007925
 30
0.0
 10
78.4572435738
 20
91.6642937999
 30
0.0
 10
78.4750131015
 20
91.3062911654
 30
0.0
 10
78.4953810978
 20
90.8004269634
 30
0.0
 10
78.5158389026
 20
90.1945630901
 30
0.0
 10
78.5363824082
 20
89.4915142484
 30
0.0
 10
78.5493174506
 20
88.9907062654
 30
0.0
 10
78.5558605296
 20
88.7246738282
 30
0.0
  0
SPLINE
  5
53D
100
AcDbEntity
  8
0
100
AcDbSpline
 62
7
  6
CONTINUOUS
 70
0
 71
3
 72
10
 73
6
 74
0
 42
0.0000001
 43
0.0000001
 44
0.0000000001
 40
0.0
 40
0.0
 40
0.0
 40
0.0
 40
0.1349695029
 40
0.3456782525
 40
1.0
 40
1.0
 40
1.0
 40
1.0
 10
75.1406142377
 20
91.0289037564
 30
0.0
 10
75.1437226711
 20
91.023505821
 30
0.0
 10
75.1488153416
 20
91.0081955361
 30
0.0
 10
75.159093388
 20
90.9632930891
 30
0.0
 10
75.1643386883
 20
90.9235830226
 30
0.0
 10
75.1680277911
 20
90.8936116448
 30
0.0
  0
SPLINE
  5
53E
100
AcDbEntity
  8
0
100
AcDbSpline
 62
7
  6
CONTINUOUS
 70
0
 71
3
 72
41
 73
37
 74
0
 42
0.0000001
 43
0.0000001
 44
0.0000000001
 40
0.0
 40
0.0
 40
0.0
 40
0.0
 40
0.0074411295
 40
0.0192763683
 40
0.0354058755
 40
0.055685148
 40
0.0799360867
 40
0.1079387247
 40
0.1741699131
 40
0.2520088269
 40
0.3386693828
 40
0.4310494524
 40
0.5258419529
 40
0.6196531804
 40
0.6651364043
 40
0.7091244555
 40
0.7512226224
 40
0.7910528367
 40
0.8282591395
 40
0.8625058554
 40
0.8934883269
 40
0.9209266275
 40
0.9445765042
 40
0.9549127516
 40
0.9642261539
 40
0.9724945127
 40
0.9796993041
 40
0.9858263661
 40
0.9908620052
 40
0.9947943349
 40
0.9963450873
 40
0.9976185951
 40
0.9986151661
 40
0.9993362876
 40
0.9997875079
 40
1.0
 40
1.0
 40
1.0
 40
1.0
 10
75.1680277911
 20
90.8936116448
 30
0.0
 10
75.1823535515
 20
90.7772248699
 30
0.0
 10
75.2040137399
 20
90.47400873
 30
0.0
 10
75.2329799758
 20
89.9168867332
 30
0.0
 10
75.2617783492
 20
89.1570903702
 30
0.0
 10
75.2913472161
 20
88.2016231642
 30
0.0
 10
75.3209716886
 20
87.0589481633
 30
0.0
 10
75.3630890817
 20
85.1922167143
 30
0.0
 10
75.4140142057
 20
82.4809828003
 30
0.0
 10
75.4728229357
 20
78.8453621772
 30
0.0
 10
75.5318619304
 20
74.7976140623
 30
0.0
 10
75.5910629236
 20
70.4826705659
 30
0.0
 10
75.6503152781
 20
66.0550296633
 30
0.0
 10
75.700170328
 20
62.3663787889
 30
0.0
 10
75.7406057733
 20
59.478303882
 30
0.0
 10
75.7706109193
 20
57.4051116605
 30
0.0
 10
75.8006009704
 20
55.4210149338
 30
0.0
 10
75.8305727543
 20
53.5438046143
 30
0.0
 10
75.8605145727
 20
51.7903418755
 30
0.0
 10
75.8904220118
 20
50.1763323737
 30
0.0
 10
75.9202674136
 20
48.7162846443
 30
0.0
 10
75.9500426547
 20
47.4232705027
 30
0.0
 10
75.9757569665
 20
46.4556179626
 30
0.0
 10
75.9967018066
 20
45.7735790691
 30
0.0
 10
76.0116745072
 20
45.3338718881
 30
0.0
 10
76.0266178093
 20
44.9435430976
 30
0.0
 10
76.0415235815
 20
44.6034708424
 30
0.0
 10
76.0563584021
 20
44.3143866539
 30
0.0
 10
76.0710911932
 20
44.0769721551
 30
0.0
 10
76.0840317762
 20
43.9116593018
 30
0.0
 10
76.0947544382
 20
43.805774493
 30
0.0
 10
76.1022261933
 20
43.7458985781
 30
0.0
 10
76.1092517319
 20
43.6995997175
 30
0.0
 10
76.1169358423
 20
43.6654746946
 30
0.0
 10
76.1225835365
 20
43.6459096131
 30
0.0
 10
76.129861766
 20
43.6353387759
 30
0.0
 10
76.1332104298
 20
43.6353469655
 30
0.0
  0
SPLINE
  5
53F
100
AcDbEntity
  8
0
100
AcDbSpline
 62
7
  6
CONTINUOUS
 70
0
 71
3
 72
9
 73
5
 74
0
 42
0.0000001
 43
0.0000001
 44
0.0000000001
 40
0.0
 40
0.0
 40
0.0
 40
0.0
 40
0.1830370163
 40
1.0
 40
1.0
 40
1.0
 40
1.0
 10
73.1406144781
 20
91.0289145847
 30
0.0
 10
73.1415699823
 20
91.0272577132
 30
0.0
 10
73.1460490529
 20
91.0177873052
 30
0.0
 10
73.1487335205
 20
91.0076058449
 30
0.0
 10
73.1507546855
 20
90.9993117042
 30
0.0
  0
SPLINE
  5
540
100
AcDbEntity
  8
0
100
AcDbSpline
 62
7
  6
CONTINUOUS
 70
0
 71
3
 72
46
 73
42
 74
0
 42
0.0000001
 43
0.0000001
 44
0.0000000001
 40
0.0
 40
0.0
 40
0.0
 40
0.0
 40
0.0019362721
 40
0.0050183074
 40
0.0092464881
 40
0.0146121652
 40
0.0211025286
 40
0.0287042715
 40
0.0471705987
 40
0.0698386888
 40
0.0964996327
 40
0.1269065704
 40
0.1607755167
 40
0.1977941906
 40
0.2376163689
 40
0.3241725534
 40
0.4172338457
 40
0.5133487847
 40
0.6089526109
 40
0.6554500767
 40
0.7004993439
 40
0.7436803996
 40
0.7845933431
 40
0.8228570065
 40
0.8581160294
 40
0.8900438115
 40
0.9183417514
 40
0.942749986
 40
0.9534216608
 40
0.9630394703
 40
0.9715810025
 40
0.9790248364
 40
0.9853553495
 40
0.9905593071
 40
0.9946240796
 40
0.9962266371
 40
0.9975424141
 40
0.9985718449
 40
0.9993165406
 40
0.9997821687
 40
1.0
 40
1.0
 40
1.0
 40
1.0
 10
73.1507546855
 20
90.9993117042
 30
0.0
 10
73.1579954329
 20
90.9695982593
 30
0.0
 10
73.1691041766
 20
90.8909079776
 30
0.0
 10
73.1838509743
 20
90.7456928429
 30
0.0
 10
73.1985400707
 20
90.5459580598
 30
0.0
 10
73.2136004165
 20
90.2923725357
 30
0.0
 10
73.2287018147
 20
89.9854020307
 30
0.0
 10
73.2503748413
 20
89.4716064544
 30
0.0
 10
73.2766023323
 20
88.7022651964
 30
0.0
 10
73.3067128921
 20
87.6318751648
 30
0.0
 10
73.3369523862
 20
86.3728243645
 30
0.0
 10
73.3673042754
 20
84.9368183997
 30
0.0
 10
73.3977212627
 20
83.3371831686
 30
0.0
 10
73.4281836561
 20
81.5888130889
 30
0.0
 10
73.470013066
 20
79.0083343171
 30
0.0
 10
73.5213478912
 20
75.542716027
 30
0.0
 10
73.5815534551
 20
71.1880041564
 30
0.0
 10
73.6418232839
 20
66.6903747281
 30
0.0
 10
73.6924932792
 20
62.9281471913
 30
0.0
 10
73.7336049041
 20
59.9724344923
 30
0.0
 10
73.7641434831
 20
57.8446601879
 30
0.0
 10
73.794668838
 20
55.8051012855
 30
0.0
 10
73.8251733259
 20
53.8727316144
 30
0.0
 10
73.855650241
 20
52.0655045822
 30
0.0
 10
73.8860900781
 20
50.4002170403
 30
0.0
 10
73.9164676852
 20
48.8923629222
 30
0.0
 10
73.9467752692
 20
47.55593178
 30
0.0
 10
73.972943543
 20
46.555232211
 30
0.0
 10
73.9942601209
 20
45.8495631907
 30
0.0
 10
74.0095022319
 20
45.394438555
 30
0.0
 10
74.0247112359
 20
44.9903262978
 30
0.0
 10
74.0398828828
 20
44.638179169
 30
0.0
 10
74.0549845391
 20
44.3387911245
 30
0.0
 10
74.0699826543
 20
44.0928752986
 30
0.0
 10
74.0831501897
 20
43.9216146256
 30
0.0
 10
74.0940660118
 20
43.8119157925
 30
0.0
 10
74.1016712114
 20
43.7498884465
 30
0.0
 10
74.1088233364
 20
43.701950696
 30
0.0
 10
74.1166416539
 20
43.6665683667
 30
0.0
 10
74.1223890493
 20
43.6463832326
 30
0.0
 10
74.1297705994
 20
43.6353355631
 30
0.0
 10
74.1332111936
 20
43.6353355639
 30
0.0
  0
SPLINE
  5
541
100
AcDbEntity
  8
0
100
AcDbSpline
 62
7
  6
CONTINUOUS
 70
0
 71
3
 72
29
 73
25
 74
0
 42
0.0000001
 43
0.0000001
 44
0.0000000001
 40
0.0
 40
0.0
 40
0.0
 40
0.0
 40
0.0008905937
 40
0.0024025514
 40
0.0045476032
 40
0.0073271656
 40
0.010740281
 40
0.0147851361
 40
0.0247607263
 40
0.0372243724
 40
0.0521322899
 40
0.0694386417
 40
0.0890857168
 40
0.1110057376
 40
0.1351292311
 40
0.1896519933
 40
0.2519293049
 40
0.3211289541
 40
0.3963291279
 40
0.4765288819
 40
0.560657132
 40
0.6475941937
 40
0.8252252546
 40
1.0
 40
1.0
 40
1.0
 40
1.0
 10
79.1406146132
 20
91.0288977977
 30
0.0
 10
79.1451822972
 20
91.0209999655
 30
0.0
 10
79.1517841309
 20
90.9968646304
 30
0.0
 10
79.1605945725
 20
90.9513320294
 30
0.0
 10
79.1693133709
 20
90.8858403313
 30
0.0
 10
79.178326333
 20
90.8009427968
 30
0.0
 10
79.1873524653
 20
90.6964331726
 30
0.0
 10
79.2004002537
 20
90.5183190211
 30
0.0
 10
79.2161452993
 20
90.2474462192
 30
0.0
 10
79.2341788491
 20
89.8652725785
 30
0.0
 10
79.2523001071
 20
89.4079301503
 30
0.0
 10
79.2704925712
 20
88.8769537892
 30
0.0
 10
79.2887246759
 20
88.2741069268
 30
0.0
 10
79.3069924734
 20
87.6013957126
 30
0.0
 10
79.3324220449
 20
86.5714710727
 30
0.0
 10
79.3636838766
 20
85.1281340692
 30
0.0
 10
79.3999766325
 20
83.2230293311
 30
0.0
 10
79.4363527367
 20
81.1060647516
 30
0.0
 10
79.4727915929
 20
78.8054726583
 30
0.0
 10
79.5092688543
 20
76.3519292896
 30
0.0
 10
79.5457743689
 20
73.7781368348
 30
0.0
 10
79.5948192273
 20
70.2063003153
 30
0.0
 10
79.6549251797
 20
65.7059127416
 30
0.0
 10
79.7038877432
 20
62.0960705768
 30
0.0
 10
79.7290656104
 20
60.3057912189
 30
0.0
  0
SPLINE
  5
542
100
AcDbEntity
  8
0
100
AcDbSpline
 62
7
  6
CONTINUOUS
 70
0
 71
3
 72
46
 73
42
 74
0
 42
0.0000001
 43
0.0000001
 44
0.0000000001
 40
0.0
 40
0.0
 40
0.0
 40
0.0
 40
0.0002178312
 40
0.0006834588
 40
0.0014281537
 40
0.0024575832
 40
0.0037733587
 40
0.0053759143
 40
0.0094406823
 40
0.0146446338
 40
0.0209751396
 40
0.028418965
 40
0.0369604875
 40
0.046578286
 40
0.0572499489
 40
0.0816581564
 40
0.1099560656
 40
0.141883814
 40
0.1771428008
 40
0.2154064265
 40
0.2563193315
 40
0.2995003486
 40
0.3445495781
 40
0.3910470079
 40
0.4866507706
 40
0.5827656629
 40
0.6758269315
 40
0.7623831202
 40
0.8022053124
 40
0.8392240084
 40
0.8730929854
 40
0.9034999624
 40
0.9301609541
 40
0.9528291004
 40
0.9712954921
 40
0.97889727
 40
0.9853876704
 40
0.9907533863
 40
0.9949816075
 40
0.9980636848
 40
1.0
 40
1.0
 40
1.0
 40
1.0
 10
73.2832109962
 20
91.0353355639
 30
0.0
 10
73.2866515884
 20
91.0353355635
 30
0.0
 10
73.2940331364
 20
91.0242879122
 30
0.0
 10
73.2997805325
 20
91.0041027973
 30
0.0
 10
73.3075988476
 20
90.9687205138
 30
0.0
 10
73.3147509714
 20
90.9207828215
 30
0.0
 10
73.322356169
 20
90.858755552
 30
0.0
 10
73.3332719884
 20
90.7490568515
 30
0.0
 10
73.3464395202
 20
90.5777963859
 30
0.0
 10
73.3614376315
 20
90.3318808575
 30
0.0
 10
73.3765392836
 20
90.0324931742
 30
0.0
 10
73.3917109259
 20
89.6803464676
 30
0.0
 10
73.4069199252
 20
89.2762346922
 30
0.0
 10
73.4221620315
 20
88.8211105965
 30
0.0
 10
73.4434786024
 20
88.1154424027
 30
0.0
 10
73.4696468671
 20
87.1147439879
 30
0.0
 10
73.4999544398
 20
85.7783143615
 30
0.0
 10
73.530332035
 20
84.2704619107
 30
0.0
 10
73.5607718592
 20
82.6051761559
 30
0.0
 10
73.5912487609
 20
80.7979509938
 30
0.0
 10
73.6217532344
 20
78.8655832391
 30
0.0
 10
73.6522785744
 20
76.8260262585
 30
0.0
 10
73.6828171377
 20
74.6982538412
 30
0.0
 10
73.7239287419
 20
71.742543468
 30
0.0
 10
73.7745987107
 20
67.980318441
 30
0.0
 10
73.8348685032
 20
63.4826913671
 30
0.0
 10
73.8950740286
 20
59.1279807716
 30
0.0
 10
73.9464088151
 20
55.6623627532
 30
0.0
 10
73.9882381897
 20
53.0818834812
 30
0.0
 10
74.01870056
 20
51.3335124406
 30
0.0
 10
74.049117524
 20
49.7338758399
 30
0.0
 10
74.0794693896
 20
48.2978680911
 30
0.0
 10
74.1097088606
 20
47.0388150936
 30
0.0
 10
74.1398193976
 20
45.9684224569
 30
0.0
 10
74.1660468656
 20
45.1990787786
 30
0.0
 10
74.1877198652
 20
44.6852810706
 30
0.0
 10
74.2028212542
 20
44.3783088293
 30
0.0
 10
74.217881586
 20
44.1247214766
 30
0.0
 10
74.2325706916
 20
43.9249847913
 30
0.0
 10
74.2473174694
 20
43.7797676566
 30
0.0
 10
74.2584262393
 20
43.7010760435
 30
0.0
 10
74.2656669121
 20
43.6713618803
 30
0.0
  0
SPLINE
  5
543
100
AcDbEntity
  8
0
100
AcDbSpline
 62
7
  6
CONTINUOUS
 70
0
 71
3
 72
9
 73
5
 74
0
 42
0.0000001
 43
0.0000001
 44
0.0000000001
 40
0.0
 40
0.0
 40
0.0
 40
0.0
 40
0.3185476636
 40
1.0
 40
1.0
 40
1.0
 40
1.0
 10
74.2656669121
 20
43.6713618803
 30
0.0
 10
74.2664545875
 20
43.6681294299
 30
0.0
 10
74.2691247208
 20
43.6580618775
 30
0.0
 10
74.2722520858
 20
43.6479221029
 30
0.0
 10
74.2758077174
 20
43.6417565366
 30
0.0
  0
SPLINE
  5
544
100
AcDbEntity
  8
0
100
AcDbSpline
 62
7
  6
CONTINUOUS
 70
0
 71
3
 72
38
 73
34
 74
0
 42
0.0000001
 43
0.0000001
 44
0.0000000001
 40
0.0
 40
0.0
 40
0.0
 40
0.0
 40
0.0003184163
 40
0.0009028463
 40
0.0017570038
 40
0.0028814475
 40
0.0042760202
 40
0.005940314
 40
0.0100757633
 40
0.0152791324
 40
0.0215373173
 40
0.0288368797
 40
0.0371631843
 40
0.0464963504
 40
0.0568149718
 40
0.0803194461
 40
0.1074674045
 40
0.1380227222
 40
0.1717150237
 40
0.2082523492
 40
0.2473146739
 40
0.2885636518
 40
0.3761755849
 40
0.4680687956
 40
0.5610907816
 40
0.6520647232
 40
0.7378978992
 40
0.8156859666
 40
0.8828096385
 40
0.9370215487
 40
0.9765175794
 40
0.990322328
 40
1.0
 40
1.0
 40
1.0
 40
1.0
 10
70.735141238
 20
91.7310401163
 30
0.0
 10
70.7377474203
 20
91.7265270824
 30
0.0
 10
70.7408909381
 20
91.711743237
 30
0.0
 10
70.7455337587
 20
91.683581885
 30
0.0
 10
70.7499077336
 20
91.6417377742
 30
0.0
 10
70.7545641649
 20
91.586771442
 30
0.0
 10
70.7591841018
 20
91.5184395769
 30
0.0
 10
70.7659079215
 20
91.4008897945
 30
0.0
 10
70.7739929912
 20
91.2209737169
 30
0.0
 10
70.7832499021
 20
90.9658678425
 30
0.0
 10
70.7925470463
 20
90.6589446555
 30
0.0
 10
70.8018825432
 20
90.300891532
 30
0.0
 10
70.8112332732
 20
89.8924955496
 30
0.0
 10
70.8205987474
 20
89.434675961
 30
0.0
 10
70.8336714428
 20
88.728461712
 30
0.0
 10
70.8497251195
 20
87.730681477
 30
0.0
 10
70.8683177079
 20
86.4016905993
 30
0.0
 10
70.8869365269
 20
84.9059423543
 30
0.0
 10
70.9055783358
 20
83.2565088096
 30
0.0
 10
70.924226234
 20
81.4678337498
 30
0.0
 10
70.9428784943
 20
79.5554730322
 30
0.0
 10
70.9682550189
 20
76.8072047633
 30
0.0
 10
70.9994657063
 20
73.1942753583
 30
0.0
 10
71.0362208823
 20
68.7339984158
 30
0.0
 10
71.0729349952
 20
64.2186935484
 30
0.0
 10
71.1095748944
 20
59.8025756149
 30
0.0
 10
71.1460729332
 20
55.6357969494
 30
0.0
 10
71.1824158037
 20
51.8593901779
 30
0.0
 10
71.2182985025
 20
48.6005417817
 30
0.0
 10
71.2539620478
 20
45.9684730629
 30
0.0
 10
71.2847009746
 20
44.2090597722
 30
0.0
 10
71.3117539117
 20
43.1786561977
 30
0.0
 10
71.3253613726
 20
42.7945378265
 30
0.0
 10
71.3332107988
 20
42.636338805
 30
0.0
  0
SPLINE
  5
545
100
AcDbEntity
  8
0
100
AcDbSpline
 62
7
  6
CONTINUOUS
 70
0
 71
3
 72
9
 73
5
 74
0
 42
0.0000001
 43
0.0000001
 44
0.0000000001
 40
0.0
 40
0.0
 40
0.0
 40
0.0
 40
0.183034311
 40
1.0
 40
1.0
 40
1.0
 40
1.0
 10
71.1406138802
 20
91.0289145911
 30
0.0
 10
71.1415694475
 20
91.0272576103
 30
0.0
 10
71.1460488338
 20
91.0177864132
 30
0.0
 10
71.1487334164
 20
91.0076041012
 30
0.0
 10
71.1507546855
 20
90.9993092474
 30
0.0
  0
SPLINE
  5
546
100
AcDbEntity
  8
0
100
AcDbSpline
 62
7
  6
CONTINUOUS
 70
0
 71
3
 72
46
 73
42
 74
0
 42
0.0000001
 43
0.0000001
 44
0.0000000001
 40
0.0
 40
0.0
 40
0.0
 40
0.0
 40
0.0019363152
 40
0.0050183925
 40
0.0092466137
 40
0.0146123296
 40
0.02110273
 40
0.0287045079
 40
0.0471708996
 40
0.0698390459
 40
0.0965000376
 40
0.1269070146
 40
0.1607759916
 40
0.1977946876
 40
0.2376168798
 40
0.3241730685
 40
0.4172343371
 40
0.5133492294
 40
0.6089529921
 40
0.6554504219
 40
0.7004996514
 40
0.7436806685
 40
0.7845935735
 40
0.8228571992
 40
0.858116186
 40
0.8900439344
 40
0.9183418436
 40
0.9427500511
 40
0.953421714
 40
0.9630395125
 40
0.971581035
 40
0.9790248604
 40
0.9853553662
 40
0.9905593177
 40
0.9946240857
 40
0.9962266413
 40
0.9975424168
 40
0.9985718463
 40
0.9993165412
 40
0.9997821688
 40
1.0
 40
1.0
 40
1.0
 40
1.0
 10
71.1507546855
 20
90.9993092474
 30
0.0
 10
71.1579953583
 20
90.9695950842
 30
0.0
 10
71.1691041283
 20
90.8909034712
 30
0.0
 10
71.1838509061
 20
90.7456863365
 30
0.0
 10
71.1985400116
 20
90.5459496511
 30
0.0
 10
71.2136003434
 20
90.2923622985
 30
0.0
 10
71.2287017325
 20
89.9853900571
 30
0.0
 10
71.250374732
 20
89.4715923491
 30
0.0
 10
71.2766022
 20
88.7022486709
 30
0.0
 10
71.306712737
 20
87.6318560341
 30
0.0
 10
71.336952208
 20
86.3728030366
 30
0.0
 10
71.3673040736
 20
84.9367952879
 30
0.0
 10
71.3977210376
 20
83.3371586871
 30
0.0
 10
71.4281834079
 20
81.5887876465
 30
0.0
 10
71.4700127826
 20
79.0083083746
 30
0.0
 10
71.5213475691
 20
75.5426903561
 30
0.0
 10
71.5815530945
 20
71.1879797606
 30
0.0
 10
71.641822887
 20
66.6903526868
 30
0.0
 10
71.6924928557
 20
62.9281276597
 30
0.0
 10
71.73360446
 20
59.9724172865
 30
0.0
 10
71.7641430233
 20
57.8446448693
 30
0.0
 10
71.7946683632
 20
55.8050878886
 30
0.0
 10
71.8251728368
 20
53.872720134
 30
0.0
 10
71.8556497384
 20
52.0654949718
 30
0.0
 10
71.8860895627
 20
50.400209217
 30
0.0
 10
71.9164671578
 20
48.8923567663
 30
0.0
 10
71.9467747305
 20
47.5559271398
 30
0.0
 10
71.9729429953
 20
46.555228725
 30
0.0
 10
71.9942595662
 20
45.8495605313
 30
0.0
 10
72.0095016724
 20
45.3944364355
 30
0.0
 10
72.0247106717
 20
44.9903246602
 30
0.0
 10
72.039882314
 20
44.6381779535
 30
0.0
 10
72.0549839661
 20
44.3387902703
 30
0.0
 10
72.0699820775
 20
44.0928747419
 30
0.0
 10
72.0831496092
 20
43.9216142762
 30
0.0
 10
72.0940654286
 20
43.8119155758
 30
0.0
 10
72.1016706263
 20
43.7498883062
 30
0.0
 10
72.1088227501
 20
43.7019506139
 30
0.0
 10
72.1166410651
 20
43.6665683304
 30
0.0
 10
72.1223884612
 20
43.6463832156
 30
0.0
 10
72.1297700092
 20
43.6353355642
 30
0.0
 10
72.1332106014
 20
43.6353355639
 30
0.0
  0
SPLINE
  5
547
100
AcDbEntity
  8
0
100
AcDbSpline
 62
7
  6
CONTINUOUS
 70
0
 71
3
 72
24
 73
20
 74
0
 42
0.0000001
 43
0.0000001
 44
0.0000000001
 40
0.0
 40
0.0
 40
0.0
 40
0.0
 40
0.0011128951
 40
0.0024996966
 40
0.0044380592
 40
0.0099634468
 40
0.0176770213
 40
0.0275667549
 40
0.0396206287
 40
0.0701478636
 40
0.1090268657
 40
0.1559957228
 40
0.2107844324
 40
0.2730688211
 40
0.3425068216
 40
0.4187585437
 40
0.590306293
 40
0.7849453458
 40
1.0
 40
1.0
 40
1.0
 40
1.0
 10
96.6332107988
 20
96.5353355639
 30
0.0
 10
96.6342364204
 20
96.5341008829
 30
0.0
 10
96.6382148136
 20
96.5335298484
 30
0.0
 10
96.6437014098
 20
96.5304474538
 30
0.0
 10
96.6555576666
 20
96.5255048336
 30
0.0
 10
96.6754020131
 20
96.5163976835
 30
0.0
 10
96.7059593057
 20
96.5029498289
 30
0.0
 10
96.7450422022
 20
96.4855944196
 30
0.0
 10
96.8142873754
 20
96.4550507465
 30
0.0
 10
96.9218557595
 20
96.4078103319
 30
0.0
 10
97.0758449775
 20
96.3410283362
 30
0.0
 10
97.2623650537
 20
96.2613227309
 30
0.0
 10
97.4804863963
 20
96.1696696515
 30
0.0
 10
97.7292540535
 20
96.0673124332
 30
0.0
 10
98.0076229952
 20
95.9555694546
 30
0.0
 10
98.4338328368
 20
95.7891492487
 30
0.0
 10
99.0321141046
 20
95.567031036
 30
0.0
 10
99.8254427498
 20
95.2958063232
 30
0.0
 10
100.3903362043
 20
95.1220104838
 30
0.0
 10
100.6883208262
 20
95.0359356036
 30
0.0
  0
SPLINE
  5
548
100
AcDbEntity
  8
0
100
AcDbSpline
 62
7
  6
CONTINUOUS
 70
0
 71
3
 72
11
 73
7
 74
0
 42
0.0000001
 43
0.0000001
 44
0.0000000001
 40
0.0
 40
0.0
 40
0.0
 40
0.0
 40
0.2395005451
 40
0.5013457651
 40
0.7624660181
 40
1.0
 40
1.0
 40
1.0
 40
1.0
 10
101.2117816912
 20
94.8904849117
 30
0.0
 10
102.1478864054
 20
94.6407159561
 30
0.0
 10
104.1389962017
 20
94.2268287504
 30
0.0
 10
107.2268923015
 20
94.010192583
 30
0.0
 10
110.3046738867
 20
94.2531736104
 30
0.0
 10
112.281944737
 20
94.6787625252
 30
0.0
 10
113.2088390705
 20
94.932123163
 30
0.0
  0
LINE
  5
549
100
AcDbEntity
  8
0
100
AcDbLine
 62
7
  6
CONTINUOUS
 10
113.2088390705
 20
94.932123163
 11
113.2575111671
 21
94.9454774968
  0
SPLINE
  5
54A
100
AcDbEntity
  8
0
100
AcDbSpline
 62
7
  6
CONTINUOUS
 70
0
 71
3
 72
12
 73
8
 74
0
 42
0.0000001
 43
0.0000001
 44
0.0000000001
 40
0.0
 40
0.0
 40
0.0
 40
0.0
 40
0.0657249434
 40
0.1523403355
 40
0.3816235698
 40
0.6712532022
 40
1.0
 40
1.0
 40
1.0
 40
1.0
 10
79.5558605296
 20
90.1736054958
 30
0.0
 10
79.5644524371
 20
89.7612247137
 30
0.0
 10
79.5801925762
 20
88.8053048059
 30
0.0
 10
79.6109794078
 20
86.4105456409
 30
0.0
 10
79.6468068418
 20
82.6105896283
 30
0.0
 10
79.6882119211
 20
77.2910911809
 30
0.0
 10
79.7150364239
 20
73.4104356975
 30
0.0
 10
79.7290656104
 20
71.3473658628
 30
0.0
  0
SPLINE
  5
54B
100
AcDbEntity
  8
0
100
AcDbSpline
 62
7
  6
CONTINUOUS
 70
0
 71
3
 72
45
 73
41
 74
0
 42
0.0000001
 43
0.0000001
 44
0.0000000001
 40
0.0
 40
0.0
 40
0.0
 40
0.0
 40
0.0002175704
 40
0.0006819418
 40
0.0014245766
 40
0.0024514215
 40
0.0037643686
 40
0.005364035
 40
0.0094206664
 40
0.0146125686
 40
0.0209292485
 40
0.0283583168
 40
0.0368812954
 40
0.0464780705
 40
0.057128193
 40
0.0814855531
 40
0.1097272299
 40
0.1415911643
 40
0.1767838105
 40
0.2149767781
 40
0.2558180378
 40
0.2989275014
 40
0.3439060657
 40
0.3903367504
 40
0.4858220092
 40
0.5818499404
 40
0.6748669735
 40
0.7614307294
 40
0.8012789627
 40
0.8383381097
 40
0.8722652233
 40
0.9027441573
 40
0.9294950612
 40
0.9522675901
 40
0.9708534652
 40
0.9850809972
 40
0.9905185593
 40
0.9948211843
 40
0.9979825833
 40
1.0
 40
1.0
 40
1.0
 40
1.0
 10
77.2832106326
 20
91.0353117593
 30
0.0
 10
77.2866467411
 20
91.0353027067
 30
0.0
 10
77.2940125966
 20
91.0243006896
 30
0.0
 10
77.2997647084
 20
91.0041593834
 30
0.0
 10
77.3075703291
 20
90.9688830388
 30
0.0
 10
77.3147166035
 20
90.921064882
 30
0.0
 10
77.3223124754
 20
90.8591763987
 30
0.0
 10
77.3332128063
 20
90.7497067217
 30
0.0
 10
77.3463648551
 20
90.5788286882
 30
0.0
 10
77.3613497211
 20
90.3334755454
 30
0.0
 10
77.3764344041
 20
90.0347602859
 30
0.0
 10
77.3915851126
 20
89.6833937158
 30
0.0
 10
77.4067788752
 20
89.2801813385
 30
0.0
 10
77.4220050827
 20
88.8260689303
 30
0.0
 10
77.4432943047
 20
88.121948086
 30
0.0
 10
77.4694367576
 20
87.1233834391
 30
0.0
 10
77.4997065288
 20
85.7897893615
 30
0.0
 10
77.5300528628
 20
84.2850348139
 30
0.0
 10
77.5604557621
 20
82.6230907647
 30
0.0
 10
77.5908995614
 20
80.819345564
 30
0.0
 10
77.6213690385
 20
78.8905528508
 30
0.0
 10
77.6518595274
 20
76.8545819767
 30
0.0
 10
77.6823642104
 20
74.7303272918
 30
0.0
 10
77.7234314504
 20
71.7789607654
 30
0.0
 10
77.774049384
 20
68.0214193682
 30
0.0
 10
77.8342533703
 20
63.5281954465
 30
0.0
 10
77.894393896
 20
59.1758821524
 30
0.0
 10
77.9456679309
 20
55.7107856564
 30
0.0
 10
77.9874420414
 20
53.1293997572
 30
0.0
 10
78.017872788
 20
51.379238407
 30
0.0
 10
78.0482562477
 20
49.7770711953
 30
0.0
 10
78.0785736701
 20
48.3377335366
 30
0.0
 10
78.1088002572
 20
47.0746053709
 30
0.0
 10
78.1388287027
 20
45.9993558078
 30
0.0
 10
78.1686861981
 20
45.1219910799
 30
0.0
 10
78.1947591109
 20
44.5184114732
 30
0.0
 10
78.216834601
 20
44.140542987
 30
0.0
 10
78.2315591404
 20
43.9372679048
 30
0.0
 10
78.2462806649
 20
43.7883178445
 30
0.0
 10
78.2574303089
 20
43.7071128881
 30
0.0
 10
78.2645487313
 20
43.6760569051
 30
0.0
  0
SPLINE
  5
54C
100
AcDbEntity
  8
0
100
AcDbSpline
 62
7
  6
CONTINUOUS
 70
0
 71
3
 72
9
 73
5
 74
0
 42
0.0000001
 43
0.0000001
 44
0.0000000001
 40
0.0
 40
0.0
 40
0.0
 40
0.0
 40
0.3236547619
 40
1.0
 40
1.0
 40
1.0
 40
1.0
 10
78.2645487313
 20
43.6760569051
 30
0.0
 10
78.2654198124
 20
43.6722565857
 30
0.0
 10
78.2683498919
 20
43.6606133855
 30
0.0
 10
78.2717282711
 20
43.6488191198
 30
0.0
 10
78.275807571
 20
43.64176636
 30
0.0
  0
SPLINE
  5
54D
100
AcDbEntity
  8
0
100
AcDbSpline
 62
7
  6
CONTINUOUS
 70
0
 71
3
 72
12
 73
8
 74
0
 42
0.0000001
 43
0.0000001
 44
0.0000000001
 40
0.0
 40
0.0
 40
0.0
 40
0.0
 40
0.280234953
 40
0.5600876635
 40
0.8088333153
 40
0.9130218734
 40
1.0
 40
1.0
 40
1.0
 40
1.0
 10
79.5558605296
 20
60.2168096449
 30
0.0
 10
79.4674898412
 20
62.8799872659
 30
0.0
 10
79.3018868026
 20
68.2030726028
 30
0.0
 10
79.0640566414
 20
75.8902568527
 30
0.0
 10
78.8603095848
 20
81.9037791397
 30
0.0
 10
78.6893371971
 20
86.0832495787
 30
0.0
 10
78.601635283
 20
87.8989009376
 30
0.0
 10
78.5558605296
 20
88.7246738282
 30
0.0
  0
SPLINE
  5
54E
100
AcDbEntity
  8
0
100
AcDbSpline
 62
7
  6
CONTINUOUS
 70
0
 71
3
 72
46
 73
42
 74
0
 42
0.0000001
 43
0.0000001
 44
0.0000000001
 40
0.0
 40
0.0
 40
0.0
 40
0.0
 40
0.0002178313
 40
0.0006834594
 40
0.0014281551
 40
0.0024575859
 40
0.0037733629
 40
0.0053759204
 40
0.0094406929
 40
0.0146446505
 40
0.0209751636
 40
0.0284189975
 40
0.0369605297
 40
0.0465783392
 40
0.057250014
 40
0.0816582486
 40
0.1099561885
 40
0.1418839706
 40
0.1771429935
 40
0.2154066569
 40
0.2563196004
 40
0.2995006561
 40
0.3445499233
 40
0.3910473891
 40
0.4866512153
 40
0.5827661543
 40
0.6758274466
 40
0.7623836311
 40
0.8022058094
 40
0.8392244833
 40
0.8730934296
 40
0.9035003673
 40
0.9301613112
 40
0.9528294013
 40
0.9712957285
 40
0.9788974714
 40
0.9853878348
 40
0.9907535119
 40
0.9949816926
 40
0.9980637279
 40
1.0
 40
1.0
 40
1.0
 40
1.0
 10
71.283210404
 20
91.0353355639
 30
0.0
 10
71.2866509982
 20
91.0353355646
 30
0.0
 10
71.2940325483
 20
91.0242878952
 30
0.0
 10
71.2997799437
 20
91.0041027611
 30
0.0
 10
71.3075982612
 20
90.9687204318
 30
0.0
 10
71.3147503863
 20
90.9207826813
 30
0.0
 10
71.3223555859
 20
90.8587553352
 30
0.0
 10
71.3332714079
 20
90.7490565021
 30
0.0
 10
71.3464389434
 20
90.5777958292
 30
0.0
 10
71.3614370586
 20
90.3318800032
 30
0.0
 10
71.3765387149
 20
90.0324919587
 30
0.0
 10
71.3917103618
 20
89.6803448299
 30
0.0
 10
71.4069193658
 20
89.2762325727
 30
0.0
 10
71.4221614768
 20
88.8211079371
 30
0.0
 10
71.4434780546
 20
88.1154389167
 30
0.0
 10
71.4696463284
 20
87.1147393477
 30
0.0
 10
71.4999539124
 20
85.7783082055
 30
0.0
 10
71.5303315195
 20
84.2704540874
 30
0.0
 10
71.5607713567
 20
82.6051665455
 30
0.0
 10
71.5912482718
 20
80.7979395133
 30
0.0
 10
71.6217527596
 20
78.8655698422
 30
0.0
 10
71.6522781145
 20
76.8260109398
 30
0.0
 10
71.6828166936
 20
74.6982366354
 30
0.0
 10
71.7239283184
 20
71.7425239364
 30
0.0
 10
71.7745983138
 20
67.9802963996
 30
0.0
 10
71.8348681425
 20
63.4826669713
 30
0.0
 10
71.8950737064
 20
59.1279551006
 30
0.0
 10
71.9464085317
 20
55.6623368105
 30
0.0
 10
71.9882379416
 20
53.0818580388
 30
0.0
 10
72.0187003349
 20
51.3334879591
 30
0.0
 10
72.0491173223
 20
49.733852728
 30
0.0
 10
72.0794692115
 20
48.2978467632
 30
0.0
 10
72.1097087055
 20
47.0387959629
 30
0.0
 10
72.1398192654
 20
45.9684059313
 30
0.0
 10
72.1660467564
 20
45.1990646733
 30
0.0
 10
72.1877197829
 20
44.685269097
 30
0.0
 10
72.2028211812
 20
44.3782985921
 30
0.0
 10
72.217881527
 20
44.1247130679
 30
0.0
 10
72.2325706234
 20
43.9249782848
 30
0.0
 10
72.2473174211
 20
43.7797631502
 30
0.0
 10
72.2584261648
 20
43.7010728685
 30
0.0
 10
72.2656669121
 20
43.6713594235
 30
0.0
  0
SPLINE
  5
54F
100
AcDbEntity
  8
0
100
AcDbSpline
 62
7
  6
CONTINUOUS
 70
0
 71
3
 72
9
 73
5
 74
0
 42
0.0000001
 43
0.0000001
 44
0.0000000001
 40
0.0
 40
0.0
 40
0.0
 40
0.0
 40
0.3185448949
 40
1.0
 40
1.0
 40
1.0
 40
1.0
 10
72.2656669121
 20
43.6713594235
 30
0.0
 10
72.2664545427
 20
43.6681272683
 30
0.0
 10
72.2691245363
 20
43.6580605451
 30
0.0
 10
72.2722517605
 20
43.647921637
 30
0.0
 10
72.2758071195
 20
43.641756543
 30
0.0
  0
SPLINE
  5
550
100
AcDbEntity
  8
0
100
AcDbSpline
 62
7
  6
CONTINUOUS
 70
0
 71
3
 72
15
 73
11
 74
0
 42
0.0000001
 43
0.0000001
 44
0.0000000001
 40
0.0
 40
0.0
 40
0.0
 40
0.0
 40
0.4285112585
 40
0.6006419502
 40
0.7430391251
 40
0.8548472384
 40
0.9352639638
 40
0.9635214146
 40
0.9837565537
 40
1.0
 40
1.0
 40
1.0
 40
1.0
 10
117.6302670737
 20
95.9076653542
 30
0.0
 10
117.8029910863
 20
95.9661810003
 30
0.0
 10
118.0445710103
 20
96.0497680264
 30
0.0
 10
118.3424573084
 20
96.1558942479
 30
0.0
 10
118.5131268972
 20
96.2174730704
 30
0.0
 10
118.646834223
 20
96.2665151621
 30
0.0
 10
118.7349623757
 20
96.2986854304
 30
0.0
 10
118.7862959602
 20
96.3181143634
 30
0.0
 10
118.8123302457
 20
96.3270223513
 30
0.0
 10
118.826481224
 20
96.3337539984
 30
0.0
 10
118.8332107988
 20
96.3353355639
 30
0.0
  0
SPLINE
  5
551
100
AcDbEntity
  8
0
100
AcDbSpline
 62
7
  6
CONTINUOUS
 70
0
 71
3
 72
12
 73
8
 74
0
 42
0.0000001
 43
0.0000001
 44
0.0000000001
 40
0.0
 40
0.0
 40
0.0
 40
0.0
 40
0.2373750497
 40
0.3606895053
 40
0.4864329172
 40
0.7425032283
 40
1.0
 40
1.0
 40
1.0
 40
1.0
 10
117.6302670737
 20
95.9076652568
 30
0.0
 10
117.4939024234
 20
95.9189818095
 30
0.0
 10
117.2880583469
 20
95.9804784376
 30
0.0
 10
117.0510948663
 20
96.1322125137
 30
0.0
 10
116.8362025525
 20
96.3308482706
 30
0.0
 10
116.6347076962
 20
96.6480031508
 30
0.0
 10
116.5638358912
 20
96.9418864056
 30
0.0
 10
116.5536456532
 20
97.0899686558
 30
0.0
  0
SPLINE
  5
552
100
AcDbEntity
  8
0
100
AcDbSpline
 62
7
  6
CONTINUOUS
 70
0
 71
3
 72
20
 73
16
 74
0
 42
0.0000001
 43
0.0000001
 44
0.0000000001
 40
0.0
 40
0.0
 40
0.0
 40
0.0
 40
0.2281766271
 40
0.4289731587
 40
0.6010896642
 40
0.7433946932
 40
0.8031125673
 40
0.8550777505
 40
0.8991929289
 40
0.9353778161
 40
0.9635892735
 40
0.9837890059
 40
0.9908725018
 40
0.9959386953
 40
1.0
 40
1.0
 40
1.0
 40
1.0
 10
116.5536459173
 20
97.0899686558
 30
0.0
 10
116.6363158628
 20
97.1224642732
 30
0.0
 10
116.7915002093
 20
97.1841576595
 30
0.0
 10
117.0083065006
 20
97.272199942
 30
0.0
 10
117.1936669181
 20
97.3488184316
 30
0.0
 10
117.3279939191
 20
97.405121228
 30
0.0
 10
117.4190531675
 20
97.4436537216
 30
0.0
 10
117.4748591694
 20
97.4674021894
 30
0.0
 10
117.5222226237
 20
97.4876137427
 30
0.0
 10
117.5610168868
 20
97.5042893037
 30
0.0
 10
117.5913704525
 20
97.5171728211
 30
0.0
 10
117.6110174027
 20
97.5259518304
 30
0.0
 10
117.6228422901
 20
97.5306271097
 30
0.0
 10
117.6281733089
 20
97.5336858102
 30
0.0
 10
117.6323280679
 20
97.5340239048
 30
0.0
 10
117.6332107988
 20
97.5353355639
 30
0.0
  0
SPLINE
  5
553
100
AcDbEntity
  8
0
100
AcDbSpline
 62
7
  6
CONTINUOUS
 70
0
 71
3
 72
9
 73
5
 74
0
 42
0.0000001
 43
0.0000001
 44
0.0000000001
 40
0.0
 40
0.0
 40
0.0
 40
0.0
 40
0.5916237143
 40
1.0
 40
1.0
 40
1.0
 40
1.0
 10
116.7817389362
 20
94.9878094118
 30
0.0
 10
116.9074777789
 20
95.2018420298
 30
0.0
 10
117.1661202645
 20
95.5387996056
 30
0.0
 10
117.488403163
 20
95.811569401
 30
0.0
 10
117.6302670737
 20
95.9076653542
 30
0.0
  0
SPLINE
  5
554
100
AcDbEntity
  8
0
100
AcDbSpline
 62
7
  6
CONTINUOUS
 70
0
 71
3
 72
12
 73
8
 74
0
 42
0.0000001
 43
0.0000001
 44
0.0000000001
 40
0.0
 40
0.0
 40
0.0
 40
0.0
 40
0.1931322857
 40
0.3133187284
 40
0.446294315
 40
0.7301726712
 40
1.0
 40
1.0
 40
1.0
 40
1.0
 10
116.78173898
 20
94.9878093696
 30
0.0
 10
116.6673330101
 20
94.9185375886
 30
0.0
 10
116.4341057335
 20
94.891650666
 30
0.0
 10
116.1320269244
 20
94.9509954689
 30
0.0
 10
115.7822774257
 20
95.0843377035
 30
0.0
 10
115.3822105687
 20
95.3514642928
 30
0.0
 10
115.1248972648
 20
95.6454932894
 30
0.0
 10
115.0306466773
 20
95.8068358559
 30
0.0
  0
SPLINE
  5
555
100
AcDbEntity
  8
0
100
AcDbSpline
 62
7
  6
CONTINUOUS
 70
0
 71
3
 72
9
 73
5
 74
0
 42
0.0000001
 43
0.0000001
 44
0.0000000001
 40
0.0
 40
0.0
 40
0.0
 40
0.0
 40
0.3064731336
 40
1.0
 40
1.0
 40
1.0
 40
1.0
 10
115.0306466963
 20
95.8068358559
 30
0.0
 10
115.144597753
 20
95.9775857499
 30
0.0
 10
115.5590288321
 20
96.5042702978
 30
0.0
 10
116.1213043124
 20
96.9200418983
 30
0.0
 10
116.5536459173
 20
97.0899686558
 30
0.0
  0
LINE
  5
556
100
AcDbEntity
  8
0
100
AcDbLine
 62
7
  6
CONTINUOUS
 10
116.4846826614
 20
94.5918087197
 11
116.7817389362
 21
94.9878094118
  0
SPLINE
  5
557
100
AcDbEntity
  8
0
100
AcDbSpline
 62
7
  6
CONTINUOUS
 70
0
 71
3
 72
27
 73
23
 74
0
 42
0.0000001
 43
0.0000001
 44
0.0000000001
 40
0.0
 40
0.0
 40
0.0
 40
0.0
 40
0.0004559304
 40
0.0018166765
 40
0.0040754209
 40
0.0072253518
 40
0.011259463
 40
0.0161652361
 40
0.0285171693
 40
0.0441302626
 40
0.0628333854
 40
0.0844308885
 40
0.1087254774
 40
0.1645984105
 40
0.2288780168
 40
0.3000707414
 40
0.3767371105
 40
0.4574157565
 40
0.5405648177
 40
0.7075918729
 40
0.8647549728
 40
1.0
 40
1.0
 40
1.0
 40
1.0
 10
95.4332107988
 20
95.3353355639
 30
0.0
 10
95.4362894754
 20
95.3347492069
 30
0.0
 10
95.4475673592
 20
95.3289466595
 30
0.0
 10
95.4740799025
 20
95.3201669085
 30
0.0
 10
95.51733676
 20
95.3028261602
 30
0.0
 10
95.578084872
 20
95.2800386678
 30
0.0
 10
95.6557526024
 20
95.2504445785
 30
0.0
 10
95.7927117958
 20
95.1988562684
 30
0.0
 10
96.00446452
 20
95.1200120839
 30
0.0
 10
96.3058592055
 20
95.0101494148
 30
0.0
 10
96.6680363811
 20
94.8814900408
 30
0.0
 10
97.087958279
 20
94.737169295
 30
0.0
 10
97.7521246425
 20
94.5175474372
 30
0.0
 10
98.7014423737
 20
94.2259943446
 30
0.0
 10
99.9714738524
 20
93.8827662309
 30
0.0
 10
101.394147697
 20
93.5605298804
 30
0.0
 10
102.9418720404
 20
93.2874776883
 30
0.0
 10
104.5839930655
 20
93.0889612015
 30
0.0
 10
106.8551171866
 20
92.9494265702
 30
0.0
 10
109.6616393982
 20
93.0378007382
 30
0.0
 10
112.7906241464
 20
93.5077625059
 30
0.0
 10
114.7433835251
 20
93.9946283776
 30
0.0
 10
115.636154524
 20
94.2539115046
 30
0.0
  0
SPLINE
  5
558
100
AcDbEntity
  8
0
100
AcDbSpline
 62
7
  6
CONTINUOUS
 70
0
 71
3
 72
12
 73
8
 74
0
 42
0.0000001
 43
0.0000001
 44
0.0000000001
 40
0.0
 40
0.0
 40
0.0
 40
0.0
 40
0.1894347653
 40
0.3089997892
 40
0.4419858526
 40
0.7274373824
 40
1.0
 40
1.0
 40
1.0
 40
1.0
 10
116.4846826614
 20
94.5918087197
 30
0.0
 10
116.3730168984
 20
94.528779535
 30
0.0
 10
116.1477478913
 20
94.510872006
 30
0.0
 10
115.856701677
 20
94.5734802737
 30
0.0
 10
115.5156080447
 20
94.7073634852
 30
0.0
 10
115.1218960084
 20
94.9684549225
 30
0.0
 10
114.8628138296
 20
95.2517271232
 30
0.0
 10
114.7640577316
 20
95.4075647592
 30
0.0
  0
LINE
  5
559
100
AcDbEntity
  8
0
100
AcDbLine
 62
7
  6
CONTINUOUS
 10
114.7640577316
 20
95.4075647592
 11
115.0306466963
 21
95.8068358559
  0
SPLINE
  5
55A
100
AcDbEntity
  8
0
100
AcDbSpline
 62
7
  6
CONTINUOUS
 70
0
 71
3
 72
9
 73
5
 74
0
 42
0.0000001
 43
0.0000001
 44
0.0000000001
 40
0.0
 40
0.0
 40
0.0
 40
0.0
 40
0.5026079664
 40
1.0
 40
1.0
 40
1.0
 40
1.0
 10
115.636154524
 20
94.2539115046
 30
0.0
 10
115.7920038965
 20
94.2542673407
 30
0.0
 10
116.1048516898
 20
94.3128215601
 30
0.0
 10
116.3737435993
 20
94.4846632062
 30
0.0
 10
116.4846826614
 20
94.5918087197
 30
0.0
  0
ELLIPSE
  5
55B
100
AcDbEntity
  8
0
100
AcDbEllipse
 62
7
  6
CONTINUOUS
 10
100.4655917755
 20
160.9353355639
 30
0.0
 11
3.0
 21
0.0
 31
0.0
 40
1.0
 41
-0.0
 42
1.5707963268
  0
ELLIPSE
  5
55C
100
AcDbEntity
  8
0
100
AcDbEllipse
 62
7
  6
CONTINUOUS
 10
121.2898351258
 20
160.9353355639
 30
0.0
 11
-0.0
 21
3.0
 31
0.0
 40
0.5773502692
 41
0.1060960822
 42
1.5707963256
  0
ENDSEC
  0
SECTION
  2
OBJECTS
  0
DICTIONARY
  5
55D
100
AcDbDictionary
  3
ACAD_GROUP
350
55E
  3
ACAD_MLINESTYLE
350
55F
  0
DICTIONARY
  5
55E
102
{ACAD_REACTORS
330
55D
102
}
100
AcDbDictionary
  0
DICTIONARY
  5
55F
102
{ACAD_REACTORS
330
55D
102
}
100
AcDbDictionary
  3
STANDARD
350
560
  0
MLINESTYLE
  5
560
102
{ACAD_REACTORS
330
55F
102
}
100
AcDbMlineStyle
  2
STANDARD
 70
0
  3

 62
256
 51
90.0
 52
90.0
 71
2
 49
0.5
 62
256
  6
BYLAYER
 49
-0.5
 62
256
  6
BYLAYER
  0
ENDSEC
  0
EOF
