999
DXF file: C:\Users\64ciro\Desktop\FILE 3D-2D\ARMATEC\h36nll025_3080.dxf
999
Pro/ENGINEER 2017260 by Parametric Technology Corporation
  0
SECTION
  2
HEADER
  9
$ACADVER
  1
AC1014
  9
$DWGCODEPAGE
  3
ANSI_1252
  9
$EXTMAX
 10
297.0
 20
210.0
 30
0.0
  9
$EXTMIN
 10
0.0
 20
0.0
 30
0.0
  9
$LIMMIN
 10
0.0
 20
0.0
  9
$LIMMAX
 10
297.0
 20
210.0
  9
$VIEWCTR
 10
148.5
 20
105.0
  9
$VIEWSIZE
 40
210.0
  9
$CLAYER
  8
0
  9
$LTSCALE
 40
16.335
  9
$CELTYPE
  6
BYLAYER
  9
$DIMSCALE
 40
1.0
  9
$DIMASZ
 40
1.5
  9
$DIMEXO
 40
0.0625
  9
$DIMDLI
 40
11.286
  9
$DIMEXE
 40
0.125
  9
$DIMCEN
 40
2.673
  9
$DIMLFAC
 40
1.0
  9
$DIMBLK
  1
_CLOSED
  9
$DIMALT
 70
0
  9
$DIMALTF
 40
25.4
  9
$DIMTXT
 40
2.0
  9
$DIMTOL
 70
1
  9
$DIMLIM
 70
0
  9
$DIMTFAC
 40
1.0
  9
$DIMTP
 40
0.01
  9
$DIMTM
 40
0.01
  9
$DIMGAP
 40
0.625
  9
$AUNITS
 70
0
  9
$PDMODE
 70
3
  9
$PDSIZE
 40
0.3125
  9
$HANDSEED
  5
558
  9
$TILEMODE
 70
1
  9
$MEASUREMENT
 70
1
  0
ENDSEC
  0
SECTION
  2
CLASSES
  0
ENDSEC
  0
SECTION
  2
TABLES
  0
TABLE
  2
VPORT
  5
8
100
AcDbSymbolTable
 70
2
  0
VPORT
  5
1F4
100
AcDbSymbolTableRecord
100
AcDbViewportTableRecord
  2
*ACTIVE
 70
0
 10
0.0
 20
0.0
 11
1.0
 21
1.0
 12
148.5
 22
105.0
 13
0.0
 23
0.0
 14
1.0
 24
1.0
 15
0.0
 25
0.0
 16
0.0
 26
0.0
 36
1.0
 17
0.0
 27
0.0
 37
0.0
 40
210.0
 41
1.4142857143
 42
50.0
 43
0.0
 44
0.0
 50
0.0
 51
0.0
 71
0
 72
100
 73
1
 74
1
 75
0
 76
0
 77
0
 78
0
  0
ENDTAB
  0
TABLE
  2
LTYPE
  5
5
100
AcDbSymbolTable
 70
6
  0
LTYPE
  5
14
100
AcDbSymbolTableRecord
100
AcDbLinetypeTableRecord
  2
BYBLOCK
 70
0
  3

 72
65
 73
0
 40
0.0
  0
LTYPE
  5
15
100
AcDbSymbolTableRecord
100
AcDbLinetypeTableRecord
  2
BYLAYER
 70
0
  3

 72
65
 73
0
 40
0.0
  0
LTYPE
  5
16
100
AcDbSymbolTableRecord
100
AcDbLinetypeTableRecord
  2
CONTINUOUS
 70
64
  3
Solid line
 72
65
 73
0
 40
0.0
  0
LTYPE
  5
1F5
100
AcDbSymbolTableRecord
100
AcDbLinetypeTableRecord
  2
CENTER
 70
64
  3
____ _ ____ _ ____ _ ____ _ ____ _ ____ _ ____
 72
65
 73
4
 40
0.6
 49
0.375
 74
0
 49
-0.075
 74
0
 49
0.075
 74
0
 49
-0.075
 74
0
  0
LTYPE
  5
1F6
100
AcDbSymbolTableRecord
100
AcDbLinetypeTableRecord
  2
HIDDEN
 70
64
  3
- - - - - - - - - - - - - - - - - - - -
 72
65
 73
2
 40
0.2
 49
0.1
 74
0
 49
-0.1
 74
0
  0
LTYPE
  5
1F7
100
AcDbSymbolTableRecord
100
AcDbLinetypeTableRecord
  2
PHANTOM
 70
64
  3
_____ _ _ _____ _ _ _____ _ _ _____
 72
65
 73
6
 40
0.8
 49
0.45
 74
0
 49
-0.05
 74
0
 49
0.1
 74
0
 49
-0.05
 74
0
 49
0.1
 74
0
 49
-0.05
 74
0
  0
LTYPE
  5
1F8
100
AcDbSymbolTableRecord
100
AcDbLinetypeTableRecord
  2
DOT
 70
64
  3
. . . . . . . . . . . . . . . . . . . .
 72
65
 73
2
 40
0.2
 49
0.1
 74
0
 49
-0.1
 74
0
  0
LTYPE
  5
1F9
100
AcDbSymbolTableRecord
100
AcDbLinetypeTableRecord
  2
DASHED
 70
64
  3
- - - - - - - - - - - - - - - - - - - -
 72
65
 73
2
 40
0.2
 49
0.1
 74
0
 49
-0.1
 74
0
  0
ENDTAB
  0
TABLE
  2
LAYER
  5
2
100
AcDbSymbolTable
 70
36
  0
LAYER
  5
10
100
AcDbSymbolTableRecord
100
AcDbLayerTableRecord
  2
0
 70
0
 62
7
  6
CONTINUOUS
  0
LAYER
  5
1FA
100
AcDbSymbolTableRecord
100
AcDbLayerTableRecord
  2
DEFAULT_1
 70
0
 62
7
  6
CENTER
  0
LAYER
  5
1FB
100
AcDbSymbolTableRecord
100
AcDbLayerTableRecord
  2
DEFAULT_2
 70
0
 62
8
  6
HIDDEN
  0
LAYER
  5
1FC
100
AcDbSymbolTableRecord
100
AcDbLayerTableRecord
  2
DEFAULT_3
 70
0
 62
7
  6
PHANTOM
  0
LAYER
  5
1FD
100
AcDbSymbolTableRecord
100
AcDbLayerTableRecord
  2
ASSI
 70
0
 62
7
  6
CONTINUOUS
  0
LAYER
  5
1FE
100
AcDbSymbolTableRecord
100
AcDbLayerTableRecord
  2
COSMETICA
 70
0
 62
7
  6
CONTINUOUS
  0
LAYER
  5
1FF
100
AcDbSymbolTableRecord
100
AcDbLayerTableRecord
  2
CSYS
 70
0
 62
7
  6
CONTINUOUS
  0
LAYER
  5
200
100
AcDbSymbolTableRecord
100
AcDbLayerTableRecord
  2
CURVE
 70
0
 62
7
  6
CONTINUOUS
  0
LAYER
  5
201
100
AcDbSymbolTableRecord
100
AcDbLayerTableRecord
  2
DETTAGLI
 70
0
 62
7
  6
CONTINUOUS
  0
LAYER
  5
202
100
AcDbSymbolTableRecord
100
AcDbLayerTableRecord
  2
GEOM
 70
0
 62
7
  6
CONTINUOUS
  0
LAYER
  5
203
100
AcDbSymbolTableRecord
100
AcDbLayerTableRecord
  2
GEOMETRIA_SOLIDA
 70
0
 62
7
  6
CONTINUOUS
  0
LAYER
  5
204
100
AcDbSymbolTableRecord
100
AcDbLayerTableRecord
  2
LAY0001
 70
0
 62
7
  6
CONTINUOUS
  0
LAYER
  5
205
100
AcDbSymbolTableRecord
100
AcDbLayerTableRecord
  2
LAY0002
 70
0
 62
7
  6
CONTINUOUS
  0
LAYER
  5
206
100
AcDbSymbolTableRecord
100
AcDbLayerTableRecord
  2
NOGEOM
 70
0
 62
7
  6
CONTINUOUS
  0
LAYER
  5
207
100
AcDbSymbolTableRecord
100
AcDbLayerTableRecord
  2
PIANI
 70
0
 62
7
  6
CONTINUOUS
  0
LAYER
  5
208
100
AcDbSymbolTableRecord
100
AcDbLayerTableRecord
  2
QUOTE
 70
0
 62
7
  6
CONTINUOUS
  0
LAYER
  5
209
100
AcDbSymbolTableRecord
100
AcDbLayerTableRecord
  2
RACCORDI
 70
0
 62
7
  6
CONTINUOUS
  0
LAYER
  5
20A
100
AcDbSymbolTableRecord
100
AcDbLayerTableRecord
  2
SMUSSI
 70
0
 62
7
  6
CONTINUOUS
  0
LAYER
  5
20B
100
AcDbSymbolTableRecord
100
AcDbLayerTableRecord
  2
TABELLE
 70
0
 62
7
  6
CONTINUOUS
  0
ENDTAB
  0
TABLE
  2
STYLE
  5
3
100
AcDbSymbolTable
 70
1
  0
STYLE
  5
11
100
AcDbSymbolTableRecord
100
AcDbTextStyleTableRecord
  2
STANDARD
 70
0
 40
0.0
 41
0.8
 50
0.0
 71
0
 42
0.2
  3
txt
  4

  0
STYLE
  5
20C
100
AcDbSymbolTableRecord
100
AcDbTextStyleTableRecord
  2
TEXTSTYLE_1
 70
0
 40
0.0
 41
0.8
 50
0.0
 71
0
 42
0.2
  3
gdt
  4

  0
ENDTAB
  0
TABLE
  2
VIEW
  5
6
100
AcDbSymbolTable
 70
0
  0
ENDTAB
  0
TABLE
  2
UCS
  5
7
100
AcDbSymbolTable
 70
0
  0
ENDTAB
  0
TABLE
  2
APPID
  5
9
100
AcDbSymbolTable
 70
1
  0
APPID
  5
20D
100
AcDbSymbolTableRecord
100
AcDbRegAppTableRecord
  2
ACAD
 70
0
  0
ENDTAB
  0
TABLE
  2
BLOCK_RECORD
  5
1
100
AcDbSymbolTable
 70
0
  0
BLOCK_RECORD
  5
1F
100
AcDbSymbolTableRecord
100
AcDbBlockTableRecord
  2
*MODEL_SPACE
  0
BLOCK_RECORD
  5
1B
100
AcDbSymbolTableRecord
100
AcDbBlockTableRecord
  2
*PAPER_SPACE
  0
ENDTAB
  0
TABLE
  2
DIMSTYLE
  5
A
100
AcDbSymbolTable
 70
1
  0
DIMSTYLE
105
20E
100
AcDbSymbolTableRecord
100
AcDbDimStyleTableRecord
  2
STANDARD
 70
0
  3

  4

  5
_CLOSED
  6
_CLOSED
  7
_CLOSED
 40
1.0
 41
1.5
 42
0.0625
 43
0.38
 44
0.125
 45
0.0
 46
0.0
 47
0.01
 48
0.01
140
2.0
141
0.09
142
0.0
143
25.4
144
1.0
145
0.0
146
1.0
147
0.625
 71
1.0
 72
0.0
 73
0
 74
0
 75
0
 76
0
 77
1
 78
8
 79
2
170
0
171
1
172
0
173
0
174
0
175
0
176
0
177
0
178
0
270
2
179
2
271
2
272
2
273
2
274
2
275
0
280
0
281
0
282
0
283
1
284
8
285
0
286
0
287
3
288
0
340
11
  0
ENDTAB
  0
ENDSEC
  0
SECTION
  2
BLOCKS
  0
BLOCK
  5
20
100
AcDbEntity
  8
0
100
AcDbBlockBegin
  2
*MODEL_SPACE
 70
0
 10
0.0
 20
0.0
 30
0.0
  3
*MODEL_SPACE
  1

  0
ENDBLK
  5
21
100
AcDbEntity
  8
0
100
AcDbBlockEnd
  0
BLOCK
  5
1C
100
AcDbEntity
  8
0
100
AcDbBlockBegin
  2
*PAPER_SPACE
 70
0
 10
0.0
 20
0.0
 30
0.0
  3
*PAPER_SPACE
  1

  0
ENDBLK
  5
1D
100
AcDbEntity
  8
0
100
AcDbBlockEnd
  0
ENDSEC
  0
SECTION
  2
ENTITIES
  0
LINE
  5
20F
100
AcDbEntity
  8
0
100
AcDbLine
 62
7
  6
CONTINUOUS
 10
0.0
 20
0.0
 11
0.0
 21
210.0
  0
LINE
  5
210
100
AcDbEntity
  8
0
100
AcDbLine
 62
7
  6
CONTINUOUS
 10
0.0
 20
0.0
 11
297.0
 21
0.0
  0
LINE
  5
211
100
AcDbEntity
  8
0
100
AcDbLine
 62
7
  6
CONTINUOUS
 10
0.0
 20
210.0
 11
297.0
 21
210.0
  0
LINE
  5
212
100
AcDbEntity
  8
0
100
AcDbLine
 62
7
  6
CONTINUOUS
 10
297.0
 20
0.0
 11
297.0
 21
210.0
  0
LINE
  5
213
100
AcDbEntity
  8
0
100
AcDbLine
 62
7
  6
CONTINUOUS
 10
86.5481025347
 20
48.506618235
 11
86.5568749904
 21
48.499023471
  0
LINE
  5
214
100
AcDbEntity
  8
0
100
AcDbLine
 62
7
  6
CONTINUOUS
 10
88.548103377
 20
48.5066182321
 11
88.5568758293
 21
48.499023471
  0
LINE
  5
215
100
AcDbEntity
  8
0
100
AcDbLine
 62
7
  6
CONTINUOUS
 10
83.6563199858
 20
49.699023471
 11
84.8563199858
 21
48.499023471
  0
LINE
  5
216
100
AcDbEntity
  8
0
100
AcDbLine
 62
7
  6
CONTINUOUS
 10
85.7969376764
 20
49.807145548
 11
86.5481025348
 21
48.506618235
  0
LINE
  5
217
100
AcDbEntity
  8
0
100
AcDbLine
 62
7
  6
CONTINUOUS
 10
87.796938519
 20
49.8071455449
 11
88.548103377
 21
48.5066182321
  0
LINE
  5
218
100
AcDbEntity
  8
0
100
AcDbLine
 62
7
  6
CONTINUOUS
 10
90.5481025257
 20
48.5066182214
 11
90.5568749657
 21
48.499023471
  0
LINE
  5
219
100
AcDbEntity
  8
0
100
AcDbLine
 62
7
  6
CONTINUOUS
 10
92.5481027551
 20
48.5066182365
 11
92.5568752124
 21
48.499023471
  0
LINE
  5
21A
100
AcDbEntity
  8
0
100
AcDbLine
 62
7
  6
CONTINUOUS
 10
89.7969376685
 20
49.8071455335
 11
90.5481025257
 21
48.5066182214
  0
LINE
  5
21B
100
AcDbEntity
  8
0
100
AcDbLine
 62
7
  6
CONTINUOUS
 10
91.7969378966
 20
49.8071455496
 11
92.5481027551
 21
48.5066182365
  0
LINE
  5
21C
100
AcDbEntity
  8
0
100
AcDbLine
 62
7
  6
CONTINUOUS
 10
93.7969385492
 20
49.8071455402
 11
94.2581474971
 21
49.0086409784
  0
LINE
  5
21D
100
AcDbEntity
  8
0
100
AcDbLine
 62
7
  6
CONTINUOUS
 10
94.2581474971
 20
49.0086409784
 11
94.2638520691
 21
49.0065555543
  0
LINE
  5
21E
100
AcDbEntity
  8
0
100
AcDbLine
 62
7
  6
CONTINUOUS
 10
104.9240869388
 20
47.2312565181
 11
103.3885530329
 21
48.766790424
  0
LINE
  5
21F
100
AcDbEntity
  8
0
100
AcDbLine
 62
7
  6
CONTINUOUS
 10
83.6563199858
 20
49.699023471
 11
83.6563199858
 21
87.2986642394
  0
LINE
  5
220
100
AcDbEntity
  8
0
100
AcDbLine
 62
7
  6
CONTINUOUS
 10
84.8563199858
 20
48.499023471
 11
84.8563199858
 21
48.739824614
  0
LINE
  5
221
100
AcDbEntity
  8
0
100
AcDbLine
 62
7
  6
CONTINUOUS
 10
84.6657014225
 20
87.1909014019
 11
84.2594242206
 21
87.8942995872
  0
LINE
  5
222
100
AcDbEntity
  8
0
100
AcDbLine
 62
7
  6
CONTINUOUS
 10
86.6657020751
 20
87.1909013924
 11
85.9145372166
 21
88.4914287056
  0
LINE
  5
223
100
AcDbEntity
  8
0
100
AcDbLine
 62
7
  6
CONTINUOUS
 10
88.6657023032
 20
87.1909014085
 11
87.9145374459
 21
88.4914287207
  0
LINE
  5
224
100
AcDbEntity
  8
0
100
AcDbLine
 62
7
  6
CONTINUOUS
 10
90.6657014528
 20
87.1909013971
 11
89.9145365946
 21
88.49142871
  0
LINE
  5
225
100
AcDbEntity
  8
0
100
AcDbLine
 62
7
  6
CONTINUOUS
 10
93.7563199858
 20
88.499023471
 11
93.7563199858
 21
84.6998640357
  0
LINE
  5
226
100
AcDbEntity
  8
0
100
AcDbLine
 62
7
  6
CONTINUOUS
 10
101.6563199858
 20
155.212985127
 11
102.9488216516
 21
156.599023471
  0
LINE
  5
227
100
AcDbEntity
  8
0
100
AcDbLine
 62
7
  6
CONTINUOUS
 10
112.0375178323
 20
164.4417578811
 11
112.6563199858
 21
164.799023471
  0
LINE
  5
228
100
AcDbEntity
  8
0
100
AcDbLine
 62
7
  6
CONTINUOUS
 10
85.9145372166
 20
88.4914287056
 11
85.9057647593
 21
88.499023471
  0
LINE
  5
229
100
AcDbEntity
  8
0
100
AcDbLine
 62
7
  6
CONTINUOUS
 10
124.4512947327
 20
45.7040487242
 11
123.861345239
 21
46.2939982179
  0
LINE
  5
22A
100
AcDbEntity
  8
0
100
AcDbLine
 62
7
  6
CONTINUOUS
 10
92.6657022953
 20
87.190901394
 11
91.9145374369
 21
88.4914287071
  0
LINE
  5
22B
100
AcDbEntity
  8
0
100
AcDbLine
 62
7
  6
CONTINUOUS
 10
95.2169801576
 20
49.9596836428
 11
95.2169801576
 21
87.0383632993
  0
LINE
  5
22C
100
AcDbEntity
  8
0
100
AcDbLine
 62
7
  6
CONTINUOUS
 10
96.2776403294
 20
50.399023471
 11
96.2776403294
 21
86.599023471
  0
LINE
  5
22D
100
AcDbEntity
  8
0
100
AcDbLine
 62
7
  6
CONTINUOUS
 10
98.0349996423
 20
50.399023471
 11
98.0349996423
 21
86.599023471
  0
LINE
  5
22E
100
AcDbEntity
  8
0
100
AcDbLine
 62
7
  6
CONTINUOUS
 10
99.0956598141
 20
49.9596836428
 11
99.0956598141
 21
87.0383632993
  0
LINE
  5
22F
100
AcDbEntity
  8
0
100
AcDbLine
 62
7
  6
CONTINUOUS
 10
99.1169801576
 20
87.0596836428
 11
99.1169801576
 21
49.9383632993
  0
LINE
  5
230
100
AcDbEntity
  8
0
100
AcDbLine
 62
7
  6
CONTINUOUS
 10
100.1776403294
 20
87.499023471
 11
100.1776403294
 21
49.499023471
  0
LINE
  5
231
100
AcDbEntity
  8
0
100
AcDbLine
 62
7
  6
CONTINUOUS
 10
101.6207860799
 20
49.499023471
 11
101.6207860799
 21
87.499023471
  0
LINE
  5
232
100
AcDbEntity
  8
0
100
AcDbLine
 62
7
  6
CONTINUOUS
 10
101.6563199858
 20
141.599023471
 11
101.6563199858
 21
156.599023471
  0
LINE
  5
233
100
AcDbEntity
  8
0
100
AcDbLine
 62
7
  6
CONTINUOUS
 10
102.1563199858
 20
141.7876986056
 11
101.9063199858
 21
141.3546859037
  0
LINE
  5
234
100
AcDbEntity
  8
0
100
AcDbLine
 62
7
  6
CONTINUOUS
 10
107.6563199858
 20
150.9935706676
 11
107.6655884051
 21
151.0032286268
  0
LINE
  5
235
100
AcDbEntity
  8
0
100
AcDbLine
 62
7
  6
CONTINUOUS
 10
105.3563199858
 20
149.699023471
 11
105.6563199858
 21
149.999023471
  0
LINE
  5
236
100
AcDbEntity
  8
0
100
AcDbLine
 62
7
  6
CONTINUOUS
 10
108.3563199858
 20
152.499023471
 11
107.8059053444
 21
151.9486088296
  0
LINE
  5
237
100
AcDbEntity
  8
0
100
AcDbLine
 62
7
  6
CONTINUOUS
 10
112.0375178323
 20
161.5964584195
 11
110.9563199858
 21
160.9722285518
  0
LINE
  5
238
100
AcDbEntity
  8
0
100
AcDbLine
 62
7
  6
CONTINUOUS
 10
131.8889929979
 20
45.499023471
 11
130.6563199858
 21
45.499023471
  0
LINE
  5
239
100
AcDbEntity
  8
0
100
AcDbLine
 62
7
  6
CONTINUOUS
 10
130.4563199858
 20
45.499023471
 11
124.9462694795
 21
45.499023471
  0
LINE
  5
23A
100
AcDbEntity
  8
0
100
AcDbLine
 62
7
  6
CONTINUOUS
 10
123.3663704922
 20
46.499023471
 11
106.6918538918
 21
46.499023471
  0
LINE
  5
23B
100
AcDbEntity
  8
0
100
AcDbLine
 62
7
  6
CONTINUOUS
 10
132.7935866471
 20
47.499023471
 11
138.8676448513
 21
47.499023471
  0
LINE
  5
23C
100
AcDbEntity
  8
0
100
AcDbLine
 62
7
  6
CONTINUOUS
 10
132.7935866471
 20
48.0848099087
 11
138.0441846271
 21
48.0848099087
  0
LINE
  5
23D
100
AcDbEntity
  8
0
100
AcDbLine
 62
7
  6
CONTINUOUS
 10
84.8563199858
 20
48.499023471
 11
84.9057642905
 21
48.499023471
  0
LINE
  5
23E
100
AcDbEntity
  8
0
100
AcDbLine
 62
7
  6
CONTINUOUS
 10
86.5568749904
 20
48.499023471
 11
86.9057651294
 21
48.499023471
  0
LINE
  5
23F
100
AcDbEntity
  8
0
100
AcDbLine
 62
7
  6
CONTINUOUS
 10
88.5568758293
 20
48.499023471
 11
88.9057642658
 21
48.499023471
  0
LINE
  5
240
100
AcDbEntity
  8
0
100
AcDbLine
 62
7
  6
CONTINUOUS
 10
90.5568749657
 20
48.499023471
 11
90.9057645125
 21
48.499023471
  0
LINE
  5
241
100
AcDbEntity
  8
0
100
AcDbLine
 62
7
  6
CONTINUOUS
 10
92.5568752124
 20
48.499023471
 11
92.9057651541
 21
48.499023471
  0
LINE
  5
242
100
AcDbEntity
  8
0
100
AcDbLine
 62
7
  6
CONTINUOUS
 10
146.3068751384
 20
48.499023471
 11
146.6557650307
 21
48.499023471
  0
LINE
  5
243
100
AcDbEntity
  8
0
100
AcDbLine
 62
7
  6
CONTINUOUS
 10
148.3068757306
 20
48.499023471
 11
148.6557642411
 21
48.499023471
  0
LINE
  5
244
100
AcDbEntity
  8
0
100
AcDbLine
 62
7
  6
CONTINUOUS
 10
150.306874941
 20
48.499023471
 11
150.6557648333
 21
48.499023471
  0
LINE
  5
245
100
AcDbEntity
  8
0
100
AcDbLine
 62
7
  6
CONTINUOUS
 10
101.6207860799
 20
49.499023471
 11
100.1776403294
 21
49.499023471
  0
LINE
  5
246
100
AcDbEntity
  8
0
100
AcDbLine
 62
7
  6
CONTINUOUS
 10
85.6563196404
 20
49.799023471
 11
85.8063196404
 21
49.799023471
  0
LINE
  5
247
100
AcDbEntity
  8
0
100
AcDbLine
 62
7
  6
CONTINUOUS
 10
87.6563204793
 20
49.799023471
 11
87.8063204793
 21
49.799023471
  0
LINE
  5
248
100
AcDbEntity
  8
0
100
AcDbLine
 62
7
  6
CONTINUOUS
 10
89.6563196157
 20
49.799023471
 11
89.8063196157
 21
49.799023471
  0
LINE
  5
249
100
AcDbEntity
  8
0
100
AcDbLine
 62
7
  6
CONTINUOUS
 10
91.6563198625
 20
49.799023471
 11
91.8063198625
 21
49.799023471
  0
LINE
  5
24A
100
AcDbEntity
  8
0
100
AcDbLine
 62
7
  6
CONTINUOUS
 10
93.656320504
 20
49.799023471
 11
93.806320504
 21
49.799023471
  0
LINE
  5
24B
100
AcDbEntity
  8
0
100
AcDbLine
 62
7
  6
CONTINUOUS
 10
145.4063197885
 20
49.799023471
 11
145.5469378244
 21
49.799023471
  0
LINE
  5
24C
100
AcDbEntity
  8
0
100
AcDbLine
 62
7
  6
CONTINUOUS
 10
147.4063203806
 20
49.799023471
 11
147.5469384238
 21
49.799023471
  0
LINE
  5
24D
100
AcDbEntity
  8
0
100
AcDbLine
 62
7
  6
CONTINUOUS
 10
149.4063195911
 20
49.799023471
 11
149.5469376344
 21
49.799023471
  0
LINE
  5
24E
100
AcDbEntity
  8
0
100
AcDbLine
 62
7
  6
CONTINUOUS
 10
151.4063201832
 20
49.799023471
 11
151.5469382191
 21
49.799023471
  0
LINE
  5
24F
100
AcDbEntity
  8
0
100
AcDbLine
 62
7
  6
CONTINUOUS
 10
98.0349996423
 20
50.399023471
 11
96.2776403294
 21
50.399023471
  0
LINE
  5
250
100
AcDbEntity
  8
0
100
AcDbLine
 62
7
  6
CONTINUOUS
 10
143.4077918484
 20
50.499023471
 11
139.7563199858
 21
50.499023471
  0
LINE
  5
251
100
AcDbEntity
  8
0
100
AcDbLine
 62
7
  6
CONTINUOUS
 10
152.209561404
 20
48.6599182269
 11
152.2151658378
 21
48.657869323
  0
LINE
  5
252
100
AcDbEntity
  8
0
100
AcDbLine
 62
7
  6
CONTINUOUS
 10
87.9145374459
 20
88.4914287207
 11
87.905765006
 21
88.499023471
  0
LINE
  5
253
100
AcDbEntity
  8
0
100
AcDbLine
 62
7
  6
CONTINUOUS
 10
89.9145365946
 20
88.49142871
 11
89.9057641424
 21
88.499023471
  0
LINE
  5
254
100
AcDbEntity
  8
0
100
AcDbLine
 62
7
  6
CONTINUOUS
 10
91.9145374369
 20
88.4914287071
 11
91.9057649813
 21
88.499023471
  0
LINE
  5
255
100
AcDbEntity
  8
0
100
AcDbLine
 62
7
  6
CONTINUOUS
 10
95.2169801576
 20
87.0383632993
 11
93.7563199858
 21
88.499023471
  0
LINE
  5
256
100
AcDbEntity
  8
0
100
AcDbLine
 62
7
  6
CONTINUOUS
 10
110.9404944537
 20
66.6099060179
 11
109.3563199858
 21
69.719023471
  0
LINE
  5
257
100
AcDbEntity
  8
0
100
AcDbLine
 62
7
  6
CONTINUOUS
 10
111.3613667928
 20
67.4359144922
 11
110.1980646641
 21
69.719023471
  0
LINE
  5
258
100
AcDbEntity
  8
0
100
AcDbLine
 62
7
  6
CONTINUOUS
 10
102.1563199858
 20
141.7876986056
 11
102.1563199858
 21
145.499023471
  0
LINE
  5
259
100
AcDbEntity
  8
0
100
AcDbLine
 62
7
  6
CONTINUOUS
 10
103.3885530329
 20
48.766790424
 11
103.3885530329
 21
88.2312565181
  0
LINE
  5
25A
100
AcDbEntity
  8
0
100
AcDbLine
 62
7
  6
CONTINUOUS
 10
104.6563199858
 20
145.499023471
 11
104.6563199858
 21
156.099023471
  0
LINE
  5
25B
100
AcDbEntity
  8
0
100
AcDbLine
 62
7
  6
CONTINUOUS
 10
104.9240869388
 20
89.766790424
 11
104.9240869388
 21
47.2312565181
  0
LINE
  5
25C
100
AcDbEntity
  8
0
100
AcDbLine
 62
7
  6
CONTINUOUS
 10
105.3563199858
 20
146.299023471
 11
105.3563199858
 21
149.699023471
  0
LINE
  5
25D
100
AcDbEntity
  8
0
100
AcDbLine
 62
7
  6
CONTINUOUS
 10
105.6563199858
 20
145.8333380461
 11
105.6563199858
 21
145.799023471
  0
LINE
  5
25E
100
AcDbEntity
  8
0
100
AcDbLine
 62
7
  6
CONTINUOUS
 10
105.7087175086
 20
144.999023471
 11
105.7087175086
 21
139.7367209396
  0
LINE
  5
25F
100
AcDbEntity
  8
0
100
AcDbLine
 62
7
  6
CONTINUOUS
 10
105.9993618221
 20
144.999023471
 11
105.9993618221
 21
139.7367209396
  0
LINE
  5
260
100
AcDbEntity
  8
0
100
AcDbLine
 62
7
  6
CONTINUOUS
 10
106.1563199858
 20
138.3333380461
 11
106.1563199858
 21
90.8835620387
  0
LINE
  5
261
100
AcDbEntity
  8
0
100
AcDbLine
 62
7
  6
CONTINUOUS
 10
106.6918538918
 20
89.9777055262
 11
106.6918538918
 21
46.499023471
  0
LINE
  5
262
100
AcDbEntity
  8
0
100
AcDbLine
 62
7
  6
CONTINUOUS
 10
107.5563199858
 20
64.019023471
 11
107.5563199858
 21
73.019023471
  0
LINE
  5
263
100
AcDbEntity
  8
0
100
AcDbLine
 62
7
  6
CONTINUOUS
 10
107.6563199858
 20
150.9935706676
 11
107.6563199858
 21
150.6894773183
  0
LINE
  5
264
100
AcDbEntity
  8
0
100
AcDbLine
 62
7
  6
CONTINUOUS
 10
108.3063199858
 20
64.769023471
 11
108.3063199858
 21
72.269023471
  0
LINE
  5
265
100
AcDbEntity
  8
0
100
AcDbLine
 62
7
  6
CONTINUOUS
 10
108.4563200654
 20
151.6100243538
 11
108.4563200654
 21
151.4153226586
  0
LINE
  5
266
100
AcDbEntity
  8
0
100
AcDbLine
 62
7
  6
CONTINUOUS
 10
108.456320069
 20
150.2730236302
 11
108.456320069
 21
150.0783219457
  0
LWPOLYLINE
  5
267
100
AcDbEntity
  8
0
100
AcDbPolyline
 62
7
  6
CONTINUOUS
 90
43
 70
0
 10
106.1563205144
 20
90.8835619646
 10
106.1561794087
 20
90.8705505219
 10
106.1554439597
 20
90.8511416888
 10
106.1540865757
 20
90.8318348033
 10
106.1521152533
 20
90.8126494926
 10
106.149538572
 20
90.7936049076
 10
106.1463669434
 20
90.7747266118
 10
106.1426106965
 20
90.7560326293
 10
106.1382806559
 20
90.7375404273
 10
106.1333900377
 20
90.719273658
 10
106.1279512114
 20
90.7012484553
 10
106.1219769446
 20
90.6834803326
 10
106.1154829211
 20
90.6659907194
 10
106.1084832251
 20
90.6487936274
 10
106.1009922349
 20
90.6319024013
 10
106.0930277318
 20
90.6153359974
 10
106.0846051663
 20
90.5991061309
 10
106.0757401739
 20
90.5832238213
 10
106.0664522429
 20
90.5677053657
 10
106.0567578275
 20
90.5525600675
 10
106.0466734582
 20
90.5377965243
 10
106.0362199283
 20
90.5234282519
 10
106.0254143312
 20
90.5094620863
 10
106.0142737304
 20
90.495904165
 10
106.0028198231
 20
90.4827651645
 10
105.9910699847
 20
90.4700494545
 10
105.9790414593
 20
90.4577607302
 10
105.9667564579
 20
90.4459068314
 10
105.954232297
 20
90.4344897168
 10
105.9414860678
 20
90.4235107084
 10
105.9285401239
 20
90.4129748675
 10
105.9154114055
 20
90.4028818449
 10
105.9021165445
 20
90.3932307057
 10
105.8886776934
 20
90.3840238419
 10
105.8751111304
 20
90.3752587417
 10
105.861432753
 20
90.3669323698
 10
105.8476642041
 20
90.3590446015
 10
105.8338204216
 20
90.3515907201
 10
105.8199167486
 20
90.3445660252
 10
105.8059753675
 20
90.3379686674
 10
105.7920075039
 20
90.3317909713
 10
105.7780299565
 20
90.326027657
 10
105.7761013504
 20
90.3252645848
  0
LINE
  5
268
100
AcDbEntity
  8
0
100
AcDbLine
 62
7
  6
CONTINUOUS
 10
116.6563199858
 20
159.799023471
 11
116.6048334264
 21
159.599023471
  0
LINE
  5
269
100
AcDbEntity
  8
0
100
AcDbLine
 62
7
  6
CONTINUOUS
 10
118.5104219521
 20
159.799023471
 11
118.4304842029
 21
159.599023471
  0
LINE
  5
26A
100
AcDbEntity
  8
0
100
AcDbLine
 62
7
  6
CONTINUOUS
 10
113.2375699858
 20
135.16312536
 11
113.0500699886
 21
134.7801466823
  0
LINE
  5
26B
100
AcDbEntity
  8
0
100
AcDbLine
 62
7
  6
CONTINUOUS
 10
122.6563199858
 20
159.799023471
 11
122.5560953319
 21
159.599023471
  0
LINE
  5
26C
100
AcDbEntity
  8
0
100
AcDbLine
 62
7
  6
CONTINUOUS
 10
120.1830314996
 20
159.799023471
 11
120.0824674245
 21
159.599023471
  0
LINE
  5
26D
100
AcDbEntity
  8
0
100
AcDbLine
 62
7
  6
CONTINUOUS
 10
122.3626590836
 20
159.799023471
 11
122.2514295516
 21
159.599023471
  0
LINE
  5
26E
100
AcDbEntity
  8
0
100
AcDbLine
 62
7
  6
CONTINUOUS
 10
121.5104219521
 20
159.799023471
 11
121.3990754635
 21
159.599023471
  0
LINE
  5
26F
100
AcDbEntity
  8
0
100
AcDbLine
 62
7
  6
CONTINUOUS
 10
85.5481023707
 20
88.4914287146
 11
84.796937513
 21
87.1909014021
  0
LINE
  5
270
100
AcDbEntity
  8
0
100
AcDbLine
 62
7
  6
CONTINUOUS
 10
150.498960673
 20
177.4274505958
 11
132.963426767
 21
159.8919166898
  0
LINE
  5
271
100
AcDbEntity
  8
0
100
AcDbLine
 62
7
  6
CONTINUOUS
 10
108.4664895319
 20
150.0836223622
 11
108.3041740781
 21
149.999023471
  0
LINE
  5
272
100
AcDbEntity
  8
0
100
AcDbLine
 62
7
  6
CONTINUOUS
 10
108.4664895078
 20
151.4206230644
 11
107.6655884051
 21
151.0032286268
  0
LINE
  5
273
100
AcDbEntity
  8
0
100
AcDbLine
 62
7
  6
CONTINUOUS
 10
146.2981026826
 20
48.5066182356
 11
146.3068751384
 21
48.499023471
  0
LINE
  5
274
100
AcDbEntity
  8
0
100
AcDbLine
 62
7
  6
CONTINUOUS
 10
148.2981032816
 20
48.5066182297
 11
148.3068757306
 21
48.499023471
  0
LINE
  5
275
100
AcDbEntity
  8
0
100
AcDbLine
 62
7
  6
CONTINUOUS
 10
150.2981024922
 20
48.5066182296
 11
150.306874941
 21
48.499023471
  0
LINE
  5
276
100
AcDbEntity
  8
0
100
AcDbLine
 62
7
  6
CONTINUOUS
 10
145.0219931867
 20
49.1333502701
 11
143.8320559171
 21
50.3232875397
  0
LINE
  5
277
100
AcDbEntity
  8
0
100
AcDbLine
 62
7
  6
CONTINUOUS
 10
109.6563199858
 20
113.3333380461
 11
109.6563199858
 21
118.3333380461
  0
LINE
  5
278
100
AcDbEntity
  8
0
100
AcDbLine
 62
7
  6
CONTINUOUS
 10
109.6563199858
 20
152.499023471
 11
109.6563199858
 21
155.9990234692
  0
LINE
  5
279
100
AcDbEntity
  8
0
100
AcDbLine
 62
7
  6
CONTINUOUS
 10
109.8022180196
 20
155.4216732018
 11
109.8022180196
 21
152.499023471
  0
LINE
  5
27A
100
AcDbEntity
  8
0
100
AcDbLine
 62
7
  6
CONTINUOUS
 10
110.1563199858
 20
100.2907848746
 11
110.1563199858
 21
99.3333380461
  0
LINE
  5
27B
100
AcDbEntity
  8
0
100
AcDbLine
 62
7
  6
CONTINUOUS
 10
110.2188199858
 20
117.8014232159
 11
110.2188199858
 21
116.2056784272
  0
LINE
  5
27C
100
AcDbEntity
  8
0
100
AcDbLine
 62
7
  6
CONTINUOUS
 10
110.2188199858
 20
115.567380631
 11
110.2188199858
 21
113.3333380461
  0
LINE
  5
27D
100
AcDbEntity
  8
0
100
AcDbLine
 62
7
  6
CONTINUOUS
 10
110.6563199858
 20
160.4526133095
 11
110.6563199858
 21
159.799023471
  0
LINE
  5
27E
100
AcDbEntity
  8
0
100
AcDbLine
 62
7
  6
CONTINUOUS
 10
111.2563199858
 20
156.599023471
 11
111.2563199858
 21
155.999023471
  0
LINE
  5
27F
100
AcDbEntity
  8
0
100
AcDbLine
 62
7
  6
CONTINUOUS
 10
112.0375178323
 20
161.5964584195
 11
112.0375178323
 21
164.4417578811
  0
LINE
  5
280
100
AcDbEntity
  8
0
100
AcDbLine
 62
7
  6
CONTINUOUS
 10
112.5625698964
 20
117.1631254196
 11
112.5625698964
 21
116.8439762235
  0
LINE
  5
281
100
AcDbEntity
  8
0
100
AcDbLine
 62
7
  6
CONTINUOUS
 10
112.9563199858
 20
134.3014230669
 11
112.9563199858
 21
132.8652528912
  0
LINE
  5
282
100
AcDbEntity
  8
0
100
AcDbLine
 62
7
  6
CONTINUOUS
 10
112.9887009625
 20
156.599023471
 11
112.9887009625
 21
155.212985127
  0
LINE
  5
283
100
AcDbEntity
  8
0
100
AcDbLine
 62
7
  6
CONTINUOUS
 10
113.1250698964
 20
117.1631254196
 11
113.1250698964
 21
116.7375932574
  0
LINE
  5
284
100
AcDbEntity
  8
0
100
AcDbLine
 62
7
  6
CONTINUOUS
 10
113.5188199858
 20
134.3014230669
 11
113.5188199858
 21
132.8652528912
  0
LINE
  5
285
100
AcDbEntity
  8
0
100
AcDbLine
 62
7
  6
CONTINUOUS
 10
113.8750699858
 20
118.3333380461
 11
113.8750699858
 21
113.3333380461
  0
LINE
  5
286
100
AcDbEntity
  8
0
100
AcDbLine
 62
7
  6
CONTINUOUS
 10
114.3469189091
 20
161.5964584195
 11
114.3469189091
 21
164.4417578811
  0
LINE
  5
287
100
AcDbEntity
  8
0
100
AcDbLine
 62
7
  6
CONTINUOUS
 10
114.4375699858
 20
117.6950402498
 11
114.4375699858
 21
113.3333380461
  0
LINE
  5
288
100
AcDbEntity
  8
0
100
AcDbLine
 62
7
  6
CONTINUOUS
 10
115.0898093423
 20
65.899023471
 11
115.0898093423
 21
69.719023471
  0
LINE
  5
289
100
AcDbEntity
  8
0
100
AcDbLine
 62
7
  6
CONTINUOUS
 10
115.0898093423
 20
70.469023471
 11
115.0898093423
 21
71.219023471
  0
LINE
  5
28A
100
AcDbEntity
  8
0
100
AcDbLine
 62
7
  6
CONTINUOUS
 10
115.2188199858
 20
106.2269553185
 11
115.2188199858
 21
105.8439761043
  0
LINE
  5
28B
100
AcDbEntity
  8
0
100
AcDbLine
 62
7
  6
CONTINUOUS
 10
114.8022180196
 20
159.799023471
 11
114.7842225131
 21
159.599023471
  0
LINE
  5
28C
100
AcDbEntity
  8
0
100
AcDbLine
 62
7
  6
CONTINUOUS
 10
113.0500699886
 20
134.7801466823
 11
112.9563199858
 21
134.3014230669
  0
LINE
  5
28D
100
AcDbEntity
  8
0
100
AcDbLine
 62
7
  6
CONTINUOUS
 10
116.6125699858
 20
132.4822742134
 11
116.5188200753
 21
132.0035507992
  0
LINE
  5
28E
100
AcDbEntity
  8
0
100
AcDbLine
 62
7
  6
CONTINUOUS
 10
110.4938199959
 20
106.992912674
 11
110.3250699909
 21
106.2269553185
  0
LINE
  5
28F
100
AcDbEntity
  8
0
100
AcDbLine
 62
7
  6
CONTINUOUS
 10
113.6125699635
 20
134.6844017446
 11
113.5188199858
 21
134.3014230669
  0
LINE
  5
290
100
AcDbEntity
  8
0
100
AcDbLine
 62
7
  6
CONTINUOUS
 10
112.5625698964
 20
116.8439762235
 11
112.4688199858
 21
116.5248273254
  0
LINE
  5
291
100
AcDbEntity
  8
0
100
AcDbLine
 62
7
  6
CONTINUOUS
 10
113.1250698964
 20
116.7375932574
 11
113.0313199858
 21
116.4184443593
  0
LINE
  5
292
100
AcDbEntity
  8
0
100
AcDbLine
 62
7
  6
CONTINUOUS
 10
116.0500699858
 20
132.4822742134
 11
115.9563200753
 21
132.1950402051
  0
LINE
  5
293
100
AcDbEntity
  8
0
100
AcDbLine
 62
7
  6
CONTINUOUS
 10
119.5625698964
 20
134.4929124057
 11
119.4688199858
 21
134.2056783974
  0
LINE
  5
294
100
AcDbEntity
  8
0
100
AcDbLine
 62
7
  6
CONTINUOUS
 10
120.1250698964
 20
134.3971677363
 11
120.0313199858
 21
134.109933728
  0
LINE
  5
295
100
AcDbEntity
  8
0
100
AcDbLine
 62
7
  6
CONTINUOUS
 10
87.5481030018
 20
88.4914287055
 11
86.7969381433
 21
87.1909013924
  0
LINE
  5
296
100
AcDbEntity
  8
0
100
AcDbLine
 62
7
  6
CONTINUOUS
 10
89.5481032657
 20
88.4914287204
 11
88.7969384085
 21
87.1909014083
  0
LINE
  5
297
100
AcDbEntity
  8
0
100
AcDbLine
 62
7
  6
CONTINUOUS
 10
91.5481023902
 20
88.4914287101
 11
90.7969375321
 21
87.1909013973
  0
LINE
  5
298
100
AcDbEntity
  8
0
100
AcDbLine
 62
7
  6
CONTINUOUS
 10
93.5481032256
 20
88.491428707
 11
92.7969383672
 21
87.190901394
  0
LINE
  5
299
100
AcDbEntity
  8
0
100
AcDbLine
 62
7
  6
CONTINUOUS
 10
113.8000699858
 20
134.9716360211
 11
113.6125699635
 21
134.6844017446
  0
LINE
  5
29A
100
AcDbEntity
  8
0
100
AcDbLine
 62
7
  6
CONTINUOUS
 10
113.6125699635
 20
135.5461040378
 11
113.2375699858
 21
135.16312536
  0
LINE
  5
29B
100
AcDbEntity
  8
0
100
AcDbLine
 62
7
  6
CONTINUOUS
 10
135.0847471106
 20
157.7705963463
 11
152.3273877977
 21
175.0132370334
  0
LINE
  5
29C
100
AcDbEntity
  8
0
100
AcDbLine
 62
7
  6
CONTINUOUS
 10
127.9563199858
 20
146.299023471
 11
127.7734772734
 21
146.1161807586
  0
LINE
  5
29D
100
AcDbEntity
  8
0
100
AcDbLine
 62
7
  6
CONTINUOUS
 10
132.7935866471
 20
59.2147522236
 11
138.0441846271
 21
59.2147522236
  0
LINE
  5
29E
100
AcDbEntity
  8
0
100
AcDbLine
 62
7
  6
CONTINUOUS
 10
132.7935866471
 20
60.6289657859
 11
138.0441846271
 21
60.6289657859
  0
LINE
  5
29F
100
AcDbEntity
  8
0
100
AcDbLine
 62
7
  6
CONTINUOUS
 10
122.5563199858
 20
64.019023471
 11
107.5563199858
 21
64.019023471
  0
LINE
  5
2A0
100
AcDbEntity
  8
0
100
AcDbLine
 62
7
  6
CONTINUOUS
 10
121.8063199858
 20
64.769023471
 11
108.3063199858
 21
64.769023471
  0
LINE
  5
2A1
100
AcDbEntity
  8
0
100
AcDbLine
 62
7
  6
CONTINUOUS
 10
84.253692539
 20
87.8963960241
 11
84.2594242206
 21
87.8942995872
  0
LINE
  5
2A2
100
AcDbEntity
  8
0
100
AcDbLine
 62
7
  6
CONTINUOUS
 10
113.1296084721
 20
159.799023471
 11
113.146865544
 21
159.599023471
  0
LINE
  5
2A3
100
AcDbEntity
  8
0
100
AcDbLine
 62
7
  6
CONTINUOUS
 10
115.8398093423
 20
65.899023471
 11
115.8398093423
 21
69.719023471
  0
LINE
  5
2A4
100
AcDbEntity
  8
0
100
AcDbLine
 62
7
  6
CONTINUOUS
 10
115.8398093423
 20
70.469023471
 11
115.8398093423
 21
71.219023471
  0
LINE
  5
2A5
100
AcDbEntity
  8
0
100
AcDbLine
 62
7
  6
CONTINUOUS
 10
116.2313199858
 20
106.2269553185
 11
116.2313199858
 21
105.8439761043
  0
LINE
  5
2A6
100
AcDbEntity
  8
0
100
AcDbLine
 62
7
  6
CONTINUOUS
 10
116.2313199858
 20
100.2907848746
 11
116.2313199858
 21
99.3333380461
  0
LINE
  5
2A7
100
AcDbEntity
  8
0
100
AcDbLine
 62
7
  6
CONTINUOUS
 10
116.6563199858
 20
135.8333380461
 11
116.6563199858
 21
131.3333380461
  0
LINE
  5
2A8
100
AcDbEntity
  8
0
100
AcDbLine
 62
7
  6
CONTINUOUS
 10
116.8898093423
 20
65.899023471
 11
116.8898093423
 21
66.099023471
  0
LINE
  5
2A9
100
AcDbEntity
  8
0
100
AcDbLine
 62
7
  6
CONTINUOUS
 10
116.8898093423
 20
68.3043628773
 11
116.8898093423
 21
69.719023471
  0
LINE
  5
2AA
100
AcDbEntity
  8
0
100
AcDbLine
 62
7
  6
CONTINUOUS
 10
117.0625701647
 20
118.3333380461
 11
117.0625701647
 21
114.0780188829
  0
LINE
  5
2AB
100
AcDbEntity
  8
0
100
AcDbLine
 62
7
  6
CONTINUOUS
 10
117.2188199858
 20
135.3546146989
 11
117.2188199858
 21
133.9184443891
  0
LINE
  5
2AC
100
AcDbEntity
  8
0
100
AcDbLine
 62
7
  6
CONTINUOUS
 10
117.2188199858
 20
133.3439763725
 11
117.2188199858
 21
131.3333380461
  0
LINE
  5
2AD
100
AcDbEntity
  8
0
100
AcDbLine
 62
7
  6
CONTINUOUS
 10
117.5813201468
 20
108.3333380461
 11
117.5813201468
 21
103.3546146989
  0
LINE
  5
2AE
100
AcDbEntity
  8
0
100
AcDbLine
 62
7
  6
CONTINUOUS
 10
117.6250701647
 20
118.3333380461
 11
117.6250701647
 21
113.3333380461
  0
LINE
  5
2AF
100
AcDbEntity
  8
0
100
AcDbLine
 62
7
  6
CONTINUOUS
 10
117.6398093423
 20
68.969023471
 11
117.6398093423
 21
69.719023471
  0
LINE
  5
2B0
100
AcDbEntity
  8
0
100
AcDbLine
 62
7
  6
CONTINUOUS
 10
118.3750699858
 20
117.5886572838
 11
118.3750699858
 21
116.7375932574
  0
LINE
  5
2B1
100
AcDbEntity
  8
0
100
AcDbLine
 62
7
  6
CONTINUOUS
 10
118.4250703077
 20
107.3758913517
 11
118.4250703077
 21
104.3120613933
  0
LINE
  5
2B2
100
AcDbEntity
  8
0
100
AcDbLine
 62
7
  6
CONTINUOUS
 10
118.9375699858
 20
117.4822743178
 11
118.9375699858
 21
113.3333380461
  0
LINE
  5
2B3
100
AcDbEntity
  8
0
100
AcDbLine
 62
7
  6
CONTINUOUS
 10
118.9657210626
 20
161.5964584195
 11
118.9657210626
 21
164.4417578811
  0
LINE
  5
2B4
100
AcDbEntity
  8
0
100
AcDbLine
 62
7
  6
CONTINUOUS
 10
119.1563199858
 20
141.599023471
 11
119.1563199858
 21
148.599023471
  0
LINE
  5
2B5
100
AcDbEntity
  8
0
100
AcDbLine
 62
7
  6
CONTINUOUS
 10
119.5000699858
 20
118.3333380461
 11
119.5000699858
 21
113.3333380461
  0
LINE
  5
2B6
100
AcDbEntity
  8
0
100
AcDbLine
 62
7
  6
CONTINUOUS
 10
119.5625698964
 20
134.7801466823
 11
119.5625698964
 21
134.4929124057
  0
LINE
  5
2B7
100
AcDbEntity
  8
0
100
AcDbLine
 62
7
  6
CONTINUOUS
 10
119.7398093423
 20
68.499023471
 11
119.7398093423
 21
69.269023471
  0
LINE
  5
2B8
100
AcDbEntity
  8
0
100
AcDbLine
 62
7
  6
CONTINUOUS
 10
120.1250698964
 20
134.7801466823
 11
120.1250698964
 21
134.3971677363
  0
LINE
  5
2B9
100
AcDbEntity
  8
0
100
AcDbLine
 62
7
  6
CONTINUOUS
 10
120.2500703435
 20
116.2056784272
 11
120.2500703435
 21
115.4609976649
  0
LINE
  5
2BA
100
AcDbEntity
  8
0
100
AcDbLine
 62
7
  6
CONTINUOUS
 10
120.4898093423
 20
68.2805146006
 11
120.4898093423
 21
69.269023471
  0
LINE
  5
2BB
100
AcDbEntity
  8
0
100
AcDbLine
 62
7
  6
CONTINUOUS
 10
120.7188196282
 20
116.2056784272
 11
120.7188196282
 21
115.9929124951
  0
LINE
  5
2BC
100
AcDbEntity
  8
0
100
AcDbLine
 62
7
  6
CONTINUOUS
 10
120.8125703435
 20
115.1418486178
 11
120.8125703435
 21
114.8226997197
  0
LINE
  5
2BD
100
AcDbEntity
  8
0
100
AcDbLine
 62
7
  6
CONTINUOUS
 10
121.2751221394
 20
161.5964584195
 11
121.2751221394
 21
164.4417578811
  0
LINE
  5
2BE
100
AcDbEntity
  8
0
100
AcDbLine
 62
7
  6
CONTINUOUS
 10
121.8063199858
 20
64.769023471
 11
121.8063199858
 21
72.269023471
  0
LINE
  5
2BF
100
AcDbEntity
  8
0
100
AcDbLine
 62
7
  6
CONTINUOUS
 10
122.5563199858
 20
64.019023471
 11
122.5563199858
 21
73.019023471
  0
LINE
  5
2C0
100
AcDbEntity
  8
0
100
AcDbLine
 62
7
  6
CONTINUOUS
 10
120.3438199858
 20
116.9503591895
 11
120.2500703435
 21
116.2056784272
  0
LINE
  5
2C1
100
AcDbEntity
  8
0
100
AcDbLine
 62
7
  6
CONTINUOUS
 10
120.8125703435
 20
116.8439762235
 11
120.7188196282
 21
116.2056784272
  0
LINE
  5
2C2
100
AcDbEntity
  8
0
100
AcDbLine
 62
7
  6
CONTINUOUS
 10
116.2313199858
 20
105.8439761043
 11
116.0625701468
 21
105.0780187488
  0
LINE
  5
2C3
100
AcDbEntity
  8
0
100
AcDbLine
 62
7
  6
CONTINUOUS
 10
120.9063199858
 20
117.1631254196
 11
120.8125703435
 21
116.8439762235
  0
LINE
  5
2C4
100
AcDbEntity
  8
0
100
AcDbLine
 62
7
  6
CONTINUOUS
 10
120.9063199858
 20
115.4609976649
 11
120.8125703435
 21
115.1418486178
  0
LINE
  5
2C5
100
AcDbEntity
  8
0
100
AcDbLine
 62
7
  6
CONTINUOUS
 10
120.5313203435
 20
117.4822743178
 11
120.3438199858
 21
116.9503591895
  0
LINE
  5
2C6
100
AcDbEntity
  8
0
100
AcDbLine
 62
7
  6
CONTINUOUS
 10
130.6563199858
 20
155.3364105683
 11
125.6563199858
 21
141.599023471
  0
LINE
  5
2C7
100
AcDbEntity
  8
0
100
AcDbLine
 62
7
  6
CONTINUOUS
 10
115.2188199858
 20
105.8439761043
 11
114.8813198249
 21
105.0780187488
  0
LINE
  5
2C8
100
AcDbEntity
  8
0
100
AcDbLine
 62
7
  6
CONTINUOUS
 10
111.5063200261
 20
106.8014233351
 11
111.1688199858
 21
106.2269553185
  0
LINE
  5
2C9
100
AcDbEntity
  8
0
100
AcDbLine
 62
7
  6
CONTINUOUS
 10
113.0313199858
 20
116.4184443593
 11
112.7500699858
 21
115.9929124951
  0
LINE
  5
2CA
100
AcDbEntity
  8
0
100
AcDbLine
 62
7
  6
CONTINUOUS
 10
120.0313199858
 20
134.109933728
 11
119.7500699858
 21
133.7269550502
  0
LINE
  5
2CB
100
AcDbEntity
  8
0
100
AcDbLine
 62
7
  6
CONTINUOUS
 10
116.5188200753
 20
132.0035507992
 11
116.1438198964
 21
131.6205720879
  0
LINE
  5
2CC
100
AcDbEntity
  8
0
100
AcDbLine
 62
7
  6
CONTINUOUS
 10
119.4688199858
 20
134.2056783974
 11
119.2813198964
 21
134.0141890586
  0
LINE
  5
2CD
100
AcDbEntity
  8
0
100
AcDbLine
 62
7
  6
CONTINUOUS
 10
127.5391626983
 20
138.8818661835
 11
127.2734772734
 21
138.6161807586
  0
LINE
  5
2CE
100
AcDbEntity
  8
0
100
AcDbLine
 62
7
  6
CONTINUOUS
 10
114.0813199858
 20
135.16312536
 11
113.8000699858
 21
134.9716360211
  0
LINE
  5
2CF
100
AcDbEntity
  8
0
100
AcDbLine
 62
7
  6
CONTINUOUS
 10
115.9563200753
 20
132.1950402051
 11
115.6750700753
 21
132.0035507992
  0
LINE
  5
2D0
100
AcDbEntity
  8
0
100
AcDbLine
 62
7
  6
CONTINUOUS
 10
113.9875700082
 20
135.7375933766
 11
113.6125699635
 21
135.5461040378
  0
LINE
  5
2D1
100
AcDbEntity
  8
0
100
AcDbLine
 62
7
  6
CONTINUOUS
 10
117.6398093423
 20
65.899023471
 11
116.8898093423
 21
65.899023471
  0
LINE
  5
2D2
100
AcDbEntity
  8
0
100
AcDbLine
 62
7
  6
CONTINUOUS
 10
115.8398093423
 20
65.899023471
 11
115.0898093423
 21
65.899023471
  0
LINE
  5
2D3
100
AcDbEntity
  8
0
100
AcDbLine
 62
7
  6
CONTINUOUS
 10
112.0934221252
 20
65.899023471
 11
111.251677447
 21
65.899023471
  0
LINE
  5
2D4
100
AcDbEntity
  8
0
100
AcDbLine
 62
7
  6
CONTINUOUS
 10
119.7398093423
 20
68.499023471
 11
119.2898093423
 21
68.499023471
  0
LINE
  5
2D5
100
AcDbEntity
  8
0
100
AcDbLine
 62
7
  6
CONTINUOUS
 10
88.4057646359
 20
68.499023471
 11
90.0568753358
 21
68.499023471
  0
LINE
  5
2D6
100
AcDbEntity
  8
0
100
AcDbLine
 62
7
  6
CONTINUOUS
 10
120.4898093423
 20
69.269023471
 11
119.7398093423
 21
69.269023471
  0
LINE
  5
2D7
100
AcDbEntity
  8
0
100
AcDbLine
 62
7
  6
CONTINUOUS
 10
117.6398093423
 20
69.719023471
 11
116.8898093423
 21
69.719023471
  0
LINE
  5
2D8
100
AcDbEntity
  8
0
100
AcDbLine
 62
7
  6
CONTINUOUS
 10
115.8398093423
 20
69.719023471
 11
115.0898093423
 21
69.719023471
  0
LINE
  5
2D9
100
AcDbEntity
  8
0
100
AcDbLine
 62
7
  6
CONTINUOUS
 10
114.0398093423
 20
69.719023471
 11
113.1980646641
 21
69.719023471
  0
LINE
  5
2DA
100
AcDbEntity
  8
0
100
AcDbLine
 62
7
  6
CONTINUOUS
 10
110.1980646641
 20
69.719023471
 11
109.3563199858
 21
69.719023471
  0
LINE
  5
2DB
100
AcDbEntity
  8
0
100
AcDbLine
 62
7
  6
CONTINUOUS
 10
115.8398093423
 20
70.469023471
 11
115.0898093423
 21
70.469023471
  0
LINE
  5
2DC
100
AcDbEntity
  8
0
100
AcDbLine
 62
7
  6
CONTINUOUS
 10
115.8398093423
 20
71.219023471
 11
115.0898093423
 21
71.219023471
  0
LINE
  5
2DD
100
AcDbEntity
  8
0
100
AcDbLine
 62
7
  6
CONTINUOUS
 10
118.4250703077
 20
100.0992954686
 11
117.9188198249
 21
100.8652528912
  0
LINE
  5
2DE
100
AcDbEntity
  8
0
100
AcDbLine
 62
7
  6
CONTINUOUS
 10
115.2188199858
 20
106.2269553185
 11
114.8813198249
 21
106.8014233351
  0
LINE
  5
2DF
100
AcDbEntity
  8
0
100
AcDbLine
 62
7
  6
CONTINUOUS
 10
145.5469378244
 20
49.8071455486
 11
146.2981026826
 21
48.5066182356
  0
LINE
  5
2E0
100
AcDbEntity
  8
0
100
AcDbLine
 62
7
  6
CONTINUOUS
 10
147.5469384238
 20
49.8071455423
 11
148.2981032816
 21
48.5066182297
  0
LINE
  5
2E1
100
AcDbEntity
  8
0
100
AcDbLine
 62
7
  6
CONTINUOUS
 10
149.5469376344
 20
49.8071455422
 11
150.2981024922
 21
48.5066182296
  0
LINE
  5
2E2
100
AcDbEntity
  8
0
100
AcDbLine
 62
7
  6
CONTINUOUS
 10
151.5469382191
 20
49.8071455487
 11
152.209561404
 21
48.6599182269
  0
LINE
  5
2E3
100
AcDbEntity
  8
0
100
AcDbLine
 62
7
  6
CONTINUOUS
 10
116.7813201647
 20
113.3333380461
 11
114.4375699858
 21
117.6950402498
  0
LINE
  5
2E4
100
AcDbEntity
  8
0
100
AcDbLine
 62
7
  6
CONTINUOUS
 10
117.9188198249
 20
100.8652528912
 11
117.5813201468
 21
101.6312103808
  0
LINE
  5
2E5
100
AcDbEntity
  8
0
100
AcDbLine
 62
7
  6
CONTINUOUS
 10
118.9313203077
 20
100.8652528912
 11
118.593819664
 21
101.6312103808
  0
LINE
  5
2E6
100
AcDbEntity
  8
0
100
AcDbLine
 62
7
  6
CONTINUOUS
 10
123.656319664
 20
102.5886570752
 11
123.3188199858
 21
103.5461040378
  0
LINE
  5
2E7
100
AcDbEntity
  8
0
100
AcDbLine
 62
7
  6
CONTINUOUS
 10
112.5625698964
 20
117.1631254196
 11
112.4688199858
 21
117.4822743178
  0
LINE
  5
2E8
100
AcDbEntity
  8
0
100
AcDbLine
 62
7
  6
CONTINUOUS
 10
113.1250698964
 20
117.1631254196
 11
113.0313199858
 21
117.4822743178
  0
LINE
  5
2E9
100
AcDbEntity
  8
0
100
AcDbLine
 62
7
  6
CONTINUOUS
 10
122.8125699858
 20
102.3971677363
 11
122.643819664
 21
102.9716360211
  0
LINE
  5
2EA
100
AcDbEntity
  8
0
100
AcDbLine
 62
7
  6
CONTINUOUS
 10
113.6125699635
 20
132.4822742134
 11
113.5188199858
 21
132.8652528912
  0
LINE
  5
2EB
100
AcDbEntity
  8
0
100
AcDbLine
 62
7
  6
CONTINUOUS
 10
116.2313199858
 20
106.2269553185
 11
116.0625701468
 21
106.992912674
  0
LINE
  5
2EC
100
AcDbEntity
  8
0
100
AcDbLine
 62
7
  6
CONTINUOUS
 10
113.0500699886
 20
132.386529544
 11
112.9563199858
 21
132.8652528912
  0
LINE
  5
2ED
100
AcDbEntity
  8
0
100
AcDbLine
 62
7
  6
CONTINUOUS
 10
116.6125699858
 20
134.6844017446
 11
116.5188200753
 21
135.16312536
  0
LINE
  5
2EE
100
AcDbEntity
  8
0
100
AcDbLine
 62
7
  6
CONTINUOUS
 10
120.3438199858
 20
114.7163167536
 11
120.2500703435
 21
115.4609976649
  0
LINE
  5
2EF
100
AcDbEntity
  8
0
100
AcDbLine
 62
7
  6
CONTINUOUS
 10
122.6563199858
 20
160.4526133095
 11
122.6563199858
 21
159.799023471
  0
LINE
  5
2F0
100
AcDbEntity
  8
0
100
AcDbLine
 62
7
  6
CONTINUOUS
 10
122.8125699858
 20
102.3971677363
 11
122.8125699858
 21
102.0141890586
  0
LINE
  5
2F1
100
AcDbEntity
  8
0
100
AcDbLine
 62
7
  6
CONTINUOUS
 10
123.1563199858
 20
115.1418486178
 11
123.1563199858
 21
114.8226997197
  0
LINE
  5
2F2
100
AcDbEntity
  8
0
100
AcDbLine
 62
7
  6
CONTINUOUS
 10
123.3188199858
 20
108.3333380461
 11
123.3188199858
 21
107.3758913517
  0
LINE
  5
2F3
100
AcDbEntity
  8
0
100
AcDbLine
 62
7
  6
CONTINUOUS
 10
123.3663704922
 20
46.499023471
 11
123.3663704922
 21
88.7452848068
  0
LINE
  5
2F4
100
AcDbEntity
  8
0
100
AcDbLine
 62
7
  6
CONTINUOUS
 10
123.6250703435
 20
115.2482317329
 11
123.6250703435
 21
114.7163167536
  0
LINE
  5
2F5
100
AcDbEntity
  8
0
100
AcDbLine
 62
7
  6
CONTINUOUS
 10
123.656319664
 20
102.5886570752
 11
123.656319664
 21
101.8226997197
  0
LINE
  5
2F6
100
AcDbEntity
  8
0
100
AcDbLine
 62
7
  6
CONTINUOUS
 10
123.861345239
 20
88.9611996724
 11
123.861345239
 21
46.2939982179
  0
LINE
  5
2F7
100
AcDbEntity
  8
0
100
AcDbLine
 62
7
  6
CONTINUOUS
 10
124.4512947327
 20
45.7040487242
 11
124.4512947327
 21
89.788046725
  0
LINE
  5
2F8
100
AcDbEntity
  8
0
100
AcDbLine
 62
7
  6
CONTINUOUS
 10
124.9462694795
 20
90.3450427035
 11
124.9462694795
 21
45.499023471
  0
LINE
  5
2F9
100
AcDbEntity
  8
0
100
AcDbLine
 62
7
  6
CONTINUOUS
 10
127.1563199858
 20
138.3333380461
 11
127.1563199858
 21
92.099023471
  0
LINE
  5
2FA
100
AcDbEntity
  8
0
100
AcDbLine
 62
7
  6
CONTINUOUS
 10
127.6563199858
 20
145.8333380461
 11
127.6563199858
 21
139.164708896
  0
LINE
  5
2FB
100
AcDbEntity
  8
0
100
AcDbLine
 62
7
  6
CONTINUOUS
 10
127.9563199858
 20
146.299023471
 11
127.9563199858
 21
147.9182215358
  0
LINE
  5
2FC
100
AcDbEntity
  8
0
100
AcDbLine
 62
7
  6
CONTINUOUS
 10
129.0808935053
 20
156.599023471
 11
129.0808935053
 21
151.007961887
  0
LINE
  5
2FD
100
AcDbEntity
  8
0
100
AcDbLine
 62
7
  6
CONTINUOUS
 10
123.1563199858
 20
114.8226997197
 11
123.0625703435
 21
114.5035508216
  0
LINE
  5
2FE
100
AcDbEntity
  8
0
100
AcDbLine
 62
7
  6
CONTINUOUS
 10
122.8125699858
 20
102.0141890586
 11
122.643819664
 21
101.4397210419
  0
LINE
  5
2FF
100
AcDbEntity
  8
0
100
AcDbLine
 62
7
  6
CONTINUOUS
 10
123.6250703435
 20
114.7163167536
 11
123.4375699858
 21
114.1844018489
  0
LINE
  5
300
100
AcDbEntity
  8
0
100
AcDbLine
 62
7
  6
CONTINUOUS
 10
84.9145367461
 20
48.506618235
 11
85.6657016045
 21
49.8071455482
  0
LINE
  5
301
100
AcDbEntity
  8
0
100
AcDbLine
 62
7
  6
CONTINUOUS
 10
86.9145375815
 20
48.5066182319
 11
87.6657024396
 21
49.8071455448
  0
LINE
  5
302
100
AcDbEntity
  8
0
100
AcDbLine
 62
7
  6
CONTINUOUS
 10
121.0938203435
 20
117.4822743178
 11
120.9063199858
 21
117.1631254196
  0
LINE
  5
303
100
AcDbEntity
  8
0
100
AcDbLine
 62
7
  6
CONTINUOUS
 10
116.0625701468
 20
105.0780187488
 11
115.7250699858
 21
104.5035507321
  0
LINE
  5
304
100
AcDbEntity
  8
0
100
AcDbLine
 62
7
  6
CONTINUOUS
 10
123.0625703435
 20
114.5035508216
 11
122.8750699858
 21
114.1844018489
  0
LINE
  5
305
100
AcDbEntity
  8
0
100
AcDbLine
 62
7
  6
CONTINUOUS
 10
120.8125703435
 20
117.9078061819
 11
120.5313203435
 21
117.4822743178
  0
LINE
  5
306
100
AcDbEntity
  8
0
100
AcDbLine
 62
7
  6
CONTINUOUS
 10
123.4375699858
 20
114.1844018489
 11
123.1563199858
 21
113.7588699475
  0
LINE
  5
307
100
AcDbEntity
  8
0
100
AcDbLine
 62
7
  6
CONTINUOUS
 10
118.9375699858
 20
118.3333380461
 11
118.3750699858
 21
117.5886572838
  0
LINE
  5
308
100
AcDbEntity
  8
0
100
AcDbLine
 62
7
  6
CONTINUOUS
 10
118.9375699858
 20
117.4822743178
 11
118.3750699858
 21
116.7375932574
  0
LINE
  5
309
100
AcDbEntity
  8
0
100
AcDbLine
 62
7
  6
CONTINUOUS
 10
112.4688199858
 20
116.5248273254
 11
112.2813198964
 21
116.3120613933
  0
LINE
  5
30A
100
AcDbEntity
  8
0
100
AcDbLine
 62
7
  6
CONTINUOUS
 10
111.1688199858
 20
107.7588700295
 11
110.4938199959
 21
106.992912674
  0
LINE
  5
30B
100
AcDbEntity
  8
0
100
AcDbLine
 62
7
  6
CONTINUOUS
 10
83.6563199858
 20
87.299023471
 11
84.2536917133
 21
87.8963951984
  0
LINE
  5
30C
100
AcDbEntity
  8
0
100
AcDbLine
 62
7
  6
CONTINUOUS
 10
112.7500699858
 20
115.9929124951
 11
112.3750700753
 21
115.673763597
  0
LINE
  5
30D
100
AcDbEntity
  8
0
100
AcDbLine
 62
7
  6
CONTINUOUS
 10
119.7500699858
 20
133.7269550502
 11
119.3750700753
 21
133.5354657114
  0
LINE
  5
30E
100
AcDbEntity
  8
0
100
AcDbLine
 62
7
  6
CONTINUOUS
 10
116.1438198964
 20
131.6205720879
 11
115.7688199858
 21
131.4290827239
  0
LINE
  5
30F
100
AcDbEntity
  8
0
100
AcDbLine
 62
7
  6
CONTINUOUS
 10
119.2813198964
 20
134.0141890586
 11
119.0000698964
 21
133.9184443891
  0
LINE
  5
310
100
AcDbEntity
  8
0
100
AcDbLine
 62
7
  6
CONTINUOUS
 10
121.8063199858
 20
72.269023471
 11
108.3063199858
 21
72.269023471
  0
LINE
  5
311
100
AcDbEntity
  8
0
100
AcDbLine
 62
7
  6
CONTINUOUS
 10
122.5563199858
 20
73.019023471
 11
107.5563199858
 21
73.019023471
  0
LINE
  5
312
100
AcDbEntity
  8
0
100
AcDbLine
 62
7
  6
CONTINUOUS
 10
132.7935866471
 20
76.3690811561
 11
138.0441846271
 21
76.3690811561
  0
LINE
  5
313
100
AcDbEntity
  8
0
100
AcDbLine
 62
7
  6
CONTINUOUS
 10
132.7935866471
 20
77.7832947185
 11
138.0441846271
 21
77.7832947185
  0
LINE
  5
314
100
AcDbEntity
  8
0
100
AcDbLine
 62
7
  6
CONTINUOUS
 10
119.2688199858
 20
99.5248274017
 11
118.4250703077
 21
100.0992954686
  0
LINE
  5
315
100
AcDbEntity
  8
0
100
AcDbLine
 62
7
  6
CONTINUOUS
 10
119.4375703077
 20
100.4822742134
 11
118.9313203077
 21
100.8652528912
  0
LINE
  5
316
100
AcDbEntity
  8
0
100
AcDbLine
 62
7
  6
CONTINUOUS
 10
114.8813198249
 20
106.8014233351
 11
114.3750698249
 21
107.1844020128
  0
LINE
  5
317
100
AcDbEntity
  8
0
100
AcDbLine
 62
7
  6
CONTINUOUS
 10
130.6563199858
 20
91.299023471
 11
130.4563199858
 21
91.499023471
  0
LINE
  5
318
100
AcDbEntity
  8
0
100
AcDbLine
 62
7
  6
CONTINUOUS
 10
116.0625701468
 20
106.992912674
 11
115.3875698249
 21
107.7588700295
  0
LINE
  5
319
100
AcDbEntity
  8
0
100
AcDbLine
 62
7
  6
CONTINUOUS
 10
112.4688199858
 20
117.4822743178
 11
112.2813198964
 21
117.6950402498
  0
LINE
  5
31A
100
AcDbEntity
  8
0
100
AcDbLine
 62
7
  6
CONTINUOUS
 10
113.0313199858
 20
117.4822743178
 11
112.7500699858
 21
117.9078061819
  0
LINE
  5
31B
100
AcDbEntity
  8
0
100
AcDbLine
 62
7
  6
CONTINUOUS
 10
123.3188199858
 20
103.5461040378
 11
122.8125699858
 21
104.3120613933
  0
LINE
  5
31C
100
AcDbEntity
  8
0
100
AcDbLine
 62
7
  6
CONTINUOUS
 10
120.8125703435
 20
113.7588699475
 11
120.5313203435
 21
114.1844018489
  0
LINE
  5
31D
100
AcDbEntity
  8
0
100
AcDbLine
 62
7
  6
CONTINUOUS
 10
122.643819664
 20
102.9716360211
 11
122.3063199858
 21
103.5461040378
  0
LINE
  5
31E
100
AcDbEntity
  8
0
100
AcDbLine
 62
7
  6
CONTINUOUS
 10
121.0938203435
 20
114.1844018489
 11
120.9063199858
 21
114.5035508216
  0
LINE
  5
31F
100
AcDbEntity
  8
0
100
AcDbLine
 62
7
  6
CONTINUOUS
 10
114.7188199858
 20
118.3333380461
 11
117.0625701647
 21
114.0780188829
  0
LINE
  5
320
100
AcDbEntity
  8
0
100
AcDbLine
 62
7
  6
CONTINUOUS
 10
113.2375699858
 20
132.0035507992
 11
113.0500699886
 21
132.386529544
  0
LINE
  5
321
100
AcDbEntity
  8
0
100
AcDbLine
 62
7
  6
CONTINUOUS
 10
107.8059038844
 20
151.9486073691
 11
107.8088690202
 21
151.9421547798
  0
LINE
  5
322
100
AcDbEntity
  8
0
100
AcDbLine
 62
7
  6
CONTINUOUS
 10
119.5625698964
 20
131.3333380461
 11
118.8125699411
 21
133.3439763725
  0
LINE
  5
323
100
AcDbEntity
  8
0
100
AcDbLine
 62
7
  6
CONTINUOUS
 10
120.5313203435
 20
114.1844018489
 11
120.3438199858
 21
114.7163167536
  0
LINE
  5
324
100
AcDbEntity
  8
0
100
AcDbLine
 62
7
  6
CONTINUOUS
 10
123.6250703435
 20
115.2482317329
 11
123.4375699858
 21
115.7801465631
  0
LINE
  5
325
100
AcDbEntity
  8
0
100
AcDbLine
 62
7
  6
CONTINUOUS
 10
116.0500699858
 20
134.6844017446
 11
115.9563200753
 21
134.9716360211
  0
LINE
  5
326
100
AcDbEntity
  8
0
100
AcDbLine
 62
7
  6
CONTINUOUS
 10
119.5625698964
 20
134.7801466823
 11
119.4688199858
 21
135.0673806906
  0
LINE
  5
327
100
AcDbEntity
  8
0
100
AcDbLine
 62
7
  6
CONTINUOUS
 10
120.1250698964
 20
134.7801466823
 11
120.0313199858
 21
135.0673806906
  0
LINE
  5
328
100
AcDbEntity
  8
0
100
AcDbLine
 62
7
  6
CONTINUOUS
 10
120.9063199858
 20
114.5035508216
 11
120.8125703435
 21
114.8226997197
  0
LINE
  5
329
100
AcDbEntity
  8
0
100
AcDbLine
 62
7
  6
CONTINUOUS
 10
123.1563199858
 20
115.1418486178
 11
123.0625703435
 21
115.4609976649
  0
LINE
  5
32A
100
AcDbEntity
  8
0
100
AcDbLine
 62
7
  6
CONTINUOUS
 10
123.4375699858
 20
117.1631254196
 11
123.3438203435
 21
117.4822743178
  0
LINE
  5
32B
100
AcDbEntity
  8
0
100
AcDbLine
 62
7
  6
CONTINUOUS
 10
133.1782417671
 20
89.5511848659
 11
132.8549188242
 21
90.7578425161
  0
LINE
  5
32C
100
AcDbEntity
  8
0
100
AcDbLine
 62
7
  6
CONTINUOUS
 10
111.8022180196
 20
159.799023471
 11
111.8530384275
 21
159.599023471
  0
LINE
  5
32D
100
AcDbEntity
  8
0
100
AcDbLine
 62
7
  6
CONTINUOUS
 10
130.4563199858
 20
45.499023471
 11
130.4563199858
 21
91.499023471
  0
LINE
  5
32E
100
AcDbEntity
  8
0
100
AcDbLine
 62
7
  6
CONTINUOUS
 10
130.6295250666
 20
159.5821547354
 11
130.6295250666
 21
155.2627921327
  0
LINE
  5
32F
100
AcDbEntity
  8
0
100
AcDbLine
 62
7
  6
CONTINUOUS
 10
130.6563199858
 20
159.591114785
 11
130.6563199858
 21
155.3364105683
  0
LINE
  5
330
100
AcDbEntity
  8
0
100
AcDbLine
 62
7
  6
CONTINUOUS
 10
130.6563199858
 20
45.499023471
 11
130.6563199858
 21
91.499023471
  0
LINE
  5
331
100
AcDbEntity
  8
0
100
AcDbLine
 62
7
  6
CONTINUOUS
 10
131.8889929979
 20
91.499023471
 11
131.8889929979
 21
45.499023471
  0
LINE
  5
332
100
AcDbEntity
  8
0
100
AcDbLine
 62
7
  6
CONTINUOUS
 10
132.8549188242
 20
90.7578425161
 11
132.8549188242
 21
89.499023471
  0
LINE
  5
333
100
AcDbEntity
  8
0
100
AcDbLine
 62
7
  6
CONTINUOUS
 10
132.8549188242
 20
88.5662647875
 11
132.8549188242
 21
78.1302669644
  0
LINE
  5
334
100
AcDbEntity
  8
0
100
AcDbLine
 62
7
  6
CONTINUOUS
 10
132.8549188242
 20
75.8783883002
 11
132.8549188242
 21
61.1196586418
  0
LINE
  5
335
100
AcDbEntity
  8
0
100
AcDbLine
 62
7
  6
CONTINUOUS
 10
132.8549188242
 20
58.8677799777
 11
132.8549188242
 21
48.4317821545
  0
LINE
  5
336
100
AcDbEntity
  8
0
100
AcDbLine
 62
7
  6
CONTINUOUS
 10
132.8549188242
 20
47.499023471
 11
132.8549188242
 21
46.2402044259
  0
LINE
  5
337
100
AcDbEntity
  8
0
100
AcDbLine
 62
7
  6
CONTINUOUS
 10
123.656319664
 20
101.8226997197
 11
123.3188199858
 21
100.8652528912
  0
LINE
  5
338
100
AcDbEntity
  8
0
100
AcDbLine
 62
7
  6
CONTINUOUS
 10
88.9145367059
 20
48.5066182216
 11
89.6657015632
 21
49.8071455338
  0
LINE
  5
339
100
AcDbEntity
  8
0
100
AcDbLine
 62
7
  6
CONTINUOUS
 10
90.9145369699
 20
48.5066182365
 11
91.6657018284
 21
49.8071455497
  0
LINE
  5
33A
100
AcDbEntity
  8
0
100
AcDbLine
 62
7
  6
CONTINUOUS
 10
92.9145376009
 20
48.5066182274
 11
93.6657024587
 21
49.80714554
  0
LINE
  5
33B
100
AcDbEntity
  8
0
100
AcDbLine
 62
7
  6
CONTINUOUS
 10
122.643819664
 20
101.4397210419
 11
122.3063199858
 21
100.8652528912
  0
LINE
  5
33C
100
AcDbEntity
  8
0
100
AcDbLine
 62
7
  6
CONTINUOUS
 10
121.0938203435
 20
115.673763597
 11
120.9063199858
 21
115.4609976649
  0
LINE
  5
33D
100
AcDbEntity
  8
0
100
AcDbLine
 62
7
  6
CONTINUOUS
 10
114.8813198249
 20
105.0780187488
 11
110.1563199858
 21
100.2907848746
  0
LINE
  5
33E
100
AcDbEntity
  8
0
100
AcDbLine
 62
7
  6
CONTINUOUS
 10
115.7250699858
 20
104.5035507321
 11
111.5063200261
 21
100.2907848746
  0
LINE
  5
33F
100
AcDbEntity
  8
0
100
AcDbLine
 62
7
  6
CONTINUOUS
 10
93.5568760397
 20
88.499023471
 11
93.5481032256
 21
88.491428707
  0
LINE
  5
340
100
AcDbEntity
  8
0
100
AcDbLine
 62
7
  6
CONTINUOUS
 10
121.3750703435
 20
117.6950402498
 11
121.0938203435
 21
117.4822743178
  0
LINE
  5
341
100
AcDbEntity
  8
0
100
AcDbLine
 62
7
  6
CONTINUOUS
 10
121.2813196282
 20
116.4184443593
 11
120.7188196282
 21
115.9929124951
  0
LINE
  5
342
100
AcDbEntity
  8
0
100
AcDbLine
 62
7
  6
CONTINUOUS
 10
121.3750703435
 20
115.8865295291
 11
121.0938203435
 21
115.673763597
  0
LINE
  5
343
100
AcDbEntity
  8
0
100
AcDbLine
 62
7
  6
CONTINUOUS
 10
121.2813196282
 20
118.22695508
 11
120.8125703435
 21
117.9078061819
  0
LINE
  5
344
100
AcDbEntity
  8
0
100
AcDbLine
 62
7
  6
CONTINUOUS
 10
144.3939544481
 20
87.2285521542
 11
144.3880184654
 21
87.2307219506
  0
LINE
  5
345
100
AcDbEntity
  8
0
100
AcDbLine
 62
7
  6
CONTINUOUS
 10
115.3875698249
 20
107.7588700295
 11
114.7125699858
 21
108.1418487072
  0
LINE
  5
346
100
AcDbEntity
  8
0
100
AcDbLine
 62
7
  6
CONTINUOUS
 10
122.8125699858
 20
104.3120613933
 11
121.9688203077
 21
104.8865294099
  0
LINE
  5
347
100
AcDbEntity
  8
0
100
AcDbLine
 62
7
  6
CONTINUOUS
 10
122.3063199858
 20
103.5461040378
 11
121.8000699858
 21
103.9290827155
  0
LINE
  5
348
100
AcDbEntity
  8
0
100
AcDbLine
 62
7
  6
CONTINUOUS
 10
112.7500699858
 20
117.9078061819
 11
112.3750700753
 21
118.22695508
  0
LINE
  5
349
100
AcDbEntity
  8
0
100
AcDbLine
 62
7
  6
CONTINUOUS
 10
147.6645370711
 20
88.4914287242
 11
147.6557646359
 21
88.499023471
  0
LINE
  5
34A
100
AcDbEntity
  8
0
100
AcDbLine
 62
7
  6
CONTINUOUS
 10
149.6645368944
 20
88.4914287063
 11
149.6557644385
 21
88.499023471
  0
LINE
  5
34B
100
AcDbEntity
  8
0
100
AcDbLine
 62
7
  6
CONTINUOUS
 10
123.0625703435
 20
115.4609976649
 11
122.8750699858
 21
115.673763597
  0
LINE
  5
34C
100
AcDbEntity
  8
0
100
AcDbLine
 62
7
  6
CONTINUOUS
 10
123.1563199858
 20
116.0992954612
 11
123.4375699858
 21
115.7801465631
  0
LINE
  5
34D
100
AcDbEntity
  8
0
100
AcDbLine
 62
7
  6
CONTINUOUS
 10
123.3438203435
 20
117.4822743178
 11
123.0625703435
 21
117.9078061819
  0
LINE
  5
34E
100
AcDbEntity
  8
0
100
AcDbLine
 62
7
  6
CONTINUOUS
 10
113.8000699858
 20
132.1950402051
 11
113.6125699635
 21
132.4822742134
  0
LINE
  5
34F
100
AcDbEntity
  8
0
100
AcDbLine
 62
7
  6
CONTINUOUS
 10
122.9688196282
 20
117.1631254196
 11
122.7813203435
 21
117.4822743178
  0
LINE
  5
350
100
AcDbEntity
  8
0
100
AcDbLine
 62
7
  6
CONTINUOUS
 10
146.4157021473
 20
87.1909013935
 11
145.710103056
 21
88.4125365715
  0
LINE
  5
351
100
AcDbEntity
  8
0
100
AcDbLine
 62
7
  6
CONTINUOUS
 10
138.8676448513
 20
89.499023471
 11
139.1563199858
 21
88.999023471
  0
LINE
  5
352
100
AcDbEntity
  8
0
100
AcDbLine
 62
7
  6
CONTINUOUS
 10
110.9499808881
 20
159.799023471
 11
111.0293899764
 21
159.599023471
  0
LINE
  5
353
100
AcDbEntity
  8
0
100
AcDbLine
 62
7
  6
CONTINUOUS
 10
120.2188200753
 20
131.3333380461
 11
119.3750700753
 21
133.5354657114
  0
LINE
  5
354
100
AcDbEntity
  8
0
100
AcDbLine
 62
7
  6
CONTINUOUS
 10
139.1563199858
 20
88.999023471
 11
139.1563199858
 21
47.999023471
  0
LINE
  5
355
100
AcDbEntity
  8
0
100
AcDbLine
 62
7
  6
CONTINUOUS
 10
139.7563199858
 20
50.499023471
 11
139.7563199858
 21
86.499023471
  0
LINE
  5
356
100
AcDbEntity
  8
0
100
AcDbLine
 62
7
  6
CONTINUOUS
 10
143.4077918484
 20
50.499023471
 11
143.4077918484
 21
86.499023471
  0
LINE
  5
357
100
AcDbEntity
  8
0
100
AcDbLine
 62
7
  6
CONTINUOUS
 10
110.9404944537
 20
66.6099060179
 11
111.3613667928
 21
67.4359144922
  0
LINE
  5
358
100
AcDbEntity
  8
0
100
AcDbLine
 62
7
  6
CONTINUOUS
 10
111.251677447
 20
65.899023471
 11
113.1980646641
 21
69.719023471
  0
LINE
  5
359
100
AcDbEntity
  8
0
100
AcDbLine
 62
7
  6
CONTINUOUS
 10
112.0934221252
 20
65.899023471
 11
114.0398093423
 21
69.719023471
  0
LINE
  5
35A
100
AcDbEntity
  8
0
100
AcDbLine
 62
7
  6
CONTINUOUS
 10
123.3188199858
 20
100.8652528912
 11
122.8125699858
 21
100.0992954686
  0
LINE
  5
35B
100
AcDbEntity
  8
0
100
AcDbLine
 62
7
  6
CONTINUOUS
 10
104.9240869388
 20
89.766790424
 11
103.3885530329
 21
88.2312565181
  0
LINE
  5
35C
100
AcDbEntity
  8
0
100
AcDbLine
 62
7
  6
CONTINUOUS
 10
119.4375703077
 20
103.9290827155
 11
118.7625699858
 21
103.3546146989
  0
LINE
  5
35D
100
AcDbEntity
  8
0
100
AcDbLine
 62
7
  6
CONTINUOUS
 10
112.0125700261
 20
107.1844020128
 11
111.5063200261
 21
106.8014233351
  0
LINE
  5
35E
100
AcDbEntity
  8
0
100
AcDbLine
 62
7
  6
CONTINUOUS
 10
122.8750699858
 20
114.1844018489
 11
122.5938199858
 21
113.9716359168
  0
LINE
  5
35F
100
AcDbEntity
  8
0
100
AcDbLine
 62
7
  6
CONTINUOUS
 10
123.1563199858
 20
113.7588699475
 11
122.6875696282
 21
113.4397210214
  0
LINE
  5
360
100
AcDbEntity
  8
0
100
AcDbLine
 62
7
  6
CONTINUOUS
 10
111.8438199456
 20
108.1418487072
 11
111.1688199858
 21
107.7588700295
  0
LINE
  5
361
100
AcDbEntity
  8
0
100
AcDbLine
 62
7
  6
CONTINUOUS
 10
112.2813198964
 20
116.3120613933
 11
112.0000698964
 21
116.2056784272
  0
LINE
  5
362
100
AcDbEntity
  8
0
100
AcDbLine
 62
7
  6
CONTINUOUS
 10
143.4077918484
 20
86.499023471
 11
139.7563199858
 21
86.499023471
  0
LINE
  5
363
100
AcDbEntity
  8
0
100
AcDbLine
 62
7
  6
CONTINUOUS
 10
98.0349996423
 20
86.599023471
 11
96.2776403294
 21
86.599023471
  0
LINE
  5
364
100
AcDbEntity
  8
0
100
AcDbLine
 62
7
  6
CONTINUOUS
 10
152.5563203806
 20
87.199023471
 11
152.4157023372
 21
87.199023471
  0
LINE
  5
365
100
AcDbEntity
  8
0
100
AcDbLine
 62
7
  6
CONTINUOUS
 10
150.5563197885
 20
87.199023471
 11
150.4157017526
 21
87.199023471
  0
LINE
  5
366
100
AcDbEntity
  8
0
100
AcDbLine
 62
7
  6
CONTINUOUS
 10
148.5563199858
 20
87.199023471
 11
148.4157019278
 21
87.199023471
  0
LINE
  5
367
100
AcDbEntity
  8
0
100
AcDbLine
 62
7
  6
CONTINUOUS
 10
146.5563201832
 20
87.199023471
 11
146.4157021473
 21
87.199023471
  0
LINE
  5
368
100
AcDbEntity
  8
0
100
AcDbLine
 62
7
  6
CONTINUOUS
 10
144.5563195911
 20
87.199023471
 11
144.4157015478
 21
87.199023471
  0
LINE
  5
369
100
AcDbEntity
  8
0
100
AcDbLine
 62
7
  6
CONTINUOUS
 10
92.8063203313
 20
87.199023471
 11
92.6563203313
 21
87.199023471
  0
LINE
  5
36A
100
AcDbEntity
  8
0
100
AcDbLine
 62
7
  6
CONTINUOUS
 10
90.8063194924
 20
87.199023471
 11
90.6563194924
 21
87.199023471
  0
LINE
  5
36B
100
AcDbEntity
  8
0
100
AcDbLine
 62
7
  6
CONTINUOUS
 10
88.806320356
 20
87.199023471
 11
88.656320356
 21
87.199023471
  0
LINE
  5
36C
100
AcDbEntity
  8
0
100
AcDbLine
 62
7
  6
CONTINUOUS
 10
86.8063201092
 20
87.199023471
 11
86.6563201092
 21
87.199023471
  0
LINE
  5
36D
100
AcDbEntity
  8
0
100
AcDbLine
 62
7
  6
CONTINUOUS
 10
84.8063194677
 20
87.199023471
 11
84.6563194677
 21
87.199023471
  0
LINE
  5
36E
100
AcDbEntity
  8
0
100
AcDbLine
 62
7
  6
CONTINUOUS
 10
101.6207860799
 20
87.499023471
 11
100.1776403294
 21
87.499023471
  0
LINE
  5
36F
100
AcDbEntity
  8
0
100
AcDbLine
 62
7
  6
CONTINUOUS
 10
85.5568748176
 20
88.499023471
 11
85.9057647593
 21
88.499023471
  0
LINE
  5
370
100
AcDbEntity
  8
0
100
AcDbLine
 62
7
  6
CONTINUOUS
 10
87.5568754592
 20
88.499023471
 11
87.905765006
 21
88.499023471
  0
LINE
  5
371
100
AcDbEntity
  8
0
100
AcDbLine
 62
7
  6
CONTINUOUS
 10
89.5568757059
 20
88.499023471
 11
89.9057641424
 21
88.499023471
  0
LINE
  5
372
100
AcDbEntity
  8
0
100
AcDbLine
 62
7
  6
CONTINUOUS
 10
91.5568748423
 20
88.499023471
 11
91.9057649813
 21
88.499023471
  0
LINE
  5
373
100
AcDbEntity
  8
0
100
AcDbLine
 62
7
  6
CONTINUOUS
 10
93.5568756812
 20
88.499023471
 11
93.7563199858
 21
88.499023471
  0
LINE
  5
374
100
AcDbEntity
  8
0
100
AcDbLine
 62
7
  6
CONTINUOUS
 10
147.3068755332
 20
88.499023471
 11
147.6557646359
 21
88.499023471
  0
LINE
  5
375
100
AcDbEntity
  8
0
100
AcDbLine
 62
7
  6
CONTINUOUS
 10
149.3068753358
 20
88.499023471
 11
149.6557644385
 21
88.499023471
  0
LINE
  5
376
100
AcDbEntity
  8
0
100
AcDbLine
 62
7
  6
CONTINUOUS
 10
151.3068751384
 20
88.499023471
 11
151.6557650306
 21
88.499023471
  0
LINE
  5
377
100
AcDbEntity
  8
0
100
AcDbLine
 62
7
  6
CONTINUOUS
 10
132.7935866471
 20
88.9132370334
 11
138.0441846271
 21
88.9132370334
  0
LINE
  5
378
100
AcDbEntity
  8
0
100
AcDbLine
 62
7
  6
CONTINUOUS
 10
132.7935866471
 20
89.499023471
 11
138.8676448513
 21
89.499023471
  0
LINE
  5
379
100
AcDbEntity
  8
0
100
AcDbLine
 62
7
  6
CONTINUOUS
 10
131.8889929979
 20
91.499023471
 11
130.6563199858
 21
91.499023471
  0
LINE
  5
37A
100
AcDbEntity
  8
0
100
AcDbLine
 62
7
  6
CONTINUOUS
 10
130.4563199858
 20
91.499023471
 11
127.7563199858
 21
91.499023471
  0
LINE
  5
37B
100
AcDbEntity
  8
0
100
AcDbLine
 62
7
  6
CONTINUOUS
 10
120.112569664
 20
99.3333380461
 11
119.2688199858
 21
99.5248274017
  0
LINE
  5
37C
100
AcDbEntity
  8
0
100
AcDbLine
 62
7
  6
CONTINUOUS
 10
120.112569664
 20
100.2907848746
 11
119.4375703077
 21
100.4822742134
  0
LINE
  5
37D
100
AcDbEntity
  8
0
100
AcDbLine
 62
7
  6
CONTINUOUS
 10
121.2813196282
 20
113.4397210214
 11
120.8125703435
 21
113.7588699475
  0
LINE
  5
37E
100
AcDbEntity
  8
0
100
AcDbLine
 62
7
  6
CONTINUOUS
 10
123.1563199858
 20
116.0992954612
 11
122.6875696282
 21
116.4184443593
  0
LINE
  5
37F
100
AcDbEntity
  8
0
100
AcDbLine
 62
7
  6
CONTINUOUS
 10
121.3750703435
 20
113.9716359168
 11
121.0938203435
 21
114.1844018489
  0
LINE
  5
380
100
AcDbEntity
  8
0
100
AcDbLine
 62
7
  6
CONTINUOUS
 10
122.8750699858
 20
115.673763597
 11
122.5938199858
 21
115.8865295291
  0
LINE
  5
381
100
AcDbEntity
  8
0
100
AcDbLine
 62
7
  6
CONTINUOUS
 10
122.7813203435
 20
117.4822743178
 11
122.5000703435
 21
117.6950402498
  0
LINE
  5
382
100
AcDbEntity
  8
0
100
AcDbLine
 62
7
  6
CONTINUOUS
 10
151.6557651171
 20
88.499023471
 11
151.6645374795
 21
88.4914287124
  0
LINE
  5
383
100
AcDbEntity
  8
0
100
AcDbLine
 62
7
  6
CONTINUOUS
 10
152.8491405592
 20
87.7062028977
 11
153.5563199858
 21
86.999023471
  0
LINE
  5
384
100
AcDbEntity
  8
0
100
AcDbLine
 62
7
  6
CONTINUOUS
 10
105.7734772734
 20
138.8818661835
 11
106.0391626983
 21
138.6161807586
  0
LINE
  5
385
100
AcDbEntity
  8
0
100
AcDbLine
 62
7
  6
CONTINUOUS
 10
113.6125699635
 20
131.6205720879
 11
113.2375699858
 21
132.0035507992
  0
LINE
  5
386
100
AcDbEntity
  8
0
100
AcDbLine
 62
7
  6
CONTINUOUS
 10
120.0313199858
 20
135.0673806906
 11
119.7500699858
 21
135.4503593683
  0
LINE
  5
387
100
AcDbEntity
  8
0
100
AcDbLine
 62
7
  6
CONTINUOUS
 10
148.4157019278
 20
87.1909014125
 11
147.6645370711
 21
88.4914287242
  0
LINE
  5
388
100
AcDbEntity
  8
0
100
AcDbLine
 62
7
  6
CONTINUOUS
 10
150.4157017526
 20
87.1909013934
 11
149.6645368944
 21
88.4914287063
  0
LINE
  5
389
100
AcDbEntity
  8
0
100
AcDbLine
 62
7
  6
CONTINUOUS
 10
152.4157023372
 20
87.1909014
 11
151.6645374795
 21
88.4914287124
  0
LINE
  5
38A
100
AcDbEntity
  8
0
100
AcDbLine
 62
7
  6
CONTINUOUS
 10
110.6563199858
 20
159.799023471
 11
110.7565446398
 21
159.599023471
  0
LINE
  5
38B
100
AcDbEntity
  8
0
100
AcDbLine
 62
7
  6
CONTINUOUS
 10
143.8320559171
 20
50.3232875397
 11
143.8320559171
 21
86.6747594023
  0
LINE
  5
38C
100
AcDbEntity
  8
0
100
AcDbLine
 62
7
  6
CONTINUOUS
 10
145.6563199858
 20
88.4989930535
 11
145.6563199858
 21
77.6098892552
  0
LINE
  5
38D
100
AcDbEntity
  8
0
100
AcDbLine
 62
7
  6
CONTINUOUS
 10
122.3063199858
 20
100.8652528912
 11
121.8000699858
 21
100.4822742134
  0
LINE
  5
38E
100
AcDbEntity
  8
0
100
AcDbLine
 62
7
  6
CONTINUOUS
 10
119.2688199858
 20
104.8865294099
 11
118.4250703077
 21
104.3120613933
  0
LINE
  5
38F
100
AcDbEntity
  8
0
100
AcDbLine
 62
7
  6
CONTINUOUS
 10
121.6563203435
 20
117.8014232159
 11
121.3750703435
 21
117.6950402498
  0
LINE
  5
390
100
AcDbEntity
  8
0
100
AcDbLine
 62
7
  6
CONTINUOUS
 10
121.6563203435
 20
115.9929124951
 11
121.3750703435
 21
115.8865295291
  0
LINE
  5
391
100
AcDbEntity
  8
0
100
AcDbLine
 62
7
  6
CONTINUOUS
 10
122.5938199858
 20
113.9716359168
 11
122.3125699858
 21
113.8652529508
  0
LINE
  5
392
100
AcDbEntity
  8
0
100
AcDbLine
 62
7
  6
CONTINUOUS
 10
121.125069664
 20
99.3333380461
 11
120.112569664
 21
99.3333380461
  0
LINE
  5
393
100
AcDbEntity
  8
0
100
AcDbLine
 62
7
  6
CONTINUOUS
 10
116.2313199858
 20
99.3333380461
 11
110.1563199858
 21
99.3333380461
  0
LINE
  5
394
100
AcDbEntity
  8
0
100
AcDbLine
 62
7
  6
CONTINUOUS
 10
114.7125699858
 20
108.1418487072
 11
113.7000699858
 21
108.3333380461
  0
LINE
  5
395
100
AcDbEntity
  8
0
100
AcDbLine
 62
7
  6
CONTINUOUS
 10
121.9688203077
 20
104.8865294099
 11
121.125069664
 21
105.0780187488
  0
LINE
  5
396
100
AcDbEntity
  8
0
100
AcDbLine
 62
7
  6
CONTINUOUS
 10
114.3750698249
 20
107.1844020128
 11
113.5313199054
 21
107.3758913517
  0
LINE
  5
397
100
AcDbEntity
  8
0
100
AcDbLine
 62
7
  6
CONTINUOUS
 10
121.8000699858
 20
103.9290827155
 11
121.125069664
 21
104.1205720544
  0
LINE
  5
398
100
AcDbEntity
  8
0
100
AcDbLine
 62
7
  6
CONTINUOUS
 10
121.6563203435
 20
113.8652529508
 11
121.3750703435
 21
113.9716359168
  0
LINE
  5
399
100
AcDbEntity
  8
0
100
AcDbLine
 62
7
  6
CONTINUOUS
 10
112.2813198964
 20
117.6950402498
 11
112.0000698964
 21
117.8014232159
  0
LINE
  5
39A
100
AcDbEntity
  8
0
100
AcDbLine
 62
7
  6
CONTINUOUS
 10
123.0625703435
 20
117.9078061819
 11
122.5938199858
 21
118.22695508
  0
LINE
  5
39B
100
AcDbEntity
  8
0
100
AcDbLine
 62
7
  6
CONTINUOUS
 10
105.3563199858
 20
146.299023471
 11
105.5391626983
 21
146.1161807586
  0
LINE
  5
39C
100
AcDbEntity
  8
0
100
AcDbLine
 62
7
  6
CONTINUOUS
 10
116.5188200753
 20
135.16312536
 11
116.1438198964
 21
135.5461040378
  0
LINE
  5
39D
100
AcDbEntity
  8
0
100
AcDbLine
 62
7
  6
CONTINUOUS
 10
119.4688199858
 20
135.0673806906
 11
119.2813198964
 21
135.2588700295
  0
LINE
  5
39E
100
AcDbEntity
  8
0
100
AcDbLine
 62
7
  6
CONTINUOUS
 10
107.6655884238
 20
150.6798193398
 11
107.6563199858
 21
150.6894773183
  0
LINE
  5
39F
100
AcDbEntity
  8
0
100
AcDbLine
 62
7
  6
CONTINUOUS
 10
152.0563199858
 20
54.3815874262
 11
152.0563199858
 21
74.6461878441
  0
LINE
  5
3A0
100
AcDbEntity
  8
0
100
AcDbLine
 62
7
  6
CONTINUOUS
 10
153.3563199858
 20
53.370410693
 11
153.3563199858
 21
50.0292518686
  0
LINE
  5
3A1
100
AcDbEntity
  8
0
100
AcDbLine
 62
7
  6
CONTINUOUS
 10
153.5563199858
 20
49.999023471
 11
153.5563199858
 21
86.999023471
  0
LINE
  5
3A2
100
AcDbEntity
  8
0
100
AcDbLine
 62
7
  6
CONTINUOUS
 10
154.1563199858
 20
175.399023471
 11
154.1563199858
 21
175.599023471
  0
LINE
  5
3A3
100
AcDbEntity
  8
0
100
AcDbLine
 62
7
  6
CONTINUOUS
 10
154.1563199858
 20
175.935698513
 11
154.1563199858
 21
178.2623484291
  0
LINE
  5
3A4
100
AcDbEntity
  8
0
100
AcDbLine
 62
7
  6
CONTINUOUS
 10
154.1563199858
 20
178.599023471
 11
154.1563199858
 21
178.799023471
  0
LINE
  5
3A5
100
AcDbEntity
  8
0
100
AcDbLine
 62
7
  6
CONTINUOUS
 10
155.4563199858
 20
174.099023471
 11
155.4563199858
 21
180.099023471
  0
LINE
  5
3A6
100
AcDbEntity
  8
0
100
AcDbLine
 62
7
  6
CONTINUOUS
 10
133.1782417671
 20
47.4468620762
 11
132.8549188242
 21
46.2402044259
  0
LINE
  5
3A7
100
AcDbEntity
  8
0
100
AcDbLine
 62
7
  6
CONTINUOUS
 10
122.8125699858
 20
100.0992954686
 11
121.9688203077
 21
99.5248274017
  0
LINE
  5
3A8
100
AcDbEntity
  8
0
100
AcDbLine
 62
7
  6
CONTINUOUS
 10
121.125069664
 20
100.2907848746
 11
120.112569664
 21
100.2907848746
  0
LINE
  5
3A9
100
AcDbEntity
  8
0
100
AcDbLine
 62
7
  6
CONTINUOUS
 10
116.2313199858
 20
100.2907848746
 11
111.5063200261
 21
100.2907848746
  0
LINE
  5
3AA
100
AcDbEntity
  8
0
100
AcDbLine
 62
7
  6
CONTINUOUS
 10
118.593819664
 20
101.6312103808
 11
117.5813201468
 21
101.6312103808
  0
LINE
  5
3AB
100
AcDbEntity
  8
0
100
AcDbLine
 62
7
  6
CONTINUOUS
 10
118.7625699858
 20
103.3546146989
 11
117.5813201468
 21
103.3546146989
  0
LINE
  5
3AC
100
AcDbEntity
  8
0
100
AcDbLine
 62
7
  6
CONTINUOUS
 10
121.125069664
 20
104.1205720544
 11
120.112569664
 21
104.1205720544
  0
LINE
  5
3AD
100
AcDbEntity
  8
0
100
AcDbLine
 62
7
  6
CONTINUOUS
 10
121.125069664
 20
105.0780187488
 11
120.112569664
 21
105.0780187488
  0
LINE
  5
3AE
100
AcDbEntity
  8
0
100
AcDbLine
 62
7
  6
CONTINUOUS
 10
111.1688199858
 20
106.2269553185
 11
110.3250699909
 21
106.2269553185
  0
LINE
  5
3AF
100
AcDbEntity
  8
0
100
AcDbLine
 62
7
  6
CONTINUOUS
 10
121.7500699858
 20
113.3333380461
 11
121.2813196282
 21
113.4397210214
  0
LINE
  5
3B0
100
AcDbEntity
  8
0
100
AcDbLine
 62
7
  6
CONTINUOUS
 10
112.3750700753
 20
118.22695508
 11
111.9063199858
 21
118.3333380461
  0
LINE
  5
3B1
100
AcDbEntity
  8
0
100
AcDbLine
 62
7
  6
CONTINUOUS
 10
122.5938199858
 20
115.8865295291
 11
122.3125699858
 21
115.9929124951
  0
LINE
  5
3B2
100
AcDbEntity
  8
0
100
AcDbLine
 62
7
  6
CONTINUOUS
 10
122.5000703435
 20
117.6950402498
 11
122.2188203435
 21
117.8014232159
  0
LINE
  5
3B3
100
AcDbEntity
  8
0
100
AcDbLine
 62
7
  6
CONTINUOUS
 10
101.9063199858
 20
141.3546859037
 11
105.7474969514
 21
139.1369813487
  0
LINE
  5
3B4
100
AcDbEntity
  8
0
100
AcDbLine
 62
7
  6
CONTINUOUS
 10
114.0813199858
 20
132.0035507992
 11
113.8000699858
 21
132.1950402051
  0
LINE
  5
3B5
100
AcDbEntity
  8
0
100
AcDbLine
 62
7
  6
CONTINUOUS
 10
115.9563200753
 20
134.9716360211
 11
115.6750700753
 21
135.16312536
  0
LINE
  5
3B6
100
AcDbEntity
  8
0
100
AcDbLine
 62
7
  6
CONTINUOUS
 10
119.7500699858
 20
135.4503593683
 11
119.3750700753
 21
135.7375933766
  0
LINE
  5
3B7
100
AcDbEntity
  8
0
100
AcDbLine
 62
7
  6
CONTINUOUS
 10
119.1563199858
 20
148.599023471
 11
111.6961992967
 21
156.599023471
  0
LINE
  5
3B8
100
AcDbEntity
  8
GEOM
100
AcDbLine
 62
7
  6
CONTINUOUS
 10
159.5786351393
 20
180.099023471
 11
159.5786351393
 21
180.199023471
  0
LINE
  5
3B9
100
AcDbEntity
  8
GEOM
100
AcDbLine
 62
7
  6
CONTINUOUS
 10
161.0786351393
 20
180.099023471
 11
161.0786351393
 21
180.199023471
  0
LINE
  5
3BA
100
AcDbEntity
  8
GEOM
100
AcDbLine
 62
7
  6
CONTINUOUS
 10
162.2124775626
 20
180.099023471
 11
162.2124775626
 21
180.199023471
  0
LINE
  5
3BB
100
AcDbEntity
  8
0
100
AcDbLine
 62
7
  6
CONTINUOUS
 10
149.3068753358
 20
88.499023471
 11
148.5563199858
 21
87.199023471
  0
LINE
  5
3BC
100
AcDbEntity
  8
0
100
AcDbLine
 62
7
  6
CONTINUOUS
 10
144.8078492438
 20
87.6426219069
 11
144.5516289447
 21
87.199023471
  0
LINE
  5
3BD
100
AcDbEntity
  8
0
100
AcDbLine
 62
7
  6
CONTINUOUS
 10
147.2981030774
 20
88.4914287064
 11
146.5516295331
 21
87.199023471
  0
LINE
  5
3BE
100
AcDbEntity
  8
0
100
AcDbLine
 62
7
  6
CONTINUOUS
 10
149.2981029007
 20
88.4914287243
 11
148.5516293468
 21
87.199023471
  0
LINE
  5
3BF
100
AcDbEntity
  8
0
100
AcDbLine
 62
7
  6
CONTINUOUS
 10
144.8295419737
 20
87.6722454535
 11
144.8078492438
 21
87.6426219069
  0
LINE
  5
3C0
100
AcDbEntity
  8
0
100
AcDbLine
 62
7
  6
CONTINUOUS
 10
95.2169801576
 20
49.9596836428
 11
94.2638520691
 21
49.0065555543
  0
LINE
  5
3C1
100
AcDbEntity
  8
0
100
AcDbLine
 62
7
  6
CONTINUOUS
 10
121.8000699858
 20
100.4822742134
 11
121.125069664
 21
100.2907848746
  0
LINE
  5
3C2
100
AcDbEntity
  8
0
100
AcDbLine
 62
7
  6
CONTINUOUS
 10
121.9688203077
 20
99.5248274017
 11
121.125069664
 21
99.3333380461
  0
LINE
  5
3C3
100
AcDbEntity
  8
0
100
AcDbLine
 62
7
  6
CONTINUOUS
 10
123.3188199858
 20
107.3758913517
 11
118.4250703077
 21
107.3758913517
  0
LINE
  5
3C4
100
AcDbEntity
  8
0
100
AcDbLine
 62
7
  6
CONTINUOUS
 10
113.5313199054
 20
107.3758913517
 11
112.8563200663
 21
107.3758913517
  0
LINE
  5
3C5
100
AcDbEntity
  8
0
100
AcDbLine
 62
7
  6
CONTINUOUS
 10
123.3188199858
 20
108.3333380461
 11
117.5813201468
 21
108.3333380461
  0
LINE
  5
3C6
100
AcDbEntity
  8
0
100
AcDbLine
 62
7
  6
CONTINUOUS
 10
113.7000699858
 20
108.3333380461
 11
113.0250699054
 21
108.3333380461
  0
LINE
  5
3C7
100
AcDbEntity
  8
0
100
AcDbLine
 62
7
  6
CONTINUOUS
 10
122.2188203435
 20
113.3333380461
 11
121.7500699858
 21
113.3333380461
  0
LINE
  5
3C8
100
AcDbEntity
  8
0
100
AcDbLine
 62
7
  6
CONTINUOUS
 10
119.5000699858
 20
113.3333380461
 11
118.9375699858
 21
113.3333380461
  0
LINE
  5
3C9
100
AcDbEntity
  8
0
100
AcDbLine
 62
7
  6
CONTINUOUS
 10
117.6250701647
 20
113.3333380461
 11
116.7813201647
 21
113.3333380461
  0
LINE
  5
3CA
100
AcDbEntity
  8
0
100
AcDbLine
 62
7
  6
CONTINUOUS
 10
114.4375699858
 20
113.3333380461
 11
113.8750699858
 21
113.3333380461
  0
LINE
  5
3CB
100
AcDbEntity
  8
0
100
AcDbLine
 62
7
  6
CONTINUOUS
 10
110.2188199858
 20
113.3333380461
 11
109.6563199858
 21
113.3333380461
  0
LINE
  5
3CC
100
AcDbEntity
  8
0
100
AcDbLine
 62
7
  6
CONTINUOUS
 10
122.2188203435
 20
116.5248273254
 11
122.6875696282
 21
116.4184443593
  0
LINE
  5
3CD
100
AcDbEntity
  8
0
100
AcDbLine
 62
7
  6
CONTINUOUS
 10
122.5938199858
 20
118.22695508
 11
122.1250696282
 21
118.3333380461
  0
LINE
  5
3CE
100
AcDbEntity
  8
0
100
AcDbLine
 62
7
  6
CONTINUOUS
 10
113.9875700082
 20
131.4290827239
 11
113.6125699635
 21
131.6205720879
  0
LINE
  5
3CF
100
AcDbEntity
  8
0
100
AcDbLine
 62
7
  6
CONTINUOUS
 10
116.1438198964
 20
135.5461040378
 11
115.7688199858
 21
135.7375933766
  0
LINE
  5
3D0
100
AcDbEntity
  8
0
100
AcDbLine
 62
7
  6
CONTINUOUS
 10
102.1563199858
 20
141.7876986056
 11
105.7087175086
 21
139.7367209396
  0
LINE
  5
3D1
100
AcDbEntity
  8
GEOM
100
AcDbLine
 62
7
  6
CONTINUOUS
 10
166.3924775626
 20
180.099023471
 11
166.3924775626
 21
180.199023471
  0
LINE
  5
3D2
100
AcDbEntity
  8
GEOM
100
AcDbLine
 62
7
  6
CONTINUOUS
 10
167.5263199858
 20
180.099023471
 11
167.5263199858
 21
180.199023471
  0
LINE
  5
3D3
100
AcDbEntity
  8
GEOM
100
AcDbLine
 62
7
  6
CONTINUOUS
 10
169.0263199858
 20
180.099023471
 11
169.0263199858
 21
180.199023471
  0
LINE
  5
3D4
100
AcDbEntity
  8
GEOM
100
AcDbLine
 62
7
  6
CONTINUOUS
 10
169.4351414401
 20
180.099023471
 11
169.4351414401
 21
180.199023471
  0
LINE
  5
3D5
100
AcDbEntity
  8
GEOM
100
AcDbLine
 62
7
  6
CONTINUOUS
 10
170.0163199858
 20
180.099023471
 11
170.0163199858
 21
180.199023471
  0
LINE
  5
3D6
100
AcDbEntity
  8
GEOM
100
AcDbLine
 62
7
  6
CONTINUOUS
 10
170.1857622307
 20
180.199023471
 11
170.1857622307
 21
180.099023471
  0
LINE
  5
3D7
100
AcDbEntity
  8
GEOM
100
AcDbLine
 62
7
  6
CONTINUOUS
 10
171.2063199858
 20
180.099023471
 11
171.2063199858
 21
180.199023471
  0
LINE
  5
3D8
100
AcDbEntity
  8
0
100
AcDbLine
 62
7
  6
CONTINUOUS
 10
151.2981026826
 20
88.4914287064
 11
150.5516291383
 21
87.199023471
  0
LINE
  5
3D9
100
AcDbEntity
  8
0
100
AcDbLine
 62
7
  6
CONTINUOUS
 10
152.8433513519
 20
87.7040866122
 11
152.5516297342
 21
87.199023471
  0
LINE
  5
3DA
100
AcDbEntity
  8
0
100
AcDbLine
 62
7
  6
CONTINUOUS
 10
145.6559680332
 20
88.4986715184
 11
144.8295241329
 21
87.672227618
  0
LINE
  5
3DB
100
AcDbEntity
  8
0
100
AcDbLine
 62
7
  6
CONTINUOUS
 10
144.3880184654
 20
87.2307219506
 11
143.8320559171
 21
86.6747594023
  0
LINE
  5
3DC
100
AcDbEntity
  8
0
100
AcDbLine
 62
7
  6
CONTINUOUS
 10
120.112569664
 20
104.1205720544
 11
119.4375703077
 21
103.9290827155
  0
LINE
  5
3DD
100
AcDbEntity
  8
0
100
AcDbLine
 62
7
  6
CONTINUOUS
 10
120.112569664
 20
105.0780187488
 11
119.2688199858
 21
104.8865294099
  0
LINE
  5
3DE
100
AcDbEntity
  8
0
100
AcDbLine
 62
7
  6
CONTINUOUS
 10
112.8563200663
 20
107.3758913517
 11
112.0125700261
 21
107.1844020128
  0
LINE
  5
3DF
100
AcDbEntity
  8
0
100
AcDbLine
 62
7
  6
CONTINUOUS
 10
113.0250699054
 20
108.3333380461
 11
111.8438199456
 21
108.1418487072
  0
LINE
  5
3E0
100
AcDbEntity
  8
0
100
AcDbLine
 62
7
  6
CONTINUOUS
 10
122.3125699858
 20
113.8652529508
 11
121.6563203435
 21
113.8652529508
  0
LINE
  5
3E1
100
AcDbEntity
  8
0
100
AcDbLine
 62
7
  6
CONTINUOUS
 10
111.9063199858
 20
115.567380631
 11
110.2188199858
 21
115.567380631
  0
LINE
  5
3E2
100
AcDbEntity
  8
0
100
AcDbLine
 62
7
  6
CONTINUOUS
 10
122.3125699858
 20
115.9929124951
 11
121.6563203435
 21
115.9929124951
  0
LINE
  5
3E3
100
AcDbEntity
  8
0
100
AcDbLine
 62
7
  6
CONTINUOUS
 10
112.0000698964
 20
116.2056784272
 11
110.2188199858
 21
116.2056784272
  0
LINE
  5
3E4
100
AcDbEntity
  8
0
100
AcDbLine
 62
7
  6
CONTINUOUS
 10
122.2188203435
 20
116.5248273254
 11
121.7500699858
 21
116.5248273254
  0
LINE
  5
3E5
100
AcDbEntity
  8
0
100
AcDbLine
 62
7
  6
CONTINUOUS
 10
123.4375699858
 20
117.1631254196
 11
122.9688196282
 21
117.1631254196
  0
LINE
  5
3E6
100
AcDbEntity
  8
0
100
AcDbLine
 62
7
  6
CONTINUOUS
 10
122.2188203435
 20
117.8014232159
 11
121.6563203435
 21
117.8014232159
  0
LINE
  5
3E7
100
AcDbEntity
  8
0
100
AcDbLine
 62
7
  6
CONTINUOUS
 10
112.0000698964
 20
117.8014232159
 11
110.2188199858
 21
117.8014232159
  0
LINE
  5
3E8
100
AcDbEntity
  8
0
100
AcDbLine
 62
7
  6
CONTINUOUS
 10
122.1250696282
 20
118.3333380461
 11
121.7500699858
 21
118.3333380461
  0
LINE
  5
3E9
100
AcDbEntity
  8
0
100
AcDbLine
 62
7
  6
CONTINUOUS
 10
119.5000699858
 20
118.3333380461
 11
118.9375699858
 21
118.3333380461
  0
LINE
  5
3EA
100
AcDbEntity
  8
0
100
AcDbLine
 62
7
  6
CONTINUOUS
 10
117.6250701647
 20
118.3333380461
 11
117.0625701647
 21
118.3333380461
  0
LINE
  5
3EB
100
AcDbEntity
  8
0
100
AcDbLine
 62
7
  6
CONTINUOUS
 10
114.7188199858
 20
118.3333380461
 11
113.8750699858
 21
118.3333380461
  0
LINE
  5
3EC
100
AcDbEntity
  8
0
100
AcDbLine
 62
7
  6
CONTINUOUS
 10
111.9063199858
 20
118.3333380461
 11
109.6563199858
 21
118.3333380461
  0
LINE
  5
3ED
100
AcDbEntity
  8
0
100
AcDbLine
 62
7
  6
CONTINUOUS
 10
114.4563200305
 20
131.9078061298
 11
114.0813199858
 21
132.0035507992
  0
LINE
  5
3EE
100
AcDbEntity
  8
0
100
AcDbLine
 62
7
  6
CONTINUOUS
 10
119.2813198964
 20
135.2588700295
 11
119.0000698964
 21
135.3546146989
  0
LINE
  5
3EF
100
AcDbEntity
  8
0
100
AcDbLine
 62
7
  6
CONTINUOUS
 10
107.6655884238
 20
150.6798193398
 11
108.4541484729
 21
150.2688571737
  0
LINE
  5
3F0
100
AcDbEntity
  8
0
100
AcDbLine
 62
7
  6
CONTINUOUS
 10
122.3626590836
 20
159.799023471
 11
122.5542982032
 21
159.599023471
  0
LINE
  5
3F1
100
AcDbEntity
  8
GEOM
100
AcDbLine
 62
7
  6
CONTINUOUS
 10
171.8263199858
 20
180.099023471
 11
171.8263199858
 21
180.199023471
  0
LINE
  5
3F2
100
AcDbEntity
  8
GEOM
100
AcDbLine
 62
7
  6
CONTINUOUS
 10
172.5463199858
 20
180.099023471
 11
172.5463199858
 21
180.199023471
  0
LINE
  5
3F3
100
AcDbEntity
  8
GEOM
100
AcDbLine
 62
7
  6
CONTINUOUS
 10
173.3463199858
 20
180.099023471
 11
173.3463199858
 21
180.199023471
  0
LINE
  5
3F4
100
AcDbEntity
  8
GEOM
100
AcDbLine
 62
7
  6
CONTINUOUS
 10
173.9363199858
 20
180.099023471
 11
173.9363199858
 21
180.199023471
  0
LINE
  5
3F5
100
AcDbEntity
  8
GEOM
100
AcDbLine
 62
7
  6
CONTINUOUS
 10
174.7363199858
 20
180.099023471
 11
174.7363199858
 21
180.199023471
  0
LINE
  5
3F6
100
AcDbEntity
  8
GEOM
100
AcDbLine
 62
7
  6
CONTINUOUS
 10
175.8263199858
 20
180.099023471
 11
175.8263199858
 21
180.199023471
  0
LINE
  5
3F7
100
AcDbEntity
  8
GEOM
100
AcDbLine
 62
7
  6
CONTINUOUS
 10
175.8763199858
 20
180.099023471
 11
175.8763199858
 21
180.199023471
  0
LINE
  5
3F8
100
AcDbEntity
  8
GEOM
100
AcDbLine
 62
7
  6
CONTINUOUS
 10
175.9953359371
 20
180.099023471
 11
175.9953359371
 21
180.199023471
  0
LINE
  5
3F9
100
AcDbEntity
  8
GEOM
100
AcDbLine
 62
7
  6
CONTINUOUS
 10
176.7863199858
 20
180.099023471
 11
176.7863199858
 21
180.199023471
  0
LINE
  5
3FA
100
AcDbEntity
  8
0
100
AcDbLine
 62
7
  6
CONTINUOUS
 10
138.8676448513
 20
47.499023471
 11
139.1563199858
 21
47.999023471
  0
LINE
  5
3FB
100
AcDbEntity
  8
0
100
AcDbLine
 62
7
  6
CONTINUOUS
 10
122.6875696282
 20
113.4397210214
 11
122.2188203435
 21
113.3333380461
  0
LINE
  5
3FC
100
AcDbEntity
  8
0
100
AcDbLine
 62
7
  6
CONTINUOUS
 10
121.7500699858
 20
116.5248273254
 11
121.2813196282
 21
116.4184443593
  0
LINE
  5
3FD
100
AcDbEntity
  8
0
100
AcDbLine
 62
7
  6
CONTINUOUS
 10
112.3750700753
 20
115.673763597
 11
111.9063199858
 21
115.567380631
  0
LINE
  5
3FE
100
AcDbEntity
  8
0
100
AcDbLine
 62
7
  6
CONTINUOUS
 10
121.7500699858
 20
118.3333380461
 11
121.2813196282
 21
118.22695508
  0
LINE
  5
3FF
100
AcDbEntity
  8
0
100
AcDbLine
 62
7
  6
CONTINUOUS
 10
114.4563200305
 20
131.3333380461
 11
113.9875700082
 21
131.4290827239
  0
LINE
  5
400
100
AcDbEntity
  8
0
100
AcDbLine
 62
7
  6
CONTINUOUS
 10
115.7688199858
 20
135.7375933766
 11
115.3000698964
 21
135.8333380461
  0
LINE
  5
401
100
AcDbEntity
  8
0
100
AcDbLine
 62
7
  6
CONTINUOUS
 10
119.3750700753
 20
135.7375933766
 11
118.9063199858
 21
135.8333380461
  0
LINE
  5
402
100
AcDbEntity
  8
0
100
AcDbLine
 62
7
  6
CONTINUOUS
 10
115.6750700753
 20
135.16312536
 11
115.3000698964
 21
135.2588700295
  0
LINE
  5
403
100
AcDbEntity
  8
0
100
AcDbLine
 62
7
  6
CONTINUOUS
 10
107.8312056665
 20
151.9305146492
 11
108.4541484736
 21
151.6058579054
  0
LINE
  5
404
100
AcDbEntity
  8
0
100
AcDbLine
 62
7
  6
CONTINUOUS
 10
107.8088690202
 20
151.9421547798
 11
107.8312056665
 21
151.9305146492
  0
LINE
  5
405
100
AcDbEntity
  8
0
100
AcDbLine
 62
7
  6
CONTINUOUS
 10
110.6563199858
 20
159.799023471
 11
110.9992835501
 21
159.599023471
  0
LINE
  5
406
100
AcDbEntity
  8
GEOM
100
AcDbLine
 62
7
  6
CONTINUOUS
 10
181.5863199858
 20
180.099023471
 11
181.5863199858
 21
180.199023471
  0
LINE
  5
407
100
AcDbEntity
  8
GEOM
100
AcDbLine
 62
7
  6
CONTINUOUS
 10
181.7363199858
 20
180.099023471
 11
181.7363199858
 21
180.199023471
  0
LINE
  5
408
100
AcDbEntity
  8
GEOM
100
AcDbLine
 62
7
  6
CONTINUOUS
 10
181.8863199858
 20
180.099023471
 11
181.8863199858
 21
180.199023471
  0
LINE
  5
409
100
AcDbEntity
  8
GEOM
100
AcDbLine
 62
7
  6
CONTINUOUS
 10
183.1763199858
 20
180.099023471
 11
183.1763199858
 21
180.199023471
  0
LINE
  5
40A
100
AcDbEntity
  8
GEOM
100
AcDbLine
 62
7
  6
CONTINUOUS
 10
183.2363199858
 20
180.099023471
 11
183.2363199858
 21
180.199023471
  0
LINE
  5
40B
100
AcDbEntity
  8
GEOM
100
AcDbLine
 62
7
  6
CONTINUOUS
 10
183.2763199858
 20
180.099023471
 11
183.2763199858
 21
180.199023471
  0
LINE
  5
40C
100
AcDbEntity
  8
GEOM
100
AcDbLine
 62
7
  6
CONTINUOUS
 10
183.6463199858
 20
180.099023471
 11
183.6463199858
 21
180.199023471
  0
LINE
  5
40D
100
AcDbEntity
  8
GEOM
100
AcDbLine
 62
7
  6
CONTINUOUS
 10
183.8708973097
 20
180.099023471
 11
183.8708973097
 21
180.199023471
  0
LINE
  5
40E
100
AcDbEntity
  8
GEOM
100
AcDbLine
 62
7
  6
CONTINUOUS
 10
184.7608973097
 20
180.099023471
 11
184.7608973097
 21
180.199023471
  0
LINE
  5
40F
100
AcDbEntity
  8
GEOM
100
AcDbLine
 62
7
  6
CONTINUOUS
 10
184.9959634842
 20
180.099023471
 11
184.9959634842
 21
180.199023471
  0
LINE
  5
410
100
AcDbEntity
  8
0
100
AcDbLine
 62
7
  6
CONTINUOUS
 10
145.027735072
 20
49.1354493007
 11
145.4110104377
 21
49.799023471
  0
LINE
  5
411
100
AcDbEntity
  8
0
100
AcDbLine
 62
7
  6
CONTINUOUS
 10
146.6645374795
 20
48.5066182297
 11
147.4110110261
 21
49.799023471
  0
LINE
  5
412
100
AcDbEntity
  8
0
100
AcDbLine
 62
7
  6
CONTINUOUS
 10
148.6645366901
 20
48.5066182298
 11
149.4110102366
 21
49.799023471
  0
LINE
  5
413
100
AcDbEntity
  8
0
100
AcDbLine
 62
7
  6
CONTINUOUS
 10
150.6645372891
 20
48.5066182357
 11
151.4110108325
 21
49.799023471
  0
LINE
  5
414
100
AcDbEntity
  8
0
100
AcDbLine
 62
7
  6
CONTINUOUS
 10
120.2188200753
 20
131.3333380461
 11
119.5625698964
 21
131.3333380461
  0
LINE
  5
415
100
AcDbEntity
  8
0
100
AcDbLine
 62
7
  6
CONTINUOUS
 10
117.2188199858
 20
131.3333380461
 11
116.6563199858
 21
131.3333380461
  0
LINE
  5
416
100
AcDbEntity
  8
0
100
AcDbLine
 62
7
  6
CONTINUOUS
 10
115.3000698964
 20
131.3333380461
 11
114.4563200305
 21
131.3333380461
  0
LINE
  5
417
100
AcDbEntity
  8
0
100
AcDbLine
 62
7
  6
CONTINUOUS
 10
115.3000698964
 20
131.9078061298
 11
114.4563200305
 21
131.9078061298
  0
LINE
  5
418
100
AcDbEntity
  8
0
100
AcDbLine
 62
7
  6
CONTINUOUS
 10
116.6125699858
 20
132.4822742134
 11
116.0500699858
 21
132.4822742134
  0
LINE
  5
419
100
AcDbEntity
  8
0
100
AcDbLine
 62
7
  6
CONTINUOUS
 10
118.8125699411
 20
133.3439763725
 11
117.2188199858
 21
133.3439763725
  0
LINE
  5
41A
100
AcDbEntity
  8
0
100
AcDbLine
 62
7
  6
CONTINUOUS
 10
119.0000698964
 20
133.9184443891
 11
117.2188199858
 21
133.9184443891
  0
LINE
  5
41B
100
AcDbEntity
  8
0
100
AcDbLine
 62
7
  6
CONTINUOUS
 10
121.2751221394
 20
161.5964584195
 11
122.3563199858
 21
160.9722285518
  0
LINE
  5
41C
100
AcDbEntity
  8
GEOM
100
AcDbLine
 62
7
  6
CONTINUOUS
 10
185.3959634842
 20
180.099023471
 11
185.3959634842
 21
180.199023471
  0
LINE
  5
41D
100
AcDbEntity
  8
GEOM
100
AcDbLine
 62
7
  6
CONTINUOUS
 10
185.6028958715
 20
180.199023471
 11
185.6028958715
 21
180.099023471
  0
LINE
  5
41E
100
AcDbEntity
  8
GEOM
100
AcDbLine
 62
7
  6
CONTINUOUS
 10
186.7163199858
 20
180.099023471
 11
186.7163199858
 21
180.199023471
  0
LINE
  5
41F
100
AcDbEntity
  8
GEOM
100
AcDbLine
 62
7
  6
CONTINUOUS
 10
187.4763199858
 20
180.099023471
 11
187.4763199858
 21
180.199023471
  0
LINE
  5
420
100
AcDbEntity
  8
GEOM
100
AcDbLine
 62
7
  6
CONTINUOUS
 10
187.4832808326
 20
180.199023471
 11
187.4832808326
 21
180.099023471
  0
LINE
  5
421
100
AcDbEntity
  8
GEOM
100
AcDbLine
 62
7
  6
CONTINUOUS
 10
188.0963199858
 20
180.099023471
 11
188.0963199858
 21
180.199023471
  0
LINE
  5
422
100
AcDbEntity
  8
GEOM
100
AcDbLine
 62
7
  6
CONTINUOUS
 10
188.8763199858
 20
180.099023471
 11
188.8763199858
 21
180.199023471
  0
LINE
  5
423
100
AcDbEntity
  8
GEOM
100
AcDbLine
 62
7
  6
CONTINUOUS
 10
189.2863199858
 20
180.099023471
 11
189.2863199858
 21
180.199023471
  0
LINE
  5
424
100
AcDbEntity
  8
GEOM
100
AcDbLine
 62
7
  6
CONTINUOUS
 10
189.803736023
 20
180.099023471
 11
189.803736023
 21
180.199023471
  0
LINE
  5
425
100
AcDbEntity
  8
GEOM
100
AcDbLine
 62
7
  6
CONTINUOUS
 10
190.3263199858
 20
180.099023471
 11
190.3263199858
 21
180.199023471
  0
LINE
  5
426
100
AcDbEntity
  8
GEOM
100
AcDbLine
 62
7
  6
CONTINUOUS
 10
191.6163199858
 20
180.099023471
 11
191.6163199858
 21
180.199023471
  0
LINE
  5
427
100
AcDbEntity
  8
GEOM
100
AcDbLine
 62
7
  6
CONTINUOUS
 10
191.6763199858
 20
180.099023471
 11
191.6763199858
 21
180.199023471
  0
LINE
  5
428
100
AcDbEntity
  8
GEOM
100
AcDbLine
 62
7
  6
CONTINUOUS
 10
192.1363199858
 20
180.099023471
 11
192.1363199858
 21
180.199023471
  0
LINE
  5
429
100
AcDbEntity
  8
0
100
AcDbLine
 62
7
  6
CONTINUOUS
 10
130.6563199858
 20
45.699023471
 11
130.4563199858
 21
45.499023471
  0
LINE
  5
42A
100
AcDbEntity
  8
0
100
AcDbLine
 62
7
  6
CONTINUOUS
 10
115.7688199858
 20
131.4290827239
 11
115.3000698964
 21
131.3333380461
  0
LINE
  5
42B
100
AcDbEntity
  8
0
100
AcDbLine
 62
7
  6
CONTINUOUS
 10
116.6125699858
 20
134.6844017446
 11
116.0500699858
 21
134.6844017446
  0
LINE
  5
42C
100
AcDbEntity
  8
0
100
AcDbLine
 62
7
  6
CONTINUOUS
 10
115.3000698964
 20
135.2588700295
 11
114.4563200305
 21
135.2588700295
  0
LINE
  5
42D
100
AcDbEntity
  8
0
100
AcDbLine
 62
7
  6
CONTINUOUS
 10
119.0000698964
 20
135.3546146989
 11
117.2188199858
 21
135.3546146989
  0
LINE
  5
42E
100
AcDbEntity
  8
0
100
AcDbLine
 62
7
  6
CONTINUOUS
 10
118.9063199858
 20
135.8333380461
 11
116.6563199858
 21
135.8333380461
  0
LINE
  5
42F
100
AcDbEntity
  8
0
100
AcDbLine
 62
7
  6
CONTINUOUS
 10
115.3000698964
 20
135.8333380461
 11
114.4563200305
 21
135.8333380461
  0
LINE
  5
430
100
AcDbEntity
  8
0
100
AcDbLine
 62
7
  6
CONTINUOUS
 10
127.1563199858
 20
138.3333380461
 11
106.1563199858
 21
138.3333380461
  0
LINE
  5
431
100
AcDbEntity
  8
0
100
AcDbLine
 62
7
  6
CONTINUOUS
 10
127.2734772734
 20
138.6161807586
 11
106.0391626983
 21
138.6161807586
  0
LINE
  5
432
100
AcDbEntity
  8
0
100
AcDbLine
 62
7
  6
CONTINUOUS
 10
105.7734772734
 20
138.8818661835
 11
127.5391626983
 21
138.8818661835
  0
LINE
  5
433
100
AcDbEntity
  8
0
100
AcDbLine
 62
7
  6
CONTINUOUS
 10
105.9534951027
 20
139.164708896
 11
127.6563199858
 21
139.164708896
  0
LINE
  5
434
100
AcDbEntity
  8
0
100
AcDbLine
 62
7
  6
CONTINUOUS
 10
105.7087175086
 20
139.7367209396
 11
105.9993618221
 21
139.7367209396
  0
LINE
  5
435
100
AcDbEntity
  8
0
100
AcDbLine
 62
7
  6
CONTINUOUS
 10
101.6563199858
 20
141.599023471
 11
101.6940936398
 21
141.599023471
  0
LINE
  5
436
100
AcDbEntity
  8
0
100
AcDbLine
 62
7
  6
CONTINUOUS
 10
119.1563199858
 20
141.599023471
 11
125.6563199858
 21
141.599023471
  0
LINE
  5
437
100
AcDbEntity
  8
0
100
AcDbLine
 62
7
  6
CONTINUOUS
 10
121.2751221394
 20
164.4417578811
 11
120.6563199858
 21
164.799023471
  0
LINE
  5
438
100
AcDbEntity
  8
GEOM
100
AcDbLine
 62
7
  6
CONTINUOUS
 10
192.5063199858
 20
180.099023471
 11
192.5063199858
 21
180.199023471
  0
LINE
  5
439
100
AcDbEntity
  8
GEOM
100
AcDbLine
 62
7
  6
CONTINUOUS
 10
193.3263199858
 20
180.099023471
 11
193.3263199858
 21
180.199023471
  0
LINE
  5
43A
100
AcDbEntity
  8
0
100
AcDbLine
 62
7
  6
CONTINUOUS
 10
115.6750700753
 20
132.0035507992
 11
115.3000698964
 21
131.9078061298
  0
LINE
  5
43B
100
AcDbEntity
  8
0
100
AcDbLine
 62
7
  6
CONTINUOUS
 10
114.4563200305
 20
135.2588700295
 11
114.0813199858
 21
135.16312536
  0
LINE
  5
43C
100
AcDbEntity
  8
0
100
AcDbLine
 62
7
  6
CONTINUOUS
 10
114.4563200305
 20
135.8333380461
 11
113.9875700082
 21
135.7375933766
  0
LINE
  5
43D
100
AcDbEntity
  8
0
100
AcDbLine
 62
7
  6
CONTINUOUS
 10
102.1563199858
 20
141.7876986056
 11
101.6563199858
 21
141.7876986056
  0
LINE
  5
43E
100
AcDbEntity
  8
0
100
AcDbLine
 62
7
  6
CONTINUOUS
 10
101.6563199858
 20
144.999023471
 11
105.9993618221
 21
144.999023471
  0
LINE
  5
43F
100
AcDbEntity
  8
0
100
AcDbLine
 62
7
  6
CONTINUOUS
 10
105.5347193816
 20
145.499023471
 11
102.1563199858
 21
145.499023471
  0
LINE
  5
440
100
AcDbEntity
  8
0
100
AcDbLine
 62
7
  6
CONTINUOUS
 10
105.6563199858
 20
145.799023471
 11
105.8299831145
 21
145.799023471
  0
LINE
  5
441
100
AcDbEntity
  8
0
100
AcDbLine
 62
7
  6
CONTINUOUS
 10
127.6563199858
 20
145.8333380461
 11
127.1974844537
 21
145.8333380461
  0
LINE
  5
442
100
AcDbEntity
  8
0
100
AcDbLine
 62
7
  6
CONTINUOUS
 10
119.1563199858
 20
145.8333380461
 11
105.6563199858
 21
145.8333380461
  0
LINE
  5
443
100
AcDbEntity
  8
0
100
AcDbLine
 62
7
  6
CONTINUOUS
 10
127.7734772734
 20
146.1161807586
 11
127.300430817
 21
146.1161808546
  0
LINE
  5
444
100
AcDbEntity
  8
0
100
AcDbLine
 62
7
  6
CONTINUOUS
 10
119.1563199858
 20
146.1161807516
 11
105.5391626983
 21
146.1161807586
  0
LINE
  5
445
100
AcDbEntity
  8
0
100
AcDbLine
 62
7
  6
CONTINUOUS
 10
105.3563199858
 20
146.299023471
 11
119.1563199858
 21
146.299023471
  0
LINE
  5
446
100
AcDbEntity
  8
0
100
AcDbLine
 62
7
  6
CONTINUOUS
 10
127.3669800869
 20
146.299023471
 11
127.9563199858
 21
146.299023471
  0
LINE
  5
447
100
AcDbEntity
  8
0
100
AcDbLine
 62
7
  6
CONTINUOUS
 10
110.9499808881
 20
159.799023471
 11
111.793975473
 21
159.599023471
  0
LINE
  5
448
100
AcDbEntity
  8
0
100
AcDbLine
 62
7
  6
CONTINUOUS
 10
121.5104219521
 20
159.799023471
 11
122.2179047833
 21
159.599023471
  0
LINE
  5
449
100
AcDbEntity
  8
0
100
AcDbLine
 62
7
  6
CONTINUOUS
 10
152.2151658378
 20
48.657869323
 11
153.5563199858
 21
49.999023471
  0
LINE
  5
44A
100
AcDbEntity
  8
0
100
AcDbLine
 62
7
  6
CONTINUOUS
 10
150.6557648333
 20
48.499023471
 11
150.6645372891
 21
48.5066182357
  0
LINE
  5
44B
100
AcDbEntity
  8
0
100
AcDbLine
 62
7
  6
CONTINUOUS
 10
101.6563199858
 20
148.599023471
 11
104.6563199858
 21
148.599023471
  0
LINE
  5
44C
100
AcDbEntity
  8
0
100
AcDbLine
 62
7
  6
CONTINUOUS
 10
118.1305533911
 20
149.699023471
 11
105.3563199858
 21
149.699023471
  0
LINE
  5
44D
100
AcDbEntity
  8
0
100
AcDbLine
 62
7
  6
CONTINUOUS
 10
117.8507988653
 20
149.999023471
 11
105.6563199858
 21
149.999023471
  0
LINE
  5
44E
100
AcDbEntity
  8
0
100
AcDbLine
 62
7
  6
CONTINUOUS
 10
108.3563835732
 20
152.499023471
 11
115.5195111499
 21
152.499023471
  0
LINE
  5
44F
100
AcDbEntity
  8
0
100
AcDbLine
 62
7
  6
CONTINUOUS
 10
109.8022180196
 20
155.4216732018
 11
109.6563199858
 21
155.4216732018
  0
LINE
  5
450
100
AcDbEntity
  8
0
100
AcDbLine
 62
7
  6
CONTINUOUS
 10
114.8022180196
 20
159.799023471
 11
116.5018759908
 21
159.599023471
  0
LINE
  5
451
100
AcDbEntity
  8
0
100
AcDbLine
 62
7
  6
CONTINUOUS
 10
116.6563199858
 20
159.799023471
 11
118.3320105196
 21
159.599023471
  0
LINE
  5
452
100
AcDbEntity
  8
0
100
AcDbLine
 62
7
  6
CONTINUOUS
 10
113.1296084721
 20
159.799023471
 11
114.6868595164
 21
159.599023471
  0
LINE
  5
453
100
AcDbEntity
  8
0
100
AcDbLine
 62
7
  6
CONTINUOUS
 10
118.5104219521
 20
159.799023471
 11
119.9981167837
 21
159.599023471
  0
LINE
  5
454
100
AcDbEntity
  8
0
100
AcDbLine
 62
7
  6
CONTINUOUS
 10
111.8022180196
 20
159.799023471
 11
113.0646275547
 21
159.599023471
  0
LINE
  5
455
100
AcDbEntity
  8
0
100
AcDbLine
 62
7
  6
CONTINUOUS
 10
120.1830314996
 20
159.799023471
 11
121.3371046936
 21
159.599023471
  0
LINE
  5
456
100
AcDbEntity
  8
0
100
AcDbLine
 62
7
  6
CONTINUOUS
 10
112.2557083484
 20
155.999023471
 11
109.6563199858
 21
155.999023471
  0
LINE
  5
457
100
AcDbEntity
  8
0
100
AcDbLine
 62
7
  6
CONTINUOUS
 10
102.9488216516
 20
156.599023471
 11
111.6961992967
 21
156.599023471
  0
LINE
  5
458
100
AcDbEntity
  8
0
100
AcDbLine
 62
7
  6
CONTINUOUS
 10
112.9887009625
 20
156.599023471
 11
129.0808935053
 21
156.599023471
  0
LINE
  5
459
100
AcDbEntity
  8
0
100
AcDbLine
 62
7
  6
CONTINUOUS
 10
130.6563199858
 20
156.599023471
 11
132.2563199858
 21
156.599023471
  0
LINE
  5
45A
100
AcDbEntity
  8
0
100
AcDbLine
 62
7
  6
CONTINUOUS
 10
132.2563199858
 20
159.599023471
 11
130.6563199858
 21
159.599023471
  0
LINE
  5
45B
100
AcDbEntity
  8
0
100
AcDbLine
 62
7
  6
CONTINUOUS
 10
104.6563199858
 20
159.599023471
 11
130.6295250666
 21
159.599023471
  0
LINE
  5
45C
100
AcDbEntity
  8
0
100
AcDbLine
 62
7
  6
CONTINUOUS
 10
122.6563199858
 20
159.799023471
 11
110.6563199945
 21
159.799023471
  0
LINE
  5
45D
100
AcDbEntity
  8
0
100
AcDbLine
 62
7
  6
CONTINUOUS
 10
110.6563199858
 20
160.4526133095
 11
122.6563199858
 21
160.4526133095
  0
LINE
  5
45E
100
AcDbEntity
  8
0
100
AcDbLine
 62
7
  6
CONTINUOUS
 10
110.9563199858
 20
160.9722285518
 11
122.3563199858
 21
160.9722285518
  0
LINE
  5
45F
100
AcDbEntity
  8
GEOM
100
AcDbLine
 62
7
  6
CONTINUOUS
 10
214.6077887544
 20
180.099023471
 11
214.6077887544
 21
180.199023471
  0
LINE
  5
460
100
AcDbEntity
  8
GEOM
100
AcDbLine
 62
7
  6
CONTINUOUS
 10
214.8407060009
 20
180.099023471
 11
214.8407060009
 21
180.199023471
  0
LINE
  5
461
100
AcDbEntity
  8
GEOM
100
AcDbLine
 62
7
  6
CONTINUOUS
 10
215.4568554421
 20
180.099023471
 11
215.4568554421
 21
180.199023471
  0
LINE
  5
462
100
AcDbEntity
  8
GEOM
100
AcDbLine
 62
7
  6
CONTINUOUS
 10
216.069058071
 20
180.099023471
 11
216.069058071
 21
180.199023471
  0
LINE
  5
463
100
AcDbEntity
  8
GEOM
100
AcDbLine
 62
7
  6
CONTINUOUS
 10
216.297419267
 20
180.099023471
 11
216.297419267
 21
180.199023471
  0
LINE
  5
464
100
AcDbEntity
  8
GEOM
100
AcDbLine
 62
7
  6
CONTINUOUS
 10
216.5877297595
 20
180.099023471
 11
216.5877297595
 21
180.199023471
  0
LINE
  5
465
100
AcDbEntity
  8
GEOM
100
AcDbLine
 62
7
  6
CONTINUOUS
 10
216.6023060195
 20
180.099023471
 11
216.6023060195
 21
180.199023471
  0
LINE
  5
466
100
AcDbEntity
  8
GEOM
100
AcDbLine
 62
7
  6
CONTINUOUS
 10
216.9667123044
 20
180.099023471
 11
216.9667123044
 21
180.199023471
  0
LINE
  5
467
100
AcDbEntity
  8
GEOM
100
AcDbLine
 62
7
  6
CONTINUOUS
 10
217.7477565968
 20
180.099023471
 11
217.7477565968
 21
180.199023471
  0
LINE
  5
468
100
AcDbEntity
  8
GEOM
100
AcDbLine
 62
7
  6
CONTINUOUS
 10
217.8595078518
 20
180.099023471
 11
217.8595078518
 21
180.199023471
  0
LINE
  5
469
100
AcDbEntity
  8
GEOM
100
AcDbLine
 62
7
  6
CONTINUOUS
 10
218.0283494405
 20
180.099023471
 11
218.0283494405
 21
180.199023471
  0
LINE
  5
46A
100
AcDbEntity
  8
GEOM
100
AcDbLine
 62
7
  6
CONTINUOUS
 10
218.1158067868
 20
180.099023471
 11
218.1158067868
 21
180.199023471
  0
LINE
  5
46B
100
AcDbEntity
  8
GEOM
100
AcDbLine
 62
7
  6
CONTINUOUS
 10
218.4802130717
 20
180.099023471
 11
218.4802130717
 21
180.199023471
  0
LINE
  5
46C
100
AcDbEntity
  8
GEOM
100
AcDbLine
 62
7
  6
CONTINUOUS
 10
219.2612573641
 20
180.099023471
 11
219.2612573641
 21
180.199023471
  0
LINE
  5
46D
100
AcDbEntity
  8
GEOM
100
AcDbLine
 62
7
  6
CONTINUOUS
 10
219.3730086192
 20
180.099023471
 11
219.3730086192
 21
180.199023471
  0
LINE
  5
46E
100
AcDbEntity
  8
0
100
AcDbLine
 62
7
  6
CONTINUOUS
 10
145.0219931867
 20
49.1333502701
 11
145.027735072
 21
49.1354493007
  0
LINE
  5
46F
100
AcDbEntity
  8
0
100
AcDbLine
 62
7
  6
CONTINUOUS
 10
112.6563670617
 20
164.799023471
 11
120.65627291
 21
164.799023471
  0
LINE
  5
470
100
AcDbEntity
  8
GEOM
100
AcDbLine
 62
7
  6
CONTINUOUS
 10
220.9953960391
 20
180.099023471
 11
220.9953960391
 21
180.199023471
  0
LINE
  5
471
100
AcDbEntity
  8
GEOM
100
AcDbLine
 62
7
  6
CONTINUOUS
 10
222.9976352057
 20
180.099023471
 11
222.9976352057
 21
180.199023471
  0
LINE
  5
472
100
AcDbEntity
  8
GEOM
100
AcDbLine
 62
7
  6
CONTINUOUS
 10
225.7045394277
 20
180.099023471
 11
225.7045394277
 21
180.199023471
  0
LINE
  5
473
100
AcDbEntity
  8
0
100
AcDbLine
 62
7
  6
CONTINUOUS
 10
155.4563199858
 20
174.099023471
 11
240.6563199858
 21
174.099023471
  0
LINE
  5
474
100
AcDbEntity
  8
0
100
AcDbLine
 62
7
  6
CONTINUOUS
 10
153.7416013601
 20
175.599023471
 11
154.1740904628
 21
175.599023471
  0
LINE
  5
475
100
AcDbEntity
  8
0
100
AcDbLine
 62
7
  6
CONTINUOUS
 10
232.1563199858
 20
174.099023471
 11
232.1563199858
 21
180.099023471
  0
LINE
  5
476
100
AcDbEntity
  8
0
100
AcDbLine
 62
7
  6
CONTINUOUS
 10
154.1563199858
 20
176.599023471
 11
243.1563199858
 21
176.599023471
  0
LINE
  5
477
100
AcDbEntity
  8
0
100
AcDbLine
 62
7
  6
CONTINUOUS
 10
154.1563199858
 20
177.599023471
 11
243.1563199858
 21
177.599023471
  0
LINE
  5
478
100
AcDbEntity
  8
0
100
AcDbLine
 62
7
  6
CONTINUOUS
 10
154.1740904628
 20
178.599023471
 11
153.3273877977
 21
178.599023471
  0
LINE
  5
479
100
AcDbEntity
  8
0
100
AcDbLine
 62
7
  6
CONTINUOUS
 10
155.4563199858
 20
180.099023471
 11
240.6563199858
 21
180.099023471
  0
LINE
  5
47A
100
AcDbEntity
  8
GEOM
100
AcDbLine
 62
7
  6
CONTINUOUS
 10
159.5786351393
 20
180.199023471
 11
169.4350173607
 21
180.199023471
  0
LINE
  5
47B
100
AcDbEntity
  8
GEOM
100
AcDbLine
 62
7
  6
CONTINUOUS
 10
170.0163199858
 20
180.199023471
 11
171.8263199858
 21
180.199023471
  0
LINE
  5
47C
100
AcDbEntity
  8
GEOM
100
AcDbLine
 62
7
  6
CONTINUOUS
 10
171.829065387
 20
180.199023471
 11
175.995211295
 21
180.199023471
  0
LINE
  5
47D
100
AcDbEntity
  8
GEOM
100
AcDbLine
 62
7
  6
CONTINUOUS
 10
176.7863199858
 20
180.199023471
 11
183.2682683513
 21
180.199023471
  0
LINE
  5
47E
100
AcDbEntity
  8
GEOM
100
AcDbLine
 62
7
  6
CONTINUOUS
 10
183.2763199858
 20
180.199023471
 11
187.4763199858
 21
180.199023471
  0
LINE
  5
47F
100
AcDbEntity
  8
GEOM
100
AcDbLine
 62
7
  6
CONTINUOUS
 10
187.483333639
 20
180.199023471
 11
193.3263199858
 21
180.199023471
  0
LINE
  5
480
100
AcDbEntity
  8
GEOM
100
AcDbLine
 62
7
  6
CONTINUOUS
 10
214.6077887544
 20
180.199023471
 11
216.297419267
 21
180.199023471
  0
LINE
  5
481
100
AcDbEntity
  8
GEOM
100
AcDbLine
 62
7
  6
CONTINUOUS
 10
216.5877297595
 20
180.199023471
 11
218.0283494405
 21
180.199023471
  0
LINE
  5
482
100
AcDbEntity
  8
GEOM
100
AcDbLine
 62
7
  6
CONTINUOUS
 10
218.1158067868
 20
180.199023471
 11
219.3730086192
 21
180.199023471
  0
LINE
  5
483
100
AcDbEntity
  8
GEOM
100
AcDbLine
 62
7
  6
CONTINUOUS
 10
220.9953960391
 20
180.199023471
 11
225.7045394277
 21
180.199023471
  0
LINE
  5
484
100
AcDbEntity
  8
0
100
AcDbLine
 62
7
  6
CONTINUOUS
 10
243.1563199858
 20
176.599023471
 11
243.1563199858
 21
177.599023471
  0
ARC
  5
485
100
AcDbEntity
  8
0
100
AcDbCircle
 62
7
  6
CONTINUOUS
 10
106.6918538918
 20
48.999023471
 40
2.5
100
AcDbArc
 50
225.0
 51
270.0
  0
ARC
  5
486
100
AcDbEntity
  8
0
100
AcDbCircle
 62
7
  6
CONTINUOUS
 10
106.6918538918
 20
87.999023471
 40
2.5
100
AcDbArc
 50
111.4876864258
 51
135.0
  0
ARC
  5
487
100
AcDbEntity
  8
0
100
AcDbCircle
 62
7
  6
CONTINUOUS
 10
101.6207860799
 20
46.999023471
 40
2.5
100
AcDbArc
 50
45.0
 51
90.0
  0
ARC
  5
488
100
AcDbEntity
  8
0
100
AcDbCircle
 62
7
  6
CONTINUOUS
 10
101.6207860799
 20
89.999023471
 40
2.5
100
AcDbArc
 50
270.0
 51
315.0
  0
ARC
  5
489
100
AcDbEntity
  8
0
100
AcDbCircle
 62
7
  6
CONTINUOUS
 10
120.0598093423
 20
65.899023471
 40
2.42
100
AcDbArc
 50
79.7649981202
 51
180.0
  0
ARC
  5
48A
100
AcDbEntity
  8
0
100
AcDbCircle
 62
7
  6
CONTINUOUS
 10
119.2898093423
 20
66.099023471
 40
2.4
100
AcDbArc
 50
90.0
 51
180.0
  0
ARC
  5
48B
100
AcDbEntity
  8
0
100
AcDbCircle
 62
7
  6
CONTINUOUS
 10
118.2586439757
 20
67.5152546805
 40
1.58
100
AcDbArc
 50
113.0582953277
 51
150.0373355261
  0
ARC
  5
48C
100
AcDbEntity
  8
0
100
AcDbCircle
 62
7
  6
CONTINUOUS
 10
100.1776403294
 20
50.999023471
 40
1.5
100
AcDbArc
 50
225.0
 51
270.0
  0
ARC
  5
48D
100
AcDbEntity
  8
0
100
AcDbCircle
 62
7
  6
CONTINUOUS
 10
100.1776403294
 20
85.999023471
 40
1.5
100
AcDbArc
 50
90.0
 51
135.0
  0
ARC
  5
48E
100
AcDbEntity
  8
0
100
AcDbCircle
 62
7
  6
CONTINUOUS
 10
96.2776403294
 20
48.899023471
 40
1.5
100
AcDbArc
 50
90.0
 51
135.0
  0
ARC
  5
48F
100
AcDbEntity
  8
0
100
AcDbCircle
 62
7
  6
CONTINUOUS
 10
96.2776403294
 20
88.099023471
 40
1.5
100
AcDbArc
 50
225.0
 51
270.0
  0
ARC
  5
490
100
AcDbEntity
  8
0
100
AcDbCircle
 62
7
  6
CONTINUOUS
 10
98.0349996423
 20
48.899023471
 40
1.5
100
AcDbArc
 50
45.0
 51
90.0
  0
ARC
  5
491
100
AcDbEntity
  8
0
100
AcDbCircle
 62
7
  6
CONTINUOUS
 10
98.0349996423
 20
88.099023471
 40
1.5
100
AcDbArc
 50
270.0
 51
315.0
  0
ARC
  5
492
100
AcDbEntity
  8
0
100
AcDbCircle
 62
7
  6
CONTINUOUS
 10
131.8889929979
 20
90.499023471
 40
1.0
100
AcDbArc
 50
15.0
 51
90.0
  0
ARC
  5
493
100
AcDbEntity
  8
0
100
AcDbCircle
 62
7
  6
CONTINUOUS
 10
131.8889929979
 20
46.499023471
 40
1.0
100
AcDbArc
 50
270.0
 51
345.0
  0
ARC
  5
494
100
AcDbEntity
  8
0
100
AcDbCircle
 62
7
  6
CONTINUOUS
 10
124.9462694795
 20
46.199023471
 40
0.7
100
AcDbArc
 50
225.0
 51
270.0
  0
ARC
  5
495
100
AcDbEntity
  8
0
100
AcDbCircle
 62
7
  6
CONTINUOUS
 10
123.3663704922
 20
45.799023471
 40
0.7
100
AcDbArc
 50
45.0
 51
90.0
  0
ARC
  5
496
100
AcDbEntity
  8
0
100
AcDbCircle
 62
7
  6
CONTINUOUS
 10
143.4077918484
 20
49.899023471
 40
0.6
100
AcDbArc
 50
44.9999999993
 51
90.0
  0
ARC
  5
497
100
AcDbEntity
  8
0
100
AcDbCircle
 62
7
  6
CONTINUOUS
 10
143.4077918484
 20
87.099023471
 40
0.6
100
AcDbArc
 50
270.0
 51
315.0000000008
  0
ARC
  5
498
100
AcDbEntity
  8
0
100
AcDbCircle
 62
7
  6
CONTINUOUS
 10
139.7563199858
 20
87.099023471
 40
0.6
100
AcDbArc
 50
180.0
 51
270.0
  0
ARC
  5
499
100
AcDbEntity
  8
0
100
AcDbCircle
 62
7
  6
CONTINUOUS
 10
139.7563199858
 20
49.899023471
 40
0.6
100
AcDbArc
 50
90.0
 51
180.0
  0
ARC
  5
49A
100
AcDbEntity
  8
0
100
AcDbCircle
 62
7
  6
CONTINUOUS
 10
127.7563179681
 20
92.0990224582
 40
0.5999998926
100
AcDbArc
 50
179.9998924754
 51
270.0001868072
  0
ARC
  5
49B
100
AcDbEntity
  8
0
100
AcDbCircle
 62
7
  6
CONTINUOUS
 10
61.390148826
 20
165.7263611455
 40
55.5831179998
100
AcDbArc
 50
353.6709999501
 51
353.8783855052
  0
ARC
  5
49C
100
AcDbEntity
  8
0
100
AcDbCircle
 62
7
  6
CONTINUOUS
 10
101.9498506218
 20
128.6444588373
 40
11.0718979078
100
AcDbArc
 50
69.2824894078
 51
69.4591621699
  0
ARC
  5
49D
100
AcDbEntity
  8
0
100
AcDbCircle
 62
7
  6
CONTINUOUS
 10
132.2563199858
 20
160.599023471
 40
4.0
100
AcDbArc
 50
270.0
 51
315.0
  0
ARC
  5
49E
100
AcDbEntity
  8
0
100
AcDbCircle
 62
7
  6
CONTINUOUS
 10
104.6563199858
 20
156.599023471
 40
3.0
100
AcDbArc
 50
90.0
 51
180.0
  0
ARC
  5
49F
100
AcDbEntity
  8
0
100
AcDbCircle
 62
7
  6
CONTINUOUS
 10
132.2563199858
 20
160.599023471
 40
1.0
100
AcDbArc
 50
270.0
 51
315.0
  0
ARC
  5
4A0
100
AcDbEntity
  8
0
100
AcDbCircle
 62
7
  6
CONTINUOUS
 10
122.0563199858
 20
160.4526133095
 40
0.6
100
AcDbArc
 50
0.0
 51
60.0
  0
ARC
  5
4A1
100
AcDbEntity
  8
0
100
AcDbCircle
 62
7
  6
CONTINUOUS
 10
111.2563199858
 20
160.4526133095
 40
0.6
100
AcDbArc
 50
120.0
 51
180.0
  0
ARC
  5
4A2
100
AcDbEntity
  8
0
100
AcDbCircle
 62
7
  6
CONTINUOUS
 10
105.1563199858
 20
156.099023471
 40
0.5
100
AcDbArc
 50
90.0
 51
180.0
  0
ARC
  5
4A3
100
AcDbEntity
  8
0
100
AcDbCircle
 62
7
  6
CONTINUOUS
 10
102.1563199858
 20
144.999023471
 40
0.5
100
AcDbArc
 50
90.0
 51
180.0
  0
ARC
  5
4A4
100
AcDbEntity
  8
0
100
AcDbCircle
 62
7
  6
CONTINUOUS
 10
102.1563199858
 20
141.7876986056
 40
0.5
100
AcDbArc
 50
180.0
 51
240.0
  0
ARC
  5
4A5
100
AcDbEntity
  8
0
100
AcDbCircle
 62
7
  6
CONTINUOUS
 10
127.2563199858
 20
139.164708896
 40
0.4
100
AcDbArc
 50
314.9999999996
 51
360.0
  0
ARC
  5
4A6
100
AcDbEntity
  8
0
100
AcDbCircle
 62
7
  6
CONTINUOUS
 10
106.0563199858
 20
139.164708896
 40
0.4
100
AcDbArc
 50
193.114870288
 51
221.0315048813
  0
ARC
  5
4A7
100
AcDbEntity
  8
0
100
AcDbCircle
 62
7
  6
CONTINUOUS
 10
127.5563199858
 20
138.3333380461
 40
0.4
100
AcDbArc
 50
134.9999999996
 51
180.0
  0
ARC
  5
4A8
100
AcDbEntity
  8
0
100
AcDbCircle
 62
7
  6
CONTINUOUS
 10
105.7563199858
 20
138.3333380461
 40
0.4
100
AcDbArc
 50
0.0
 51
45.0000000004
  0
ARC
  5
4A9
100
AcDbEntity
  8
0
100
AcDbCircle
 62
7
  6
CONTINUOUS
 10
128.0563199858
 20
145.8333380461
 40
0.4
100
AcDbArc
 50
134.9999999996
 51
180.0
  0
ARC
  5
4AA
100
AcDbEntity
  8
0
100
AcDbCircle
 62
7
  6
CONTINUOUS
 10
105.2563199858
 20
145.8333380461
 40
0.4
100
AcDbArc
 50
0.0
 51
45.0000000004
  0
ARC
  5
4AB
100
AcDbEntity
  8
0
100
AcDbCircle
 62
7
  6
CONTINUOUS
 10
105.3745779501
 20
139.005876073
 40
0.3000000244
100
AcDbArc
 50
13.1148618042
 51
59.9999862194
  0
ARC
  5
4AC
100
AcDbEntity
  8
0
100
AcDbCircle
 62
7
  6
CONTINUOUS
 10
105.3563199858
 20
145.799023471
 40
0.3
100
AcDbArc
 50
270.0
 51
360.0
  0
ARC
  5
4AD
100
AcDbEntity
  8
0
100
AcDbCircle
 62
7
  6
CONTINUOUS
 10
153.3273877977
 20
174.599023471
 40
4.0
100
AcDbArc
 50
90.0
 51
135.0
  0
ARC
  5
4AE
100
AcDbEntity
  8
0
100
AcDbCircle
 62
7
  6
CONTINUOUS
 10
240.6563199858
 20
177.599023471
 40
2.5
100
AcDbArc
 50
0.0
 51
90.0
  0
ARC
  5
4AF
100
AcDbEntity
  8
0
100
AcDbCircle
 62
7
  6
CONTINUOUS
 10
240.6563199858
 20
176.599023471
 40
2.5
100
AcDbArc
 50
270.0
 51
360.0
  0
ARC
  5
4B0
100
AcDbEntity
  8
0
100
AcDbCircle
 62
7
  6
CONTINUOUS
 10
153.7416013601
 20
173.599023471
 40
2.0
100
AcDbArc
 50
90.0
 51
135.0
  0
ARC
  5
4B1
100
AcDbEntity
  8
0
100
AcDbCircle
 62
7
  6
CONTINUOUS
 10
155.4563199858
 20
175.399023471
 40
1.3
100
AcDbArc
 50
180.0
 51
270.0
  0
ARC
  5
4B2
100
AcDbEntity
  8
0
100
AcDbCircle
 62
7
  6
CONTINUOUS
 10
155.4563199858
 20
178.799023471
 40
1.3
100
AcDbArc
 50
90.0
 51
180.0
  0
SPLINE
  5
4B3
100
AcDbEntity
  8
0
100
AcDbSpline
 62
7
  6
CONTINUOUS
 70
0
 71
3
 72
22
 73
18
 74
0
 42
0.0000001
 43
0.0000001
 44
0.0000000001
 40
0.0
 40
0.0
 40
0.0
 40
0.0
 40
0.1833461897
 40
0.3611203902
 40
0.5270508102
 40
0.603724224
 40
0.6752863052
 40
0.7411047502
 40
0.8006000503
 40
0.8532468876
 40
0.8985811593
 40
0.9362076329
 40
0.9657999662
 40
0.9775020826
 40
0.9871107465
 40
0.9946115727
 40
1.0
 40
1.0
 40
1.0
 40
1.0
 10
116.8901117848
 20
151.0292558575
 30
0.0
 10
116.3277682386
 20
151.0159556827
 30
0.0
 10
115.2201694793
 20
150.9898252883
 30
0.0
 10
113.6036702608
 20
150.9505277409
 30
0.0
 10
112.3143957196
 20
150.917052191
 30
0.0
 10
111.3509284639
 20
150.8898066024
 30
0.0
 10
110.6945174177
 20
150.8699313207
 30
0.0
 10
110.0908335008
 20
150.8500820115
 30
0.0
 10
109.5452135097
 20
150.830271416
 30
0.0
 10
109.0624830016
 20
150.8105117082
 30
0.0
 10
108.6469019251
 20
150.7908530583
 30
0.0
 10
108.3021437806
 20
150.7713010461
 30
0.0
 10
108.0605979208
 20
150.7542134624
 30
0.0
 10
107.9050795824
 20
150.7399389557
 30
0.0
 10
107.8172122975
 20
150.7301728047
 30
0.0
 10
107.7488741846
 20
150.720496161
 30
0.0
 10
107.7099729451
 20
150.7130865676
 30
0.0
 10
107.6939690625
 20
150.7089431956
 30
0.0
  0
SPLINE
  5
4B4
100
AcDbEntity
  8
0
100
AcDbSpline
 62
7
  6
CONTINUOUS
 70
0
 71
3
 72
11
 73
7
 74
0
 42
0.0000001
 43
0.0000001
 44
0.0000000001
 40
0.0
 40
0.0
 40
0.0
 40
0.0
 40
0.3911609487
 40
0.6813336045
 40
0.876829797
 40
1.0
 40
1.0
 40
1.0
 40
1.0
 10
107.6939690625
 20
150.7089431956
 30
0.0
 10
107.6884299539
 20
150.7075091319
 30
0.0
 10
107.6788283976
 20
150.704810173
 30
0.0
 10
107.6668757108
 20
150.7000280122
 30
0.0
 10
107.659127542
 20
150.6956394202
 30
0.0
 10
107.6563199858
 20
150.6912789997
 30
0.0
 10
107.6563199858
 20
150.6894773183
 30
0.0
  0
SPLINE
  5
4B5
100
AcDbEntity
  8
0
100
AcDbSpline
 62
7
  6
CONTINUOUS
 70
0
 71
3
 72
26
 73
22
 74
0
 42
0.0000001
 43
0.0000001
 44
0.0000000001
 40
0.0
 40
0.0
 40
0.0
 40
0.0
 40
0.0014790457
 40
0.0034923059
 40
0.0091632083
 40
0.0170494615
 40
0.0271453995
 40
0.0394350679
 40
0.0538966379
 40
0.0704972345
 40
0.0892011767
 40
0.1327528514
 40
0.1841623106
 40
0.2429684201
 40
0.3086444918
 40
0.3805979921
 40
0.4581802632
 40
0.540693493
 40
0.6273929447
 40
0.8101924347
 40
1.0
 40
1.0
 40
1.0
 40
1.0
 10
107.665603175
 20
151.0032288528
 30
0.0
 10
107.6695197886
 20
151.0052679875
 30
0.0
 10
107.6792957159
 20
151.0090278519
 30
0.0
 10
107.7056350831
 20
151.0164334487
 30
0.0
 10
107.7514003298
 20
151.0249954977
 30
0.0
 10
107.8213251977
 20
151.0347873527
 30
0.0
 10
107.9111791875
 20
151.0446445566
 30
0.0
 10
108.0207347588
 20
151.0545995331
 30
0.0
 10
108.1497783972
 20
151.064587048
 30
0.0
 10
108.2980165883
 20
151.0746087756
 30
0.0
 10
108.5330179851
 20
151.0887201295
 30
0.0
 10
108.8719282856
 20
151.1059822667
 30
0.0
 10
109.3305654953
 20
151.1259067378
 30
0.0
 10
109.855306226
 20
151.1458919084
 30
0.0
 10
110.4414177958
 20
151.1659247389
 30
0.0
 10
111.0836136455
 20
151.185987933
 30
0.0
 10
111.7760981403
 20
151.2060733264
 30
0.0
 10
112.5126230505
 20
151.2261744813
 30
0.0
 10
113.5631903774
 20
151.2534731116
 30
0.0
 10
114.9340245511
 20
151.2870883616
 30
0.0
 10
116.0461205857
 20
151.3133932492
 30
0.0
 10
116.612627023
 20
151.3267875248
 30
0.0
  0
SPLINE
  5
4B6
100
AcDbEntity
  8
0
100
AcDbSpline
 62
7
  6
CONTINUOUS
 70
0
 71
3
 72
9
 73
5
 74
0
 42
0.0000001
 43
0.0000001
 44
0.0000000001
 40
0.0
 40
0.0
 40
0.0
 40
0.0
 40
0.2225867449
 40
1.0
 40
1.0
 40
1.0
 40
1.0
 10
108.466491774
 20
151.4206230558
 30
0.0
 10
108.4672389191
 20
151.4210126482
 30
0.0
 10
108.4706353298
 20
151.4226867566
 30
0.0
 10
108.474155943
 20
151.4240981091
 30
0.0
 10
108.4769193148
 20
151.4251104275
 30
0.0
  0
SPLINE
  5
4B7
100
AcDbEntity
  8
0
100
AcDbSpline
 62
7
  6
CONTINUOUS
 70
0
 71
3
 72
23
 73
19
 74
0
 42
0.0000001
 43
0.0000001
 44
0.0000000001
 40
0.0
 40
0.0
 40
0.0
 40
0.0
 40
0.0046328436
 40
0.0113593056
 40
0.020191431
 40
0.031124835
 40
0.0441410529
 40
0.059215737
 40
0.095426978
 40
0.1394698179
 40
0.1909917518
 40
0.2495737093
 40
0.3147368646
 40
0.3859518759
 40
0.4626349565
 40
0.6298600488
 40
0.8109529137
 40
1.0
 40
1.0
 40
1.0
 40
1.0
 10
108.4769193148
 20
151.4251104275
 30
0.0
 10
108.4881796625
 20
151.4292354812
 30
0.0
 10
108.5168102041
 20
151.4363786547
 30
0.0
 10
108.5682291976
 20
151.4456468242
 30
0.0
 10
108.6361912073
 20
151.4549987649
 30
0.0
 10
108.7205173216
 20
151.4644598338
 30
0.0
 10
108.8210898817
 20
151.4739626407
 30
0.0
 10
108.9869854678
 20
151.4875209007
 30
0.0
 10
109.2332063817
 20
151.5039855061
 30
0.0
 10
109.5737873611
 20
151.5229054687
 30
0.0
 10
109.9723482094
 20
151.5418991403
 30
0.0
 10
110.4256290729
 20
151.5609565155
 30
0.0
 10
110.9299243046
 20
151.5800509853
 30
0.0
 10
111.4811037003
 20
151.5991728164
 30
0.0
 10
112.2963789504
 20
151.6254577261
 30
0.0
 10
113.3960244987
 20
151.6577503875
 30
0.0
 10
114.786482739
 20
151.6955880213
 30
0.0
 10
115.7442661782
 20
151.7205846574
 30
0.0
 10
116.2334505663
 20
151.7332959164
 30
0.0
  0
SPLINE
  5
4B8
100
AcDbEntity
  8
0
100
AcDbSpline
 62
7
  6
CONTINUOUS
 70
0
 71
3
 72
30
 73
26
 74
0
 42
0.0000001
 43
0.0000001
 44
0.0000000001
 40
0.0
 40
0.0
 40
0.0
 40
0.0
 40
0.0006915626
 40
0.0018019561
 40
0.0034569666
 40
0.0056910418
 40
0.0085165982
 40
0.0119388488
 40
0.0205788265
 40
0.031602865
 40
0.0449886721
 40
0.06070739
 40
0.0787172085
 40
0.0989729649
 40
0.121423719
 40
0.1726642746
 40
0.231903463
 40
0.2985182744
 40
0.3718053997
 40
0.4509922953
 40
0.5352442331
 40
0.6236709395
 40
0.715338585
 40
0.8092797616
 40
1.0
 40
1.0
 40
1.0
 40
1.0
 10
108.4563221503
 20
150.2730236219
 30
0.0
 10
108.4563204851
 20
150.2750586037
 30
0.0
 10
108.4595883382
 20
150.2799922875
 30
0.0
 10
108.4684866094
 20
150.2848897294
 30
0.0
 10
108.4822429589
 20
150.2902672455
 30
0.0
 10
108.5013020767
 20
150.2955156908
 30
0.0
 10
108.5256817771
 20
150.3009006966
 30
0.0
 10
108.5687979322
 20
150.3086979811
 30
0.0
 10
108.6361026943
 20
150.3180741525
 30
0.0
 10
108.7327685292
 20
150.3287777314
 30
0.0
 10
108.8503646007
 20
150.3395428843
 30
0.0
 10
108.9885826505
 20
150.3503568436
 30
0.0
 10
109.1470675967
 20
150.3612004103
 30
0.0
 10
109.3254012014
 20
150.3720655382
 30
0.0
 10
109.601432656
 20
150.3872466772
 30
0.0
 10
109.9921521885
 20
150.4058901466
 30
0.0
 10
110.5128224128
 20
150.4274869259
 30
0.0
 10
111.0984138533
 20
150.449136671
 30
0.0
 10
111.7427374336
 20
150.4708283766
 30
0.0
 10
112.4389858855
 20
150.4925467217
 30
0.0
 10
113.179803439
 20
150.5142840247
 30
0.0
 10
113.9573612289
 20
150.5360347807
 30
0.0
 10
114.7634408575
 20
150.5577948829
 30
0.0
 10
115.8704374669
 20
150.5869619997
 30
0.0
 10
116.7077991686
 20
150.6085838521
 30
0.0
 10
117.2688200084
 20
150.6231831596
 30
0.0
  0
SPLINE
  5
4B9
100
AcDbEntity
  8
0
100
AcDbSpline
 62
7
  6
CONTINUOUS
 70
0
 71
3
 72
30
 73
26
 74
0
 42
0.0000001
 43
0.0000001
 44
0.0000000001
 40
0.0
 40
0.0
 40
0.0
 40
0.0
 40
0.197591111
 40
0.293142461
 40
0.3854263265
 40
0.4736536988
 40
0.5570715098
 40
0.6349729324
 40
0.706702583
 40
0.771657182
 40
0.8292968871
 40
0.879146892
 40
0.9010188599
 40
0.920796932
 40
0.9384406466
 40
0.9539132244
 40
0.9671873256
 40
0.9782376277
 40
0.9870430221
 40
0.9906009155
 40
0.993594933
 40
0.9960255306
 40
0.9978949724
 40
0.9992107569
 40
1.0
 40
1.0
 40
1.0
 40
1.0
 10
115.8399589478
 20
152.1551916736
 30
0.0
 10
115.310538803
 20
152.1465952439
 30
0.0
 10
114.5251020822
 20
152.1337735862
 30
0.0
 10
113.4924130388
 20
152.116304837
 30
0.0
 10
112.7527540833
 20
152.1033726304
 30
0.0
 10
112.0456143769
 20
152.0904658401
 30
0.0
 10
111.3770218857
 20
152.077585962
 30
0.0
 10
110.7526468334
 20
152.0647361013
 30
0.0
 10
110.1777586229
 20
152.0519206645
 30
0.0
 10
109.6571798399
 20
152.039147011
 30
0.0
 10
109.1952509411
 20
152.026420892
 30
0.0
 10
108.8487689658
 20
152.0154531442
 30
0.0
 10
108.603735584
 20
152.0065391998
 30
0.0
 10
108.4449722196
 20
152.000161132
 30
0.0
 10
108.303371917
 20
151.9937996289
 30
0.0
 10
108.1792195965
 20
151.9874557671
 30
0.0
 10
108.0727592965
 20
151.9811434561
 30
0.0
 10
107.9842019078
 20
151.9748662116
 30
0.0
 10
107.9216912136
 20
151.9693833256
 30
0.0
 10
107.8807902578
 20
151.9648439492
 30
0.0
 10
107.856915894
 20
151.9617032053
 30
0.0
 10
107.8376359415
 20
151.9585843671
 30
0.0
 10
107.8228440896
 20
151.9555240016
 30
0.0
 10
107.812716003
 20
151.9525169769
 30
0.0
 10
107.8074050738
 20
151.9501041491
 30
0.0
 10
107.8059108674
 20
151.9486073588
 30
0.0
  0
LINE
  5
4BA
100
AcDbEntity
  8
0
100
AcDbLine
 62
7
  6
CONTINUOUS
 10
108.4664902641
 20
150.083622357
 11
108.4715154637
 21
150.0859799927
  0
SPLINE
  5
4BB
100
AcDbEntity
  8
0
100
AcDbSpline
 62
7
  6
CONTINUOUS
 70
0
 71
3
 72
24
 73
20
 74
0
 42
0.0000001
 43
0.0000001
 44
0.0000000001
 40
0.0
 40
0.0
 40
0.0
 40
0.0
 40
0.0017829081
 40
0.0041139839
 40
0.0104463132
 40
0.0190184192
 40
0.0298234648
 40
0.0428377001
 40
0.0580329591
 40
0.0948168224
 40
0.1398143395
 40
0.1925761717
 40
0.2525751415
 40
0.3192092511
 40
0.3918070685
 40
0.4696386623
 40
0.6378260362
 40
0.8170131489
 40
1.0
 40
1.0
 40
1.0
 40
1.0
 10
108.4715154637
 20
150.0859799927
 30
0.0
 10
108.4764296353
 20
150.0880756807
 30
0.0
 10
108.4881428768
 20
150.0920131082
 30
0.0
 10
108.5184753494
 20
150.099773327
 30
0.0
 10
108.5693694731
 20
150.1088665499
 30
0.0
 10
108.6457025226
 20
150.1192476875
 30
0.0
 10
108.7422109503
 20
150.129693105
 30
0.0
 10
108.8586420507
 20
150.1402280484
 30
0.0
 10
109.0528119602
 20
150.1552926581
 30
0.0
 10
109.3428343234
 20
150.1735512563
 30
0.0
 10
109.7454434539
 20
150.1945113698
 30
0.0
 10
110.2176912516
 20
150.2155635771
 30
0.0
 10
110.7548235214
 20
150.2366913943
 30
0.0
 10
111.3514325638
 20
150.2578617183
 30
0.0
 10
112.0015052893
 20
150.279065225
 30
0.0
 10
112.9557797234
 20
150.308118457
 30
0.0
 10
114.2293870082
 20
150.3437620888
 30
0.0
 10
115.8180314169
 20
150.3856266051
 30
0.0
 10
116.9029023875
 20
150.4136378705
 30
0.0
 10
117.4510252116
 20
150.4279289948
 30
0.0
  0
LINE
  5
4BC
100
AcDbEntity
  8
0
100
AcDbLine
 62
7
  6
CONTINUOUS
 10
117.8327128317
 20
150.018713962
 11
117.0031799928
 21
149.999023194
  0
SPLINE
  5
4BD
100
AcDbEntity
  8
0
100
AcDbSpline
 62
7
  6
CONTINUOUS
 70
0
 71
3
 72
9
 73
5
 74
0
 42
0.0000001
 43
0.0000001
 44
0.0000000001
 40
0.0
 40
0.0
 40
0.0
 40
0.0
 40
0.4985395529
 40
1.0
 40
1.0
 40
1.0
 40
1.0
 10
112.2938169826
 20
155.9583208982
 30
0.0
 10
111.8714897275
 20
155.9186534898
 30
0.0
 10
111.0291453609
 20
155.781559755
 30
0.0
 10
110.2082648644
 20
155.5527242575
 30
0.0
 10
109.8022180196
 20
155.4216732018
 30
0.0
  0
SPLINE
  5
4BE
100
AcDbEntity
  8
0
100
AcDbSpline
 62
7
  6
CONTINUOUS
 70
0
 71
3
 72
30
 73
26
 74
0
 42
0.0000001
 43
0.0000001
 44
0.0000000001
 40
0.0
 40
0.0
 40
0.0
 40
0.0
 40
0.0007171796
 40
0.0018170016
 40
0.0034290955
 40
0.0055916754
 40
0.0083190139
 40
0.0116173158
 40
0.0199358984
 40
0.0305497581
 40
0.0434412464
 40
0.0585880248
 40
0.0759613398
 40
0.0955222928
 40
0.1172303295
 40
0.1668992893
 40
0.2245369549
 40
0.2896420747
 40
0.3616497094
 40
0.4399294855
 40
0.5237983344
 40
0.6125250449
 40
0.7053327348
 40
0.8014111023
 40
1.0
 40
1.0
 40
1.0
 40
1.0
 10
108.4563240177
 20
151.6100243436
 30
0.0
 10
108.4563223646
 20
151.6118435693
 30
0.0
 10
108.4588901856
 20
151.6162303872
 30
0.0
 10
108.4663269772
 20
151.6208135769
 30
0.0
 10
108.4777307791
 20
151.6256863432
 30
0.0
 10
108.4935290821
 20
151.6304833805
 30
0.0
 10
108.5137208127
 20
151.635378783
 30
0.0
 10
108.5494164619
 20
151.6424743072
 30
0.0
 10
108.6051795426
 20
151.6510068777
 30
0.0
 10
108.6853209325
 20
151.6607447298
 30
0.0
 10
108.7828829893
 20
151.6705390422
 30
0.0
 10
108.8976572444
 20
151.6803793383
 30
0.0
 10
109.0294014255
 20
151.6902430685
 30
0.0
 10
109.1778283007
 20
151.7001281222
 30
0.0
 10
109.408091794
 20
151.7139527697
 30
0.0
 10
109.7349197508
 20
151.7309284141
 30
0.0
 10
110.1718264564
 20
151.7505826001
 30
0.0
 10
110.6654467762
 20
151.770285404
 30
0.0
 10
111.2114642675
 20
151.7900257753
 30
0.0
 10
111.805106061
 20
151.8097914541
 30
0.0
 10
112.4411792527
 20
151.8295754812
 30
0.0
 10
113.1141208682
 20
151.8493720117
 30
0.0
 10
113.8180460609
 20
151.8691786886
 30
0.0
 10
114.8005676044
 20
151.8958901344
 30
0.0
 10
115.5477763433
 20
151.9154575618
 30
0.0
 10
116.0513544305
 20
151.928561109
 30
0.0
  0
SPLINE
  5
4BF
100
AcDbEntity
  8
0
100
AcDbSpline
 62
7
  6
CONTINUOUS
 70
0
 71
3
 72
10
 73
6
 74
0
 42
0.0000001
 43
0.0000001
 44
0.0000000001
 40
0.0
 40
0.0
 40
0.0
 40
0.0
 40
0.2500490219
 40
0.5000997455
 40
1.0
 40
1.0
 40
1.0
 40
1.0
 10
116.6563199858
 20
161.9537240094
 30
0.0
 10
116.4609691389
 20
161.9537240094
 30
0.0
 10
116.0700590893
 20
161.9370526215
 30
0.0
 10
115.2941868752
 20
161.8401893257
 30
0.0
 10
114.7221444938
 20
161.7047767157
 30
0.0
 10
114.3469189091
 20
161.5964584195
 30
0.0
  0
SPLINE
  5
4C0
100
AcDbEntity
  8
0
100
AcDbSpline
 62
7
  6
CONTINUOUS
 70
0
 71
3
 72
11
 73
7
 74
0
 42
0.0000001
 43
0.0000001
 44
0.0000000001
 40
0.0
 40
0.0
 40
0.0
 40
0.0
 40
0.2616429466
 40
0.5144970929
 40
0.7595947853
 40
1.0
 40
1.0
 40
1.0
 40
1.0
 10
118.9657210626
 20
164.4417578811
 30
0.0
 10
119.0580261797
 20
164.4950502653
 30
0.0
 10
119.2437254474
 20
164.5929194601
 30
0.0
 10
119.5316629941
 20
164.7081949801
 30
0.0
 10
119.8243435206
 20
164.7819492594
 30
0.0
 10
120.0224883895
 20
164.7990234711
 30
0.0
 10
120.1204216014
 20
164.799023471
 30
0.0
  0
SPLINE
  5
4C1
100
AcDbEntity
  8
0
100
AcDbSpline
 62
7
  6
CONTINUOUS
 70
0
 71
3
 72
11
 73
7
 74
0
 42
0.0000001
 43
0.0000001
 44
0.0000000001
 40
0.0
 40
0.0
 40
0.0
 40
0.0
 40
0.2404052601
 40
0.485503008
 40
0.7383572234
 40
1.0
 40
1.0
 40
1.0
 40
1.0
 10
120.1204216014
 20
164.799023471
 30
0.0
 10
120.2183548316
 20
164.799023471
 30
0.0
 10
120.4164997447
 20
164.7819492698
 30
0.0
 10
120.7091803229
 20
164.7081949134
 30
0.0
 10
120.9971178586
 20
164.5929194214
 30
0.0
 10
121.1828170824
 20
164.4950502306
 30
0.0
 10
121.2751221394
 20
164.4417578811
 30
0.0
  0
SPLINE
  5
4C2
100
AcDbEntity
  8
0
100
AcDbSpline
 62
7
  6
CONTINUOUS
 70
0
 71
3
 72
15
 73
11
 74
0
 42
0.0000001
 43
0.0000001
 44
0.0000000001
 40
0.0
 40
0.0
 40
0.0
 40
0.0
 40
0.1308200724
 40
0.2572467341
 40
0.3797970183
 40
0.5000000228
 40
0.620203024
 40
0.7427533002
 40
0.8691799394
 40
1.0
 40
1.0
 40
1.0
 40
1.0
 10
121.2751221394
 20
161.5964584195
 30
0.0
 10
121.1828180924
 20
161.6497501859
 30
0.0
 10
120.9971160862
 20
161.7476184589
 30
0.0
 10
120.7091978742
 20
161.8628954625
 30
0.0
 10
120.4164516356
 20
161.9366469264
 30
0.0
 10
120.1204215488
 20
161.9621692561
 30
0.0
 10
119.8243914722
 20
161.9366468937
 30
0.0
 10
119.5316452637
 20
161.8628954289
 30
0.0
 10
119.2437270817
 20
161.7476184431
 30
0.0
 10
119.0580251012
 20
161.6497501811
 30
0.0
 10
118.9657210626
 20
161.5964584195
 30
0.0
  0
SPLINE
  5
4C3
100
AcDbEntity
  8
0
100
AcDbSpline
 62
7
  6
CONTINUOUS
 70
0
 71
3
 72
11
 73
7
 74
0
 42
0.0000001
 43
0.0000001
 44
0.0000000001
 40
0.0
 40
0.0
 40
0.0
 40
0.0
 40
0.2404053342
 40
0.4855030662
 40
0.7383571529
 40
1.0
 40
1.0
 40
1.0
 40
1.0
 10
113.1922183703
 20
164.799023471
 30
0.0
 10
113.2901516311
 20
164.7990234711
 30
0.0
 10
113.4882965695
 20
164.7819492757
 30
0.0
 10
113.7809771207
 20
164.7081949199
 30
0.0
 10
114.0689146213
 20
164.592919421
 30
0.0
 10
114.2546138269
 20
164.4950502452
 30
0.0
 10
114.3469189091
 20
164.4417578811
 30
0.0
  0
SPLINE
  5
4C4
100
AcDbEntity
  8
0
100
AcDbSpline
 62
7
  6
CONTINUOUS
 70
0
 71
3
 72
15
 73
11
 74
0
 42
0.0000001
 43
0.0000001
 44
0.0000000001
 40
0.0
 40
0.0
 40
0.0
 40
0.0
 40
0.1308200724
 40
0.2572467341
 40
0.3797970183
 40
0.5000000228
 40
0.620203024
 40
0.7427533002
 40
0.8691799394
 40
1.0
 40
1.0
 40
1.0
 40
1.0
 10
114.3469189091
 20
161.5964584195
 30
0.0
 10
114.2546148621
 20
161.6497501859
 30
0.0
 10
114.0689128559
 20
161.7476184589
 30
0.0
 10
113.7809946439
 20
161.8628954625
 30
0.0
 10
113.4882484054
 20
161.9366469264
 30
0.0
 10
113.1922183185
 20
161.9621692561
 30
0.0
 10
112.896188242
 20
161.9366468937
 30
0.0
 10
112.6034420334
 20
161.8628954289
 30
0.0
 10
112.3155238515
 20
161.7476184431
 30
0.0
 10
112.129821871
 20
161.6497501811
 30
0.0
 10
112.0375178323
 20
161.5964584195
 30
0.0
  0
LINE
  5
4C5
100
AcDbEntity
  8
0
100
AcDbLine
 62
7
  6
CONTINUOUS
 10
115.8630583448
 20
159.599023471
 11
115.8708254213
 21
159.6732796466
  0
SPLINE
  5
4C6
100
AcDbEntity
  8
0
100
AcDbSpline
 62
7
  6
CONTINUOUS
 70
0
 71
3
 72
11
 73
7
 74
0
 42
0.0000001
 43
0.0000001
 44
0.0000000001
 40
0.0
 40
0.0
 40
0.0
 40
0.0
 40
0.2616427032
 40
0.5144968934
 40
0.7595946658
 40
1.0
 40
1.0
 40
1.0
 40
1.0
 10
112.0375178323
 20
164.4417578811
 30
0.0
 10
112.1298228635
 20
164.4950502157
 30
0.0
 10
112.3155220492
 20
164.5929193938
 30
0.0
 10
112.6034595547
 20
164.708194877
 30
0.0
 10
112.8961401539
 20
164.7819492778
 30
0.0
 10
113.0942851097
 20
164.799023471
 30
0.0
 10
113.1922183703
 20
164.799023471
 30
0.0
  0
SPLINE
  5
4C7
100
AcDbEntity
  8
0
100
AcDbSpline
 62
7
  6
CONTINUOUS
 70
0
 71
3
 72
9
 73
5
 74
0
 42
0.0000001
 43
0.0000001
 44
0.0000000001
 40
0.0
 40
0.0
 40
0.0
 40
0.0
 40
0.2530239619
 40
1.0
 40
1.0
 40
1.0
 40
1.0
 10
116.6563199858
 20
159.799023471
 30
0.0
 10
116.716130472
 20
159.7818908127
 30
0.0
 10
116.9527719875
 20
159.7150875109
 30
0.0
 10
117.1898999678
 20
159.6499981227
 30
0.0
 10
117.3663583476
 20
159.599023471
 30
0.0
  0
SPLINE
  5
4C8
100
AcDbEntity
  8
0
100
AcDbSpline
 62
7
  6
CONTINUOUS
 70
0
 71
3
 72
10
 73
6
 74
0
 42
0.0000001
 43
0.0000001
 44
0.0000000001
 40
0.0
 40
0.0
 40
0.0
 40
0.0
 40
0.4999011814
 40
0.7499517172
 40
1.0
 40
1.0
 40
1.0
 40
1.0
 10
114.3469189091
 20
164.4417578811
 30
0.0
 10
114.7221451877
 20
164.5500763776
 30
0.0
 10
115.2941881427
 20
164.6854891649
 30
0.0
 10
116.0700604052
 20
164.7823519879
 30
0.0
 10
116.4609697172
 20
164.799023471
 30
0.0
 10
116.6563199857
 20
164.799023471
 30
0.0
  0
SPLINE
  5
4C9
100
AcDbEntity
  8
0
100
AcDbSpline
 62
7
  6
CONTINUOUS
 70
0
 71
3
 72
10
 73
6
 74
0
 42
0.0000001
 43
0.0000001
 44
0.0000000001
 40
0.0
 40
0.0
 40
0.0
 40
0.0
 40
0.2500483041
 40
0.5000988454
 40
1.0
 40
1.0
 40
1.0
 40
1.0
 10
116.6563199857
 20
164.799023471
 30
0.0
 10
116.8516702709
 20
164.799023471
 30
0.0
 10
117.2425796043
 20
164.7823519909
 30
0.0
 10
118.0184518654
 20
164.6854891537
 30
0.0
 10
118.590494804
 20
164.5500763718
 30
0.0
 10
118.9657210626
 20
164.4417578811
 30
0.0
  0
SPLINE
  5
4CA
100
AcDbEntity
  8
0
100
AcDbSpline
 62
7
  6
CONTINUOUS
 70
0
 71
3
 72
10
 73
6
 74
0
 42
0.0000001
 43
0.0000001
 44
0.0000000001
 40
0.0
 40
0.0
 40
0.0
 40
0.0
 40
0.4999007856
 40
0.7499513904
 40
1.0
 40
1.0
 40
1.0
 40
1.0
 10
118.9657210626
 20
161.5964584195
 30
0.0
 10
118.5904950803
 20
161.7047768304
 30
0.0
 10
118.0184523762
 20
161.8401895239
 30
0.0
 10
117.2425801379
 20
161.937052578
 30
0.0
 10
116.8516705101
 20
161.9537240094
 30
0.0
 10
116.6563199858
 20
161.9537240094
 30
0.0
  0
SPLINE
  5
4CB
100
AcDbEntity
  8
0
100
AcDbSpline
 62
7
  6
CONTINUOUS
 70
0
 71
3
 72
8
 73
4
 74
0
 42
0.0000001
 43
0.0000001
 44
0.0000000001
 40
0.0
 40
0.0
 40
0.0
 40
0.0
 40
1.0
 40
1.0
 40
1.0
 40
1.0
 10
154.1563199858
 20
175.935698513
 30
0.0
 10
154.1563199858
 20
175.82331728
 30
0.0
 10
154.1609063586
 20
175.7106286722
 30
0.0
 10
154.1740904628
 20
175.599023471
 30
0.0
  0
SPLINE
  5
4CC
100
AcDbEntity
  8
0
100
AcDbSpline
 62
7
  6
CONTINUOUS
 70
0
 71
3
 72
8
 73
4
 74
0
 42
0.0000001
 43
0.0000001
 44
0.0000000001
 40
0.0
 40
0.0
 40
0.0
 40
0.0
 40
1.0
 40
1.0
 40
1.0
 40
1.0
 10
154.1740904628
 20
178.599023471
 30
0.0
 10
154.1609063586
 20
178.4874182699
 30
0.0
 10
154.1563199858
 20
178.3747296621
 30
0.0
 10
154.1563199858
 20
178.2623484291
 30
0.0
  0
SPLINE
  5
4CD
100
AcDbEntity
  8
0
100
AcDbSpline
 62
7
  6
CONTINUOUS
 70
0
 71
3
 72
9
 73
5
 74
0
 42
0.0000001
 43
0.0000001
 44
0.0000000001
 40
0.0
 40
0.0
 40
0.0
 40
0.0
 40
0.1879407635
 40
1.0
 40
1.0
 40
1.0
 40
1.0
 10
151.3068752776
 20
88.4990086259
 30
0.0
 10
151.3061270985
 20
88.4990075895
 30
0.0
 10
151.3021346819
 20
88.4980021685
 30
0.0
 10
151.2997193483
 20
88.4942054473
 30
0.0
 10
151.2981026797
 20
88.491405968
 30
0.0
  0
SPLINE
  5
4CE
100
AcDbEntity
  8
0
100
AcDbSpline
 62
7
  6
CONTINUOUS
 70
0
 71
3
 72
9
 73
5
 74
0
 42
0.0000001
 43
0.0000001
 44
0.0000000001
 40
0.0
 40
0.0
 40
0.0
 40
0.0
 40
0.2492452633
 40
1.0
 40
1.0
 40
1.0
 40
1.0
 10
132.8549188242
 20
78.1302669644
 30
0.0
 10
132.8512690036
 20
78.1012142173
 30
0.0
 10
132.8353004216
 20
77.9848266572
 30
0.0
 10
132.8136714406
 20
77.8691753691
 30
0.0
 10
132.7935866471
 20
77.7832947185
 30
0.0
  0
SPLINE
  5
4CF
100
AcDbEntity
  8
0
100
AcDbSpline
 62
7
  6
CONTINUOUS
 70
0
 71
3
 72
35
 73
31
 74
0
 42
0.0000001
 43
0.0000001
 44
0.0000000001
 40
0.0
 40
0.0
 40
0.0
 40
0.0
 40
0.1381991483
 40
0.2170140587
 40
0.3000777737
 40
0.3855957238
 40
0.4717198085
 40
0.5565889704
 40
0.6383692483
 40
0.7152935238
 40
0.7514100219
 40
0.7856997602
 40
0.8179767371
 40
0.8480670081
 40
0.8758073871
 40
0.9010484903
 40
0.9236535965
 40
0.9435011683
 40
0.960484151
 40
0.9678728306
 40
0.9745118724
 40
0.980393342
 40
0.985510164
 40
0.9898554583
 40
0.9934234647
 40
0.9962119525
 40
0.9982213043
 40
0.9994589134
 40
0.999802019
 40
1.0
 40
1.0
 40
1.0
 40
1.0
 10
152.0563199858
 20
54.3815874262
 30
0.0
 10
152.0209977837
 20
55.9536469762
 30
0.0
 10
151.9737759198
 20
58.4224338238
 30
0.0
 10
151.914567407
 20
61.836261132
 30
0.0
 10
151.8682892917
 20
64.6508069198
 30
0.0
 10
151.8219535939
 20
67.5485270627
 30
0.0
 10
151.7756184855
 20
70.4667926899
 30
0.0
 10
151.7292967081
 20
73.34252519
 30
0.0
 10
151.6830111598
 20
76.113567163
 30
0.0
 10
151.6437211528
 20
78.3299308501
 30
0.0
 10
151.6119427881
 20
80.0059845575
 30
0.0
 10
151.5886219633
 20
81.1741012522
 30
0.0
 10
151.5653138115
 20
82.273636238
 30
0.0
 10
151.5420227752
 20
83.2986339357
 30
0.0
 10
151.5187536532
 20
84.2435544791
 30
0.0
 10
151.4955152548
 20
85.1032801169
 30
0.0
 10
151.4723222798
 20
85.8731653484
 30
0.0
 10
151.4491875471
 20
86.5490419199
 30
0.0
 10
151.4291792962
 20
87.0517833655
 30
0.0
 10
151.4128886478
 20
87.4042542369
 30
0.0
 10
151.4012588568
 20
87.6304868382
 30
0.0
 10
151.3896512159
 20
87.830835196
 30
0.0
 10
151.3780789526
 20
88.0050313797
 30
0.0
 10
151.3665499331
 20
88.1528602897
 30
0.0
 10
151.3551230476
 20
88.2740578786
 30
0.0
 10
151.3437879438
 20
88.368687341
 30
0.0
 10
151.3329037995
 20
88.4362827814
 30
0.0
 10
151.3229169816
 20
88.4764176477
 30
0.0
 10
151.3145853663
 20
88.4946008094
 30
0.0
 10
151.3091279407
 20
88.4990117464
 30
0.0
 10
151.3068752776
 20
88.4990086259
 30
0.0
  0
SPLINE
  5
4D0
100
AcDbEntity
  8
0
100
AcDbSpline
 62
7
  6
CONTINUOUS
 70
0
 71
3
 72
13
 73
9
 74
0
 42
0.0000001
 43
0.0000001
 44
0.0000000001
 40
0.0
 40
0.0
 40
0.0
 40
0.0
 40
0.2512068194
 40
0.3757808297
 40
0.500000005
 40
0.6242191804
 40
0.7487931898
 40
1.0
 40
1.0
 40
1.0
 40
1.0
 10
138.0441846271
 20
59.2147522236
 30
0.0
 10
138.3044277287
 20
58.3065049924
 30
0.0
 10
138.6165919559
 20
56.9226846748
 30
0.0
 10
138.831375067
 20
55.0530747654
 30
0.0
 10
138.8857258075
 20
53.6497810078
 30
0.0
 10
138.8313750685
 20
52.2464872539
 30
0.0
 10
138.6165919614
 20
50.3768773814
 30
0.0
 10
138.3044277192
 20
48.9930571066
 30
0.0
 10
138.0441846271
 20
48.0848099087
 30
0.0
  0
SPLINE
  5
4D1
100
AcDbEntity
  8
0
100
AcDbSpline
 62
7
  6
CONTINUOUS
 70
0
 71
3
 72
11
 73
7
 74
0
 42
0.0000001
 43
0.0000001
 44
0.0000000001
 40
0.0
 40
0.0
 40
0.0
 40
0.0
 40
0.2502545852
 40
0.5000000008
 40
0.7497454159
 40
1.0
 40
1.0
 40
1.0
 40
1.0
 10
132.8549188242
 20
48.4317821545
 30
0.0
 10
132.9637113621
 20
49.2977759785
 30
0.0
 10
133.1334954342
 20
51.0345241788
 30
0.0
 10
133.2215188312
 20
53.6497810727
 30
0.0
 10
133.1334954317
 20
56.2650379626
 30
0.0
 10
132.9637113616
 20
58.0017861575
 30
0.0
 10
132.8549188242
 20
58.8677799777
 30
0.0
  0
SPLINE
  5
4D2
100
AcDbEntity
  8
0
100
AcDbSpline
 62
7
  6
CONTINUOUS
 70
0
 71
3
 72
37
 73
33
 74
0
 42
0.0000001
 43
0.0000001
 44
0.0000000001
 40
0.0
 40
0.0
 40
0.0
 40
0.0
 40
0.0002467079
 40
0.0006905318
 40
0.0013393664
 40
0.0021952402
 40
0.0032588269
 40
0.004530327
 40
0.0076968445
 40
0.0116918312
 40
0.0165092679
 40
0.0221427286
 40
0.0285852187
 40
0.0358268453
 40
0.0438565567
 40
0.0622344022
 40
0.0836094008
 40
0.107855614
 40
0.1348268093
 40
0.1643629611
 40
0.196284611
 40
0.2303997718
 40
0.3043675321
 40
0.3844639919
 40
0.4687294596
 40
0.5550915441
 40
0.6414156843
 40
0.7255556725
 40
0.8054101777
 40
0.8789755715
 40
0.9443909883
 40
1.0
 40
1.0
 40
1.0
 40
1.0
 10
152.8491405592
 20
87.7062028977
 30
0.0
 10
152.8511375574
 20
87.7042058995
 30
0.0
 10
152.8539782755
 20
87.6964437456
 30
0.0
 10
152.8576822653
 20
87.6817827924
 30
0.0
 10
152.8613764984
 20
87.6596609811
 30
0.0
 10
152.8652026709
 20
87.630553609
 30
0.0
 10
152.8690402271
 20
87.5942072995
 30
0.0
 10
152.8746119133
 20
87.5314808201
 30
0.0
 10
152.8813224033
 20
87.435165655
 30
0.0
 10
152.8890019381
 20
87.2982528211
 30
0.0
 10
152.896721755
 20
87.1330614027
 30
0.0
 10
152.9044790816
 20
86.9398298285
 30
0.0
 10
152.9122564605
 20
86.7188283491
 30
0.0
 10
152.9200522198
 20
86.4703817094
 30
0.0
 10
152.9309612816
 20
86.0853375728
 30
0.0
 10
152.9443745473
 20
85.5385107021
 30
0.0
 10
152.9599127715
 20
84.8060471317
 30
0.0
 10
152.9754985795
 20
83.9751929206
 30
0.0
 10
152.9911283454
 20
83.0509003714
 30
0.0
 10
153.0067886557
 20
82.0387325668
 30
0.0
 10
153.0224783411
 20
80.9447758576
 30
0.0
 10
153.0440122386
 20
79.3422216292
 30
0.0
 10
153.0705942369
 20
77.1882064446
 30
0.0
 10
153.1018196672
 20
74.4601119968
 30
0.0
 10
153.1331330394
 20
71.5901260533
 30
0.0
 10
153.1645164491
 20
68.6488455845
 30
0.0
 10
153.195949664
 20
65.709002147
 30
0.0
 10
153.2274130011
 20
62.8436586625
 30
0.0
 10
153.2588833953
 20
60.1243798487
 30
0.0
 10
153.2903207328
 20
57.6194646941
 30
0.0
 10
153.3216825325
 20
55.3921227032
 30
0.0
 10
153.3444584856
 20
54.0068829077
 30
0.0
 10
153.3563199858
 20
53.370410693
 30
0.0
  0
SPLINE
  5
4D3
100
AcDbEntity
  8
0
100
AcDbSpline
 62
7
  6
CONTINUOUS
 70
0
 71
3
 72
23
 73
19
 74
0
 42
0.0000001
 43
0.0000001
 44
0.0000000001
 40
0.0
 40
0.0
 40
0.0
 40
0.0
 40
0.2201381397
 40
0.4160873164
 40
0.5859720484
 40
0.660666595
 40
0.7283000793
 40
0.7887073553
 40
0.841752345
 40
0.8873168008
 40
0.925289591
 40
0.9555910755
 40
0.9678440331
 40
0.978154659
 40
0.9865187037
 40
0.9929377955
 40
0.9974202496
 40
1.0
 40
1.0
 40
1.0
 40
1.0
 10
152.0563199858
 20
54.3815874262
 30
0.0
 10
152.0623647751
 20
53.9614980947
 30
0.0
 10
152.0743061085
 20
53.1674863743
 30
0.0
 10
152.0931783725
 20
52.0493194858
 30
0.0
 10
152.1094757879
 20
51.2087289635
 30
0.0
 10
152.1227434582
 20
50.6130193749
 30
0.0
 10
152.1322548797
 20
50.2262163249
 30
0.0
 10
152.1417547503
 20
49.8807447234
 30
0.0
 10
152.1512384216
 20
49.5774094928
 30
0.0
 10
152.1606844167
 20
49.3169116886
 30
0.0
 10
152.1700936656
 20
49.099854619
 30
0.0
 10
152.1783127429
 20
48.9463792126
 30
0.0
 10
152.1851313251
 20
48.8457205222
 30
0.0
 10
152.1898405636
 20
48.7868698997
 30
0.0
 10
152.1945547505
 20
48.7392382674
 30
0.0
 10
152.1990852186
 20
48.7026674093
 30
0.0
 10
152.2037132847
 20
48.6774969634
 30
0.0
 10
152.2071029896
 20
48.6641980096
 30
0.0
 10
152.2095614038
 20
48.6599322741
 30
0.0
  0
SPLINE
  5
4D4
100
AcDbEntity
  8
0
100
AcDbSpline
 62
7
  6
CONTINUOUS
 70
0
 71
3
 72
23
 73
19
 74
0
 42
0.0000001
 43
0.0000001
 44
0.0000000001
 40
0.0
 40
0.0
 40
0.0
 40
0.0
 40
0.0063404561
 40
0.0149458507
 40
0.025810635
 40
0.0389083187
 40
0.0542009718
 40
0.0716438192
 40
0.1127487157
 40
0.1617056043
 40
0.2179040456
 40
0.2806521533
 40
0.3491874804
 40
0.4226881083
 40
0.5002847489
 40
0.66411889
 40
0.8332023413
 40
1.0
 40
1.0
 40
1.0
 40
1.0
 10
153.3563199858
 20
50.0292518686
 30
0.0
 10
153.3393098701
 20
50.0785224171
 30
0.0
 10
153.3082999311
 20
50.1976863138
 30
0.0
 10
153.2676743403
 20
50.4059512007
 30
0.0
 10
153.226807615
 20
50.670623744
 30
0.0
 10
153.1857334445
 20
50.9907242018
 30
0.0
 10
153.1445940214
 20
51.3652800167
 30
0.0
 10
153.0864960932
 20
51.9695391827
 30
0.0
 10
153.0159312284
 20
52.8505495733
 30
0.0
 10
152.9349498367
 20
54.0502235353
 30
0.0
 10
152.8540176798
 20
55.428178544
 30
0.0
 10
152.7731911616
 20
56.9673318874
 30
0.0
 10
152.6925624494
 20
58.6489115395
 30
0.0
 10
152.6121633172
 20
60.4526983174
 30
0.0
 10
152.503344434
 20
63.0394286595
 30
0.0
 10
152.3706325859
 20
66.4116146934
 30
0.0
 10
152.2150243
 20
70.5167695059
 30
0.0
 10
152.1098891029
 20
73.2760095354
 30
0.0
 10
152.0563199858
 20
74.6461878441
 30
0.0
  0
SPLINE
  5
4D5
100
AcDbEntity
  8
0
100
AcDbSpline
 62
7
  6
CONTINUOUS
 70
0
 71
3
 72
9
 73
5
 74
0
 42
0.0000001
 43
0.0000001
 44
0.0000000001
 40
0.0
 40
0.0
 40
0.0
 40
0.0
 40
0.3372357454
 40
1.0
 40
1.0
 40
1.0
 40
1.0
 10
150.6557648333
 20
48.499023471
 30
0.0
 10
150.6526214945
 20
48.499023471
 30
0.0
 10
150.6453002611
 20
48.5074002856
 30
0.0
 10
150.6426171022
 20
48.5157329877
 30
0.0
 10
150.6406542798
 20
48.5215904208
 30
0.0
  0
SPLINE
  5
4D6
100
AcDbEntity
  8
0
100
AcDbSpline
 62
7
  6
CONTINUOUS
 70
0
 71
3
 72
46
 73
42
 74
0
 42
0.0000001
 43
0.0000001
 44
0.0000000001
 40
0.0
 40
0.0
 40
0.0
 40
0.0
 40
0.0007373083
 40
0.0017536569
 40
0.0046318942
 40
0.0086399857
 40
0.0137706647
 40
0.0200136844
 40
0.0273567298
 40
0.0357822018
 40
0.0452712242
 40
0.0673533148
 40
0.0934003481
 40
0.1231741849
 40
0.156403508
 40
0.1927826851
 40
0.2319778092
 40
0.3173558328
 40
0.4094121547
 40
0.5047777343
 40
0.5999609999
 40
0.6914769634
 40
0.7348041609
 40
0.7759764456
 40
0.8146152499
 40
0.8503660655
 40
0.8829014786
 40
0.9119222158
 40
0.9371633169
 40
0.948293415
 40
0.9583948051
 40
0.9674440568
 40
0.9754218959
 40
0.9823095737
 40
0.9880915404
 40
0.9927567895
 40
0.9962956746
 40
0.9976412637
 40
0.9987050038
 40
0.9994890613
 40
1.0
 40
1.0
 40
1.0
 40
1.0
 10
150.6406542798
 20
48.5215904208
 30
0.0
 10
150.6375314919
 20
48.5309094103
 30
0.0
 10
150.6318767577
 20
48.5536444309
 30
0.0
 10
150.6207001118
 20
48.6143683656
 30
0.0
 10
150.6078218597
 20
48.7189984241
 30
0.0
 10
150.5930486849
 20
48.8784916317
 30
0.0
 10
150.5781860543
 20
49.0830090632
 30
0.0
 10
150.5631688007
 20
49.3320507467
 30
0.0
 10
150.5481041452
 20
49.6250808526
 30
0.0
 10
150.532987127
 20
49.9614247553
 30
0.0
 10
150.5117057274
 20
50.4941548171
 30
0.0
 10
150.4856709874
 20
51.2617672988
 30
0.0
 10
150.4556164762
 20
52.2997784143
 30
0.0
 10
150.4254706194
 20
53.4864335628
 30
0.0
 10
150.3952534587
 20
54.8108530672
 30
0.0
 10
150.364988474
 20
56.2608865553
 30
0.0
 10
150.3233995242
 20
58.4059729922
 30
0.0
 10
150.2723647617
 20
61.2931871228
 30
0.0
 10
150.21254211
 20
64.9291089159
 30
0.0
 10
150.1526535361
 20
68.6957501291
 30
0.0
 10
150.092761303
 20
72.4551872841
 30
0.0
 10
150.0420505089
 20
75.5210129136
 30
0.0
 10
150.0008531968
 20
77.8669313186
 30
0.0
 10
149.9705374201
 20
79.5080807808
 30
0.0
 10
149.9402473215
 20
81.0482196713
 30
0.0
 10
149.9099908758
 20
82.4732062402
 30
0.0
 10
149.8797884245
 20
83.7699544036
 30
0.0
 10
149.8496519404
 20
84.9265678575
 30
0.0
 10
149.8236676274
 20
85.7978564321
 30
0.0
 10
149.8025419111
 20
86.4169750613
 30
0.0
 10
149.7873868669
 20
86.8203327328
 30
0.0
 10
149.7722534297
 20
87.1816388625
 30
0.0
 10
149.7571577946
 20
87.5000669627
 30
0.0
 10
149.7421070821
 20
87.7748869281
 30
0.0
 10
149.7271536852
 20
88.0054864235
 30
0.0
 10
149.7122903117
 20
88.1913246406
 30
0.0
 10
149.6992796252
 20
88.3179997347
 30
0.0
 10
149.6882807547
 20
88.3965139602
 30
0.0
 10
149.680913511
 20
88.4384893643
 30
0.0
 10
149.6736210091
 20
88.4690183214
 30
0.0
 10
149.6679387573
 20
88.4855111411
 30
0.0
 10
149.6645368929
 20
88.4914115008
 30
0.0
  0
SPLINE
  5
4D7
100
AcDbEntity
  8
0
100
AcDbSpline
 62
7
  6
CONTINUOUS
 70
0
 71
3
 72
11
 73
7
 74
0
 42
0.0000001
 43
0.0000001
 44
0.0000000001
 40
0.0
 40
0.0
 40
0.0
 40
0.0
 40
0.2153742318
 40
0.4595502554
 40
0.7245002487
 40
1.0
 40
1.0
 40
1.0
 40
1.0
 10
132.7935866471
 20
77.7832947185
 30
0.0
 10
132.7702885595
 20
77.6836743306
 30
0.0
 10
132.7282206488
 20
77.4690606764
 30
0.0
 10
132.7054902851
 20
77.1244863377
 30
0.0
 10
132.7320107893
 20
76.7518413652
 30
0.0
 10
132.7722347012
 20
76.49819726
 30
0.0
 10
132.7935866471
 20
76.3690811561
 30
0.0
  0
SPLINE
  5
4D8
100
AcDbEntity
  8
0
100
AcDbSpline
 62
7
  6
CONTINUOUS
 70
0
 71
3
 72
9
 73
5
 74
0
 42
0.0000001
 43
0.0000001
 44
0.0000000001
 40
0.0
 40
0.0
 40
0.0
 40
0.0
 40
0.3372540436
 40
1.0
 40
1.0
 40
1.0
 40
1.0
 10
148.6557642411
 20
48.499023471
 30
0.0
 10
148.6526216394
 20
48.499023471
 30
0.0
 10
148.6453017564
 20
48.5073967344
 30
0.0
 10
148.6426188089
 20
48.5157271622
 30
0.0
 10
148.6406563042
 20
48.5215826408
 30
0.0
  0
SPLINE
  5
4D9
100
AcDbEntity
  8
0
100
AcDbSpline
 62
7
  6
CONTINUOUS
 70
0
 71
3
 72
46
 73
42
 74
0
 42
0.0000001
 43
0.0000001
 44
0.0000000001
 40
0.0
 40
0.0
 40
0.0
 40
0.0
 40
0.0007372155
 40
0.0017534705
 40
0.0046315198
 40
0.0086394197
 40
0.0137699109
 40
0.0200127601
 40
0.0273556479
 40
0.035780973
 40
0.0452698714
 40
0.067351752
 40
0.0933985237
 40
0.123172059
 40
0.1564011212
 40
0.192780259
 40
0.2319756582
 40
0.3173549673
 40
0.4094116421
 40
0.5047771881
 40
0.5999613454
 40
0.6914779008
 40
0.7348054732
 40
0.7759778216
 40
0.8146160936
 40
0.8503662041
 40
0.8829010698
 40
0.9119218108
 40
0.937163058
 40
0.9482932138
 40
0.9583946584
 40
0.967443955
 40
0.9754218311
 40
0.9823095411
 40
0.9880915221
 40
0.9927567746
 40
0.9962956645
 40
0.997641257
 40
0.998705
 40
0.99948906
 40
1.0
 40
1.0
 40
1.0
 40
1.0
 10
148.6406563042
 20
48.5215826408
 30
0.0
 10
148.6375334262
 20
48.5309002977
 30
0.0
 10
148.6318786593
 20
48.5536327782
 30
0.0
 10
148.6207019303
 20
48.6143516293
 30
0.0
 10
148.6078237475
 20
48.7189753873
 30
0.0
 10
148.5930505868
 20
48.8784610232
 30
0.0
 10
148.5781879805
 20
49.0829711534
 30
0.0
 10
148.5631707379
 20
49.3320059979
 30
0.0
 10
148.5481060569
 20
49.6250298225
 30
0.0
 10
148.5329889793
 20
49.9613680745
 30
0.0
 10
148.5117074849
 20
50.4940918252
 30
0.0
 10
148.48567269
 20
51.2616965195
 30
0.0
 10
148.4556181492
 20
52.2996975372
 30
0.0
 10
148.4254723483
 20
53.4863419433
 30
0.0
 10
148.3952551432
 20
54.8107536949
 30
0.0
 10
148.3649900313
 20
56.2607871416
 30
0.0
 10
148.3234005175
 20
58.4058942901
 30
0.0
 10
148.272365256
 20
61.2931345124
 30
0.0
 10
148.2125422597
 20
64.9290784377
 30
0.0
 10
148.1526534556
 20
68.6957365615
 30
0.0
 10
148.0927609632
 20
72.455193813
 30
0.0
 10
148.0420497668
 20
75.5210448415
 30
0.0
 10
148.0008521935
 20
77.8669774597
 30
0.0
 10
147.9705364619
 20
79.508126009
 30
0.0
 10
147.9402465451
 20
81.0482495681
 30
0.0
 10
147.9099907048
 20
82.4732126461
 30
0.0
 10
147.8797885936
 20
83.7699444331
 30
0.0
 10
147.8496523307
 20
84.9265528298
 30
0.0
 10
147.8236680313
 20
85.7978443504
 30
0.0
 10
147.8025422498
 20
86.4169665491
 30
0.0
 10
147.78738717
 20
86.8203263977
 30
0.0
 10
147.7722536869
 20
87.1816344194
 30
0.0
 10
147.7571580047
 20
87.5000641058
 30
0.0
 10
147.7421072879
 20
87.7748852412
 30
0.0
 10
147.7271538905
 20
88.0054854502
 30
0.0
 10
147.7122905098
 20
88.1913240062
 30
0.0
 10
147.699279829
 20
88.3179992818
 30
0.0
 10
147.6882809595
 20
88.3965136741
 30
0.0
 10
147.68091371
 20
88.4384892046
 30
0.0
 10
147.6736211996
 20
88.4690182585
 30
0.0
 10
147.6679389418
 20
88.4855111336
 30
0.0
 10
147.6645370697
 20
88.491411511
 30
0.0
  0
SPLINE
  5
4DA
100
AcDbEntity
  8
0
100
AcDbSpline
 62
7
  6
CONTINUOUS
 70
0
 71
3
 72
8
 73
4
 74
0
 42
0.0000001
 43
0.0000001
 44
0.0000000001
 40
0.0
 40
0.0
 40
0.0
 40
0.0
 40
1.0
 40
1.0
 40
1.0
 40
1.0
 10
132.7935866471
 20
76.3690811561
 30
0.0
 10
132.8204805046
 20
76.2064528824
 30
0.0
 10
132.8403334627
 20
76.0425787452
 30
0.0
 10
132.8549188242
 20
75.8783883002
 30
0.0
  0
SPLINE
  5
4DB
100
AcDbEntity
  8
0
100
AcDbSpline
 62
7
  6
CONTINUOUS
 70
0
 71
3
 72
29
 73
25
 74
0
 42
0.0000001
 43
0.0000001
 44
0.0000000001
 40
0.0
 40
0.0
 40
0.0
 40
0.0
 40
0.1623993084
 40
0.3343110451
 40
0.4204445998
 40
0.5048731402
 40
0.5862588285
 40
0.6633123297
 40
0.7348116918
 40
0.7996237779
 40
0.8567218713
 40
0.8820898905
 40
0.9052012458
 40
0.9259632863
 40
0.9442957279
 40
0.9601244079
 40
0.9733895754
 40
0.9840377269
 40
0.9883685281
 40
0.9920321187
 40
0.9950253229
 40
0.9973472657
 40
0.9990011743
 40
1.0
 40
1.0
 40
1.0
 40
1.0
 10
145.6563199858
 20
77.6098892552
 30
0.0
 10
145.684493336
 20
76.0340477442
 30
0.0
 10
145.7387454854
 20
72.7899944021
 30
0.0
 10
145.8034602208
 20
68.7100722209
 30
0.0
 10
145.8564790993
 20
65.3867695537
 30
0.0
 10
145.8962580173
 20
62.9419273513
 30
0.0
 10
145.9360117828
 20
60.585219035
 30
0.0
 10
145.9757261949
 20
58.3540069871
 30
0.0
 10
146.0153753695
 20
56.2836682302
 30
0.0
 10
146.0549382069
 20
54.4070347253
 30
0.0
 10
146.0889760709
 20
52.9780945521
 30
0.0
 10
146.1166689823
 20
51.953833375
 30
0.0
 10
146.1365872874
 20
51.2821363678
 30
0.0
 10
146.1564734137
 20
50.6787517005
 30
0.0
 10
146.1763132002
 20
50.1460874083
 30
0.0
 10
146.1960780214
 20
49.6862326762
 30
0.0
 10
146.215748625
 20
49.3010346942
 30
0.0
 10
146.232919671
 20
49.027444135
 30
0.0
 10
146.2471338947
 20
48.847079254
 30
0.0
 10
146.2569862192
 20
48.7408803339
 30
0.0
 10
146.2668125765
 20
48.6543299924
 30
0.0
 10
146.2763770136
 20
48.5872556968
 30
0.0
 10
146.285965079
 20
48.540120819
 30
0.0
 10
146.2932600994
 20
48.5150309742
 30
0.0
 10
146.2981026841
 20
48.5066335767
 30
0.0
  0
SPLINE
  5
4DC
100
AcDbEntity
  8
0
100
AcDbSpline
 62
7
  6
CONTINUOUS
 70
0
 71
3
 72
9
 73
5
 74
0
 42
0.0000001
 43
0.0000001
 44
0.0000000001
 40
0.0
 40
0.0
 40
0.0
 40
0.0
 40
0.3377399154
 40
1.0
 40
1.0
 40
1.0
 40
1.0
 10
146.6557650307
 20
48.499023471
 30
0.0
 10
146.6526418409
 20
48.499023471
 30
0.0
 10
146.645357456
 20
48.5073030199
 30
0.0
 10
146.6426800312
 20
48.5155735616
 30
0.0
 10
146.6407258875
 20
48.5213775533
 30
0.0
  0
SPLINE
  5
4DD
100
AcDbEntity
  8
0
100
AcDbSpline
 62
7
  6
CONTINUOUS
 70
0
 71
3
 72
36
 73
32
 74
0
 42
0.0000001
 43
0.0000001
 44
0.0000000001
 40
0.0
 40
0.0
 40
0.0
 40
0.0
 40
0.0016994377
 40
0.0044765475
 40
0.0083357468
 40
0.0132706059
 40
0.0192717032
 40
0.0263279703
 40
0.0435400246
 40
0.0647592186
 40
0.0897990161
 40
0.1184412068
 40
0.1504360971
 40
0.185502157
 40
0.2233326471
 40
0.3059398747
 40
0.3953685881
 40
0.4884916745
 40
0.5820493839
 40
0.6727664572
 40
0.7574718242
 40
0.8332017641
 40
0.8668584405
 40
0.8973078838
 40
0.924284005
 40
0.9475498705
 40
0.9669032492
 40
0.9821764532
 40
0.9932371191
 40
0.9971595635
 40
1.0
 40
1.0
 40
1.0
 40
1.0
 10
146.6407258875
 20
48.5213775533
 30
0.0
 10
146.6335135062
 20
48.542799007
 30
0.0
 10
146.622802955
 20
48.6016972484
 30
0.0
 10
146.6084712975
 20
48.7114856464
 30
0.0
 10
146.5942684246
 20
48.8648289786
 30
0.0
 10
146.5796437915
 20
49.0610381516
 30
0.0
 10
146.5649936939
 20
49.2999081464
 30
0.0
 10
146.5439220259
 20
49.7019468853
 30
0.0
 10
146.5184405369
 20
50.3064239115
 30
0.0
 10
146.4892102626
 20
51.1501035796
 30
0.0
 10
146.4598476772
 20
52.1458831724
 30
0.0
 10
146.4303714928
 20
53.2850315298
 30
0.0
 10
146.4008340486
 20
54.5575705882
 30
0.0
 10
146.3712468722
 20
55.9523452036
 30
0.0
 10
146.3305563953
 20
58.0201925733
 30
0.0
 10
146.28061094
 20
60.8110342177
 30
0.0
 10
146.2221021871
 20
64.3372440358
 30
0.0
 10
146.1635191649
 20
68.0091164301
 30
0.0
 10
146.1049226726
 20
71.6981261978
 30
0.0
 10
146.0463956874
 20
75.2751648335
 30
0.0
 10
145.9880035759
 20
78.6150574962
 30
0.0
 10
145.9378372287
 20
81.1960554131
 30
0.0
 10
145.8967868069
 20
83.0554653736
 30
0.0
 10
145.8672701578
 20
84.2665279297
 30
0.0
 10
145.8378486048
 20
85.3393483583
 30
0.0
 10
145.8085225923
 20
86.2645232077
 30
0.0
 10
145.7794948706
 20
87.0339796193
 30
0.0
 10
145.7506377185
 20
87.6409378045
 30
0.0
 10
145.7255397834
 20
88.0426465558
 30
0.0
 10
145.7037482259
 20
88.278701129
 30
0.0
 10
145.6927245434
 20
88.3680224469
 30
0.0
 10
145.6865858331
 20
88.4052990275
 30
0.0
  0
SPLINE
  5
4DE
100
AcDbEntity
  8
0
100
AcDbSpline
 62
7
  6
CONTINUOUS
 70
0
 71
3
 72
9
 73
5
 74
0
 42
0.0000001
 43
0.0000001
 44
0.0000000001
 40
0.0
 40
0.0
 40
0.0
 40
0.0
 40
0.6297485043
 40
1.0
 40
1.0
 40
1.0
 40
1.0
 10
145.6865858331
 20
88.4052990275
 30
0.0
 10
145.6835465356
 20
88.4237547968
 30
0.0
 10
145.6779144044
 20
88.4527242481
 30
0.0
 10
145.6700301636
 20
88.4818862945
 30
0.0
 10
145.6645372881
 20
88.4914131654
 30
0.0
  0
SPLINE
  5
4DF
100
AcDbEntity
  8
0
100
AcDbSpline
 62
7
  6
CONTINUOUS
 70
0
 71
3
 72
8
 73
4
 74
0
 42
0.0000001
 43
0.0000001
 44
0.0000000001
 40
0.0
 40
0.0
 40
0.0
 40
0.0
 40
1.0
 40
1.0
 40
1.0
 40
1.0
 10
132.8549188242
 20
61.1196586418
 30
0.0
 10
132.8403334627
 20
60.9554681969
 30
0.0
 10
132.8204805046
 20
60.7915940596
 30
0.0
 10
132.7935866471
 20
60.6289657859
 30
0.0
  0
SPLINE
  5
4E0
100
AcDbEntity
  8
0
100
AcDbSpline
 62
7
  6
CONTINUOUS
 70
0
 71
3
 72
28
 73
24
 74
0
 42
0.0000001
 43
0.0000001
 44
0.0000000001
 40
0.0
 40
0.0
 40
0.0
 40
0.0
 40
0.2214156511
 40
0.4213833685
 40
0.5121184628
 40
0.5961133314
 40
0.6729521837
 40
0.7422630388
 40
0.8037052941
 40
0.8569793919
 40
0.9018235561
 40
0.9210158892
 40
0.9380278565
 40
0.9528422756
 40
0.9654468758
 40
0.9758434346
 40
0.9840513353
 40
0.9901260682
 40
0.9924115306
 40
0.9942502398
 40
0.9957353601
 40
0.9970386239
 40
1.0
 40
1.0
 40
1.0
 40
1.0
 10
145.6563199858
 20
77.6098892552
 30
0.0
 10
145.623953185
 20
78.3603085786
 30
0.0
 10
145.5600266633
 20
79.7883573913
 30
0.0
 10
145.4738636417
 20
81.5235114273
 30
0.0
 10
145.4036534772
 20
82.7926760184
 30
0.0
 10
145.3526301943
 20
83.6445597486
 30
0.0
 10
145.3015320798
 20
84.423619645
 30
0.0
 10
145.2503820494
 20
85.1259892358
 30
0.0
 10
145.1992212703
 20
85.7481853697
 30
0.0
 10
145.1480806352
 20
86.2870625394
 30
0.0
 10
145.1036100563
 20
86.6825651726
 30
0.0
 10
145.0671904851
 20
86.9550970783
 30
0.0
 10
145.0413240944
 20
87.1262357288
 30
0.0
 10
145.0154976472
 20
87.2747514811
 30
0.0
 10
144.9897210633
 20
87.4004348819
 30
0.0
 10
144.9640822413
 20
87.5032289028
 30
0.0
 10
144.938583896
 20
87.5829923265
 30
0.0
 10
144.9159991692
 20
87.6347808314
 30
0.0
 10
144.8968359088
 20
87.6637161916
 30
0.0
 10
144.8837004094
 20
87.6776581336
 30
0.0
 10
144.8700550156
 20
87.6860148712
 30
0.0
 10
144.8499828697
 20
87.6886022243
 30
0.0
 10
144.8366494398
 20
87.6793264534
 30
0.0
 10
144.8295420683
 20
87.6722266482
 30
0.0
  0
SPLINE
  5
4E1
100
AcDbEntity
  8
0
100
AcDbSpline
 62
7
  6
CONTINUOUS
 70
0
 71
3
 72
9
 73
5
 74
0
 42
0.0000001
 43
0.0000001
 44
0.0000000001
 40
0.0
 40
0.0
 40
0.0
 40
0.0
 40
0.3877461067
 40
1.0
 40
1.0
 40
1.0
 40
1.0
 10
149.5469376406
 20
49.807146405
 30
0.0
 10
149.5427899544
 20
49.8143244245
 30
0.0
 10
149.5361025991
 20
49.8349098518
 30
0.0
 10
149.5314063227
 20
49.8556935751
 30
0.0
 10
149.52886899
 20
49.8685355819
 30
0.0
  0
SPLINE
  5
4E2
100
AcDbEntity
  8
0
100
AcDbSpline
 62
7
  6
CONTINUOUS
 70
0
 71
3
 72
43
 73
39
 74
0
 42
0.0000001
 43
0.0000001
 44
0.0000000001
 40
0.0
 40
0.0
 40
0.0
 40
0.0
 40
0.0026572561
 40
0.0064351274
 40
0.0113308233
 40
0.0173338905
 40
0.0326090781
 40
0.0521266644
 40
0.0757116635
 40
0.1031487827
 40
0.134189794
 40
0.1685524968
 40
0.2459628762
 40
0.3325682244
 40
0.4252215007
 40
0.5205550927
 40
0.6151043521
 40
0.6610062625
 40
0.7054327653
 40
0.7479792908
 40
0.7882578293
 40
0.8259026439
 40
0.8605704421
 40
0.8919454597
 40
0.9197435066
 40
0.9437107339
 40
0.954188927
 40
0.9636302813
 40
0.972014907
 40
0.9793234681
 40
0.985538966
 40
0.9906496321
 40
0.9946451396
 40
0.9975188792
 40
0.9985364575
 40
0.9992777023
 40
0.9997515915
 40
1.0
 40
1.0
 40
1.0
 40
1.0
 10
149.52886899
 20
49.8685355819
 30
0.0
 10
149.5224556321
 20
49.900995017
 30
0.0
 10
149.5112205241
 20
49.9804086131
 30
0.0
 10
149.4965588714
 20
50.1207217264
 30
0.0
 10
149.48177357
 20
50.302890126
 30
0.0
 10
149.4600666168
 20
50.6280743519
 30
0.0
 10
149.434142691
 20
51.1354106808
 30
0.0
 10
149.4044797469
 20
51.8617008221
 30
0.0
 10
149.3746538781
 20
52.739529269
 30
0.0
 10
149.3446640226
 20
53.7609036796
 30
0.0
 10
149.3145934384
 20
54.916526246
 30
0.0
 10
149.272742921
 20
56.6942912192
 30
0.0
 10
149.2216323743
 20
59.1638847107
 30
0.0
 10
149.1621493819
 20
62.3592578444
 30
0.0
 10
149.1025292839
 20
65.7778361433
 30
0.0
 10
149.0428392157
 20
69.2953412896
 30
0.0
 10
148.9926363314
 20
72.230797032
 30
0.0
 10
148.9519121338
 20
74.5324497621
 30
0.0
 10
148.9216790169
 20
76.1866720769
 30
0.0
 10
148.8914609632
 20
77.77086289
 30
0.0
 10
148.8612616186
 20
79.2705954858
 30
0.0
 10
148.8310908439
 20
80.6722053179
 30
0.0
 10
148.800957913
 20
81.9629258184
 30
0.0
 10
148.7708823113
 20
83.1310041618
 30
0.0
 10
148.7408831211
 20
84.1657965272
 30
0.0
 10
148.7149716955
 20
84.9403954202
 30
0.0
 10
148.6938716854
 20
85.4864472108
 30
0.0
 10
148.6787813134
 20
85.8385563559
 30
0.0
 10
148.6637232353
 20
86.1511585463
 30
0.0
 10
148.6487073061
 20
86.4235482104
 30
0.0
 10
148.6337578946
 20
86.6550920206
 30
0.0
 10
148.6189071724
 20
86.8453274477
 30
0.0
 10
148.604287627
 20
86.9937215878
 30
0.0
 10
148.5912325056
 20
87.0912375704
 30
0.0
 10
148.5803924639
 20
87.147735973
 30
0.0
 10
148.5727458969
 20
87.1748447
 30
0.0
 10
148.566693439
 20
87.1913498609
 30
0.0
 10
148.5594130553
 20
87.199023471
 30
0.0
 10
148.5563199858
 20
87.199023471
 30
0.0
  0
SPLINE
  5
4E3
100
AcDbEntity
  8
0
100
AcDbSpline
 62
7
  6
CONTINUOUS
 70
0
 71
3
 72
11
 73
7
 74
0
 42
0.0000001
 43
0.0000001
 44
0.0000000001
 40
0.0
 40
0.0
 40
0.0
 40
0.0
 40
0.2755017828
 40
0.5404541647
 40
0.7846274467
 40
1.0
 40
1.0
 40
1.0
 40
1.0
 10
132.7935866471
 20
60.6289657859
 30
0.0
 10
132.7722345439
 20
60.4998487312
 30
0.0
 10
132.7320096119
 20
60.2462026578
 30
0.0
 10
132.7054901876
 20
59.8735567137
 30
0.0
 10
132.7282219183
 20
59.5289835359
 30
0.0
 10
132.7702887413
 20
59.3143718341
 30
0.0
 10
132.7935866471
 20
59.2147522236
 30
0.0
  0
SPLINE
  5
4E4
100
AcDbEntity
  8
0
100
AcDbSpline
 62
7
  6
CONTINUOUS
 70
0
 71
3
 72
9
 73
5
 74
0
 42
0.0000001
 43
0.0000001
 44
0.0000000001
 40
0.0
 40
0.0
 40
0.0
 40
0.0
 40
0.2509543595
 40
1.0
 40
1.0
 40
1.0
 40
1.0
 10
132.7935866471
 20
59.2147522236
 30
0.0
 10
132.8003005454
 20
59.1860442382
 30
0.0
 10
132.8253295964
 20
59.0712476149
 30
0.0
 10
132.8439499107
 20
58.9550930553
 30
0.0
 10
132.8549188242
 20
58.8677799777
 30
0.0
  0
SPLINE
  5
4E5
100
AcDbEntity
  8
0
100
AcDbSpline
 62
7
  6
CONTINUOUS
 70
0
 71
3
 72
36
 73
32
 74
0
 42
0.0000001
 43
0.0000001
 44
0.0000000001
 40
0.0
 40
0.0
 40
0.0
 40
0.0
 40
0.0563233297
 40
0.1222616201
 40
0.1961956424
 40
0.2763039511
 40
0.3606155519
 40
0.4470548514
 40
0.5334941417
 40
0.6178056267
 40
0.697913981
 40
0.7357706874
 40
0.771847488
 40
0.8059230843
 40
0.8377866869
 40
0.8672426999
 40
0.8941093942
 40
0.9182214861
 40
0.9394311425
 40
0.9576074851
 40
0.9655230231
 40
0.9726408138
 40
0.9789491418
 40
0.9844387647
 40
0.9891028254
 40
0.9929349434
 40
0.9959299446
 40
0.9980878118
 40
0.9994175553
 40
0.9997867658
 40
1.0
 40
1.0
 40
1.0
 40
1.0
 10
153.3563199858
 20
53.370410693
 30
0.0
 10
153.3379249745
 20
54.0056111051
 30
0.0
 10
153.3024898633
 20
55.3845765442
 30
0.0
 10
153.2535115866
 20
57.5976094171
 30
0.0
 10
153.2043471887
 20
60.0790505963
 30
0.0
 10
153.1550588466
 20
62.7678222666
 30
0.0
 10
153.1057049559
 20
65.597705566
 30
0.0
 10
153.056320056
 20
68.4990278743
 30
0.0
 10
153.0069360082
 20
71.4003489213
 30
0.0
 10
152.9575796126
 20
74.2302311942
 30
0.0
 10
152.9157587123
 20
76.5120292344
 30
0.0
 10
152.8819201161
 20
78.2496738503
 30
0.0
 10
152.8570299077
 20
79.4680301581
 30
0.0
 10
152.8321546393
 20
80.6187548993
 30
0.0
 10
152.8072957895
 20
81.6947626173
 30
0.0
 10
152.7824615079
 20
82.6894134459
 30
0.0
 10
152.757658912
 20
83.5965793051
 30
0.0
 10
152.7329050926
 20
84.4106693362
 30
0.0
 10
152.7082132814
 20
85.1266616799
 30
0.0
 10
152.6868651207
 20
85.6599178651
 30
0.0
 10
152.669480087
 20
86.0342032004
 30
0.0
 10
152.6570680773
 20
86.2746706343
 30
0.0
 10
152.6446786465
 20
86.4877307567
 30
0.0
 10
152.6323245989
 20
86.6730494709
 30
0.0
 10
152.620016114
 20
86.8303830353
 30
0.0
 10
152.6078224895
 20
86.9594230517
 30
0.0
 10
152.5957242111
 20
87.0601981892
 30
0.0
 10
152.5841032072
 20
87.1321857488
 30
0.0
 10
152.573438851
 20
87.1749356549
 30
0.0
 10
152.564545787
 20
87.194311597
 30
0.0
 10
152.5587261906
 20
87.1990234707
 30
0.0
 10
152.5563203806
 20
87.199023471
 30
0.0
  0
SPLINE
  5
4E6
100
AcDbEntity
  8
0
100
AcDbSpline
 62
7
  6
CONTINUOUS
 70
0
 71
3
 72
38
 73
34
 74
0
 42
0.0000001
 43
0.0000001
 44
0.0000000001
 40
0.0
 40
0.0
 40
0.0
 40
0.0
 40
0.0094045285
 40
0.0229546193
 40
0.0405354427
 40
0.0620021885
 40
0.0871719243
 40
0.1158319629
 40
0.1826177727
 40
0.2600913003
 40
0.3456185068
 40
0.4362913963
 40
0.529027063
 40
0.6206720894
 40
0.7081102401
 40
0.7493145949
 40
0.7883688251
 40
0.8249407382
 40
0.8587193688
 40
0.8894158949
 40
0.9167705878
 40
0.9405501509
 40
0.9605524203
 40
0.9690836557
 40
0.9766099672
 40
0.9831150739
 40
0.988587152
 40
0.9930153092
 40
0.996391122
 40
0.997684032
 40
0.9987143641
 40
0.9994842509
 40
1.0
 40
1.0
 40
1.0
 40
1.0
 10
153.3563199858
 20
50.0292518686
 30
0.0
 10
153.3437121167
 20
50.1451206106
 30
0.0
 10
153.3220833396
 20
50.4288723603
 30
0.0
 10
153.2937965735
 20
50.9304246318
 30
0.0
 10
153.2652999472
 20
51.5816817077
 30
0.0
 10
153.2364413014
 20
52.3770186414
 30
0.0
 10
153.2074648906
 20
53.3097420355
 30
0.0
 10
153.1665865294
 20
54.8040035748
 30
0.0
 10
153.1169483514
 20
56.9464695336
 30
0.0
 10
153.0595272355
 20
59.7936937954
 30
0.0
 10
153.0019051229
 20
62.9370074247
 30
0.0
 10
152.9441490721
 20
66.2694949826
 30
0.0
 10
152.8863541207
 20
69.6778126142
 30
0.0
 10
152.8285762337
 20
73.0460357678
 30
0.0
 10
152.7795941488
 20
75.7756753612
 30
0.0
 10
152.7398234367
 20
77.8536025124
 30
0.0
 10
152.7106040327
 20
79.3012174667
 30
0.0
 10
152.681409497
 20
80.656784266
 30
0.0
 10
152.6522501982
 20
81.908747111
 30
0.0
 10
152.6231355487
 20
83.0464460423
 30
0.0
 10
152.5940981555
 20
84.0601819266
 30
0.0
 10
152.5651546253
 20
84.941321995
 30
0.0
 10
152.5400468798
 20
85.5891720188
 30
0.0
 10
152.5194950594
 20
86.0355993276
 30
0.0
 10
152.50494385
 20
86.3148477394
 30
0.0
 10
152.4904332289
 20
86.5561254396
 30
0.0
 10
152.4760149201
 20
86.7589386991
 30
0.0
 10
152.4616847899
 20
86.9228466378
 30
0.0
 10
152.449131906
 20
87.0349257029
 30
0.0
 10
152.4385569755
 20
87.1047561326
 30
0.0
 10
152.4314346697
 20
87.1424619757
 30
0.0
 10
152.424391637
 20
87.1702522419
 30
0.0
 10
152.4188983895
 20
87.1853652447
 30
0.0
 10
152.4157023431
 20
87.1909006297
 30
0.0
  0
SPLINE
  5
4E7
100
AcDbEntity
  8
0
100
AcDbSpline
 62
7
  6
CONTINUOUS
 70
0
 71
3
 72
9
 73
5
 74
0
 42
0.0000001
 43
0.0000001
 44
0.0000000001
 40
0.0
 40
0.0
 40
0.0
 40
0.0
 40
0.1929779534
 40
1.0
 40
1.0
 40
1.0
 40
1.0
 10
151.5469382136
 20
49.8071684517
 30
0.0
 10
151.5459977623
 20
49.8087970302
 30
0.0
 10
151.5416688757
 20
49.8175473668
 30
0.0
 10
151.5388087349
 20
49.8269303389
 30
0.0
 10
151.5367121582
 20
49.8345103546
 30
0.0
  0
SPLINE
  5
4E8
100
AcDbEntity
  8
0
100
AcDbSpline
 62
7
  6
CONTINUOUS
 70
0
 71
3
 72
45
 73
41
 74
0
 42
0.0000001
 43
0.0000001
 44
0.0000000001
 40
0.0
 40
0.0
 40
0.0
 40
0.0
 40
0.0020989947
 40
0.0053357425
 40
0.0097089947
 40
0.0152113407
 40
0.0218329191
 40
0.0295580275
 40
0.0482469069
 40
0.0711080561
 40
0.09793192
 40
0.1284695179
 40
0.162439573
 40
0.199528213
 40
0.2393914432
 40
0.3259466328
 40
0.4189087104
 40
0.51484495
 40
0.610212264
 40
0.6565777551
 40
0.7014888186
 40
0.7445302091
 40
0.7853040017
 40
0.8234320077
 40
0.8585624655
 40
0.8903704912
 40
0.9185610177
 40
0.9428751398
 40
0.953506531
 40
0.9630883166
 40
0.9715971966
 40
0.9790144417
 40
0.9853242884
 40
0.9905116779
 40
0.9945666761
 40
0.9974845933
 40
0.9985175825
 40
0.9992693253
 40
0.9997492204
 40
1.0
 40
1.0
 40
1.0
 40
1.0
 10
151.5367121582
 20
49.8345103546
 30
0.0
 10
151.529738303
 20
49.8597238039
 30
0.0
 10
151.5185118276
 20
49.9254624777
 30
0.0
 10
151.5038203046
 20
50.0455089954
 30
0.0
 10
151.4890731084
 20
50.2083173261
 30
0.0
 10
151.4740396705
 20
50.413365131
 30
0.0
 10
151.4589566316
 20
50.6602966369
 30
0.0
 10
151.4373536274
 20
51.0714585348
 30
0.0
 10
151.4111765367
 20
51.6850386835
 30
0.0
 10
151.381117114
 20
52.5366667845
 30
0.0
 10
151.3509324269
 20
53.5360431332
 30
0.0
 10
151.3206367874
 20
54.6739219254
 30
0.0
 10
151.2902811627
 20
55.939771435
 30
0.0
 10
151.2598789048
 20
57.3218769793
 30
0.0
 10
151.2181501156
 20
59.3592671841
 30
0.0
 10
151.1669286895
 20
62.0929662941
 30
0.0
 10
151.1068423426
 20
65.5254655578
 30
0.0
 10
151.0466939845
 20
69.0678069227
 30
0.0
 10
150.9961203935
 20
72.0294858695
 30
0.0
 10
150.9550902011
 20
74.3552990498
 30
0.0
 10
150.9246145665
 20
76.0290496368
 30
0.0
 10
150.8941535012
 20
77.6330982349
 30
0.0
 10
150.863712785
 20
79.1525928607
 30
0.0
 10
150.8332990394
 20
80.5734718174
 30
0.0
 10
150.8029235468
 20
81.8825822386
 30
0.0
 10
150.7726083677
 20
83.0678056193
 30
0.0
 10
150.7423654175
 20
84.1181757538
 30
0.0
 10
150.7162497058
 20
84.9046224416
 30
0.0
 10
150.6949785283
 20
85.459167186
 30
0.0
 10
150.6797698521
 20
85.8168135963
 30
0.0
 10
150.6645898765
 20
86.1343612336
 30
0.0
 10
150.6494492996
 20
86.4110844511
 30
0.0
 10
150.6343819695
 20
86.6463313484
 30
0.0
 10
150.6194112116
 20
86.8396191932
 30
0.0
 10
150.6046697497
 20
86.9903983097
 30
0.0
 10
150.5915164063
 20
87.0894950607
 30
0.0
 10
150.5805986947
 20
87.1469167418
 30
0.0
 10
150.5728866102
 20
87.174458113
 30
0.0
 10
150.5667965962
 20
87.1911975489
 30
0.0
 10
150.5594452986
 20
87.1990000802
 30
0.0
 10
150.5563197885
 20
87.1990000803
 30
0.0
  0
SPLINE
  5
4E9
100
AcDbEntity
  8
0
100
AcDbSpline
 62
7
  6
CONTINUOUS
 70
0
 71
3
 72
9
 73
5
 74
0
 42
0.0000001
 43
0.0000001
 44
0.0000000001
 40
0.0
 40
0.0
 40
0.0
 40
0.0
 40
0.2492452633
 40
1.0
 40
1.0
 40
1.0
 40
1.0
 10
132.8549188242
 20
48.4317821545
 30
0.0
 10
132.8512690036
 20
48.4027294075
 30
0.0
 10
132.8353004216
 20
48.2863418473
 30
0.0
 10
132.8136714406
 20
48.1706905593
 30
0.0
 10
132.7935866471
 20
48.0848099087
 30
0.0
  0
SPLINE
  5
4EA
100
AcDbEntity
  8
0
100
AcDbSpline
 62
7
  6
CONTINUOUS
 70
0
 71
3
 72
15
 73
11
 74
0
 42
0.0000001
 43
0.0000001
 44
0.0000000001
 40
0.0
 40
0.0
 40
0.0
 40
0.0
 40
0.2136620392
 40
0.4035928227
 40
0.5667133004
 40
0.7011823551
 40
0.8070993794
 40
0.8875613106
 40
0.9486672754
 40
1.0
 40
1.0
 40
1.0
 40
1.0
 10
132.7935866471
 20
48.0848099087
 30
0.0
 10
132.7833723924
 20
48.0411347356
 30
0.0
 10
132.7635757499
 20
47.9587581174
 30
0.0
 10
132.7371493268
 20
47.8427402001
 30
0.0
 10
132.7193362853
 20
47.7419027633
 30
0.0
 10
132.7117785533
 20
47.657325732
 30
0.0
 10
132.7165630444
 20
47.5897417752
 30
0.0
 10
132.732333514
 20
47.5394960405
 30
0.0
 10
132.758816326
 20
47.506883213
 30
0.0
 10
132.7828104647
 20
47.499023471
 30
0.0
 10
132.7935866471
 20
47.499023471
 30
0.0
  0
SPLINE
  5
4EB
100
AcDbEntity
  8
0
100
AcDbSpline
 62
7
  6
CONTINUOUS
 70
0
 71
3
 72
45
 73
41
 74
0
 42
0.0000001
 43
0.0000001
 44
0.0000000001
 40
0.0
 40
0.0
 40
0.0
 40
0.0
 40
0.0002503089
 40
0.0007286651
 40
0.0014773585
 40
0.0025056269
 40
0.0054110751
 40
0.009449809
 40
0.0146151946
 40
0.0208983338
 40
0.0282854884
 40
0.0367590764
 40
0.0463010733
 40
0.0568898416
 40
0.0811057607
 40
0.1091861748
 40
0.1408723619
 40
0.1758721786
 40
0.2138646172
 40
0.2544989587
 40
0.2974009124
 40
0.3421759833
 40
0.3884109908
 40
0.4835484782
 40
0.5793156523
 40
0.6721913531
 40
0.7587610123
 40
0.7986745343
 40
0.8358426851
 40
0.8699230787
 40
0.9006030283
 40
0.927599054
 40
0.9506635691
 40
0.969586071
 40
0.9774376624
 40
0.9841928839
 40
0.9898365278
 40
0.9943557037
 40
0.9977440423
 40
1.0
 40
1.0
 40
1.0
 40
1.0
 10
147.4063203622
 20
49.7990355641
 30
0.0
 10
147.4032014396
 20
49.7990403036
 30
0.0
 10
147.3958745765
 20
49.8068138236
 30
0.0
 10
147.3897907389
 20
49.8234897542
 30
0.0
 10
147.3820986436
 20
49.850906311
 30
0.0
 10
147.3711980305
 20
49.9080625019
 30
0.0
 10
147.3580776463
 20
50.0067191279
 30
0.0
 10
147.3433717775
 20
50.1568318258
 30
0.0
 10
147.3284320362
 20
50.3492651454
 30
0.0
 10
147.3133971123
 20
50.583475954
 30
0.0
 10
147.2982929975
 20
50.8589881249
 30
0.0
 10
147.2831457568
 20
51.1751521598
 30
0.0
 10
147.2679697591
 20
51.5312496065
 30
0.0
 10
147.2467483523
 20
52.0834163588
 30
0.0
 10
147.2206871714
 20
52.8665552798
 30
0.0
 10
147.1905137389
 20
53.9125701181
 30
0.0
 10
147.1602651574
 20
55.0930029357
 30
0.0
 10
147.1299566628
 20
56.3969771741
 30
0.0
 10
147.0996114617
 20
57.8124748492
 30
0.0
 10
147.0692377883
 20
59.3264559233
 30
0.0
 10
147.0388442496
 20
60.9249662741
 30
0.0
 10
147.0084366988
 20
62.5932743787
 30
0.0
 10
146.9674914441
 20
64.9123689126
 30
0.0
 10
146.9170211493
 20
67.8667711062
 30
0.0
 10
146.8570013554
 20
71.4022522123
 30
0.0
 10
146.7970420157
 20
74.8309609277
 30
0.0
 10
146.7459402764
 20
77.5637638798
 30
0.0
 10
146.7043181259
 20
79.6024855075
 30
0.0
 10
146.6739805328
 20
80.9872673747
 30
0.0
 10
146.6436877826
 20
82.2569675402
 30
0.0
 10
146.6134555988
 20
83.3998817578
 30
0.0
 10
146.5833275132
 20
84.4054853729
 30
0.0
 10
146.5533213308
 20
85.2645142406
 30
0.0
 10
146.5272046298
 20
85.8849816938
 30
0.0
 10
146.5056714589
 20
86.3022136353
 30
0.0
 10
146.4906065653
 20
86.5540980532
 30
0.0
 10
146.4756028952
 20
86.7643629812
 30
0.0
 10
146.4608331037
 20
86.9326070152
 30
0.0
 10
146.4461517121
 20
87.0583541746
 30
0.0
 10
146.4349025424
 20
87.1279241607
 30
0.0
 10
146.4281158493
 20
87.1552025179
 30
0.0
  0
SPLINE
  5
4EC
100
AcDbEntity
  8
0
100
AcDbSpline
 62
7
  6
CONTINUOUS
 70
0
 71
3
 72
9
 73
5
 74
0
 42
0.0000001
 43
0.0000001
 44
0.0000000001
 40
0.0
 40
0.0
 40
0.0
 40
0.0
 40
0.3170634826
 40
1.0
 40
1.0
 40
1.0
 40
1.0
 10
146.4281158493
 20
87.1552025179
 30
0.0
 10
146.4271505876
 20
87.1590822796
 30
0.0
 10
146.4238704331
 20
87.1712237522
 30
0.0
 10
146.4200119996
 20
87.1834313902
 30
0.0
 10
146.4157021292
 20
87.19088683
 30
0.0
  0
SPLINE
  5
4ED
100
AcDbEntity
  8
0
100
AcDbSpline
 62
7
  6
CONTINUOUS
 70
0
 71
3
 72
9
 73
5
 74
0
 42
0.0000001
 43
0.0000001
 44
0.0000000001
 40
0.0
 40
0.0
 40
0.0
 40
0.0
 40
0.2008052082
 40
1.0
 40
1.0
 40
1.0
 40
1.0
 10
145.546937823
 20
49.8071681258
 30
0.0
 10
145.5461788278
 20
49.8084822522
 30
0.0
 10
145.5427422067
 20
49.8152238497
 30
0.0
 10
145.5403044762
 20
49.8224213268
 30
0.0
 10
145.5385422229
 20
49.8281983527
 30
0.0
  0
SPLINE
  5
4EE
100
AcDbEntity
  8
0
100
AcDbSpline
 62
7
  6
CONTINUOUS
 70
0
 71
3
 72
45
 73
41
 74
0
 42
0.0000001
 43
0.0000001
 44
0.0000000001
 40
0.0
 40
0.0
 40
0.0
 40
0.0
 40
0.0019683015
 40
0.0050774206
 40
0.0093275524
 40
0.0147119097
 40
0.0212209218
 40
0.0288390736
 40
0.047332055
 40
0.070021985
 40
0.096700342
 40
0.1271186381
 40
0.1609953444
 40
0.1980166527
 40
0.2378378127
 40
0.3243800345
 40
0.4174143593
 40
0.5134926323
 40
0.609053249
 40
0.6555282194
 40
0.7005541466
 40
0.7437126104
 40
0.7846034823
 40
0.8228463508
 40
0.8580861651
 40
0.8899966964
 40
0.9182807705
 40
0.9426766303
 40
0.9533449005
 40
0.9629595286
 40
0.9714977112
 40
0.9789413794
 40
0.9852731941
 40
0.9904784864
 40
0.9945483193
 40
0.9974763745
 40
0.9985125412
 40
0.9992668005
 40
0.9997484565
 40
1.0
 40
1.0
 40
1.0
 40
1.0
 10
145.5385422229
 20
49.8281983527
 30
0.0
 10
145.5313834271
 20
49.8516663463
 30
0.0
 10
145.5202087903
 20
49.9142128527
 30
0.0
 10
145.5054921595
 20
50.0294540123
 30
0.0
 10
145.4907737883
 20
50.1876957887
 30
0.0
 10
145.4757171058
 20
50.3883510215
 30
0.0
 10
145.4606188898
 20
50.6311126236
 30
0.0
 10
145.4389547383
 20
51.0371570885
 30
0.0
 10
145.4127305918
 20
51.6449294576
 30
0.0
 10
145.3826258023
 20
52.4903112736
 30
0.0
 10
145.3523932057
 20
53.4844241954
 30
0.0
 10
145.3220460407
 20
54.6180352645
 30
0.0
 10
145.2916370688
 20
55.8806146967
 30
0.0
 10
145.2611806133
 20
57.2604337213
 30
0.0
 10
145.2193633461
 20
59.2966540775
 30
0.0
 10
145.1680409587
 20
62.031045748
 30
0.0
 10
145.107848765
 20
65.4666554758
 30
0.0
 10
145.0475927687
 20
69.0146981771
 30
0.0
 10
144.996933247
 20
71.9824410845
 30
0.0
 10
144.9558313988
 20
74.3138681518
 30
0.0
 10
144.9252994642
 20
75.9921680877
 30
0.0
 10
144.8947816861
 20
77.60084857
 30
0.0
 10
144.8642842176
 20
79.1249602619
 30
0.0
 10
144.8338144627
 20
80.5503428344
 30
0.0
 10
144.8033820809
 20
81.8637556046
 30
0.0
 10
144.7730102752
 20
83.0529939264
 30
0.0
 10
144.7427123595
 20
84.1070111405
 30
0.0
 10
144.7165463826
 20
84.8962404636
 30
0.0
 10
144.6952376045
 20
85.452770592
 30
0.0
 10
144.6800001578
 20
85.8117141422
 30
0.0
 10
144.6647906371
 20
86.1304214875
 30
0.0
 10
144.649623666
 20
86.4081619315
 30
0.0
 10
144.6345280905
 20
86.6442764136
 30
0.0
 10
144.6195270687
 20
86.8382803781
 30
0.0
 10
144.604760091
 20
86.989619658
 30
0.0
 10
144.5915857595
 20
87.089087372
 30
0.0
 10
144.5806426379
 20
87.146713143
 30
0.0
 10
144.572916523
 20
87.1743563443
 30
0.0
 10
144.56681566
 20
87.1911535947
 30
0.0
 10
144.5594551789
 20
87.199002841
 30
0.0
 10
144.5563196013
 20
87.199007207
 30
0.0
  0
SPLINE
  5
4EF
100
AcDbEntity
  8
0
100
AcDbSpline
 62
7
  6
CONTINUOUS
 70
0
 71
3
 72
43
 73
39
 74
0
 42
0.0000001
 43
0.0000001
 44
0.0000000001
 40
0.0
 40
0.0
 40
0.0
 40
0.0
 40
0.0002479279
 40
0.0007206083
 40
0.001460514
 40
0.0024764821
 40
0.0053450548
 40
0.0093318172
 40
0.0144327638
 40
0.020636684
 40
0.027930199
 40
0.0362987216
 40
0.0457225378
 40
0.0561800401
 40
0.0801027182
 40
0.1078488162
 40
0.1391677555
 40
0.173775462
 40
0.2113566776
 40
0.2515710891
 40
0.2940529421
 40
0.3384159264
 40
0.384257611
 40
0.4786997672
 40
0.5739543478
 40
0.6665667259
 40
0.7531784719
 40
0.8306483886
 40
0.8650618296
 40
0.8961680873
 40
0.9236859835
 40
0.9473646957
 40
0.9669906445
 40
0.9823880354
 40
0.9884558559
 40
0.9934195618
 40
0.9972695893
 40
1.0
 40
1.0
 40
1.0
 40
1.0
 10
145.4063198058
 20
49.7990397837
 30
0.0
 10
145.4032331718
 20
49.7990356021
 30
0.0
 10
145.3959487918
 20
49.8066645937
 30
0.0
 10
145.3899021893
 20
49.8231406288
 30
0.0
 10
145.3822651381
 20
49.8501885173
 30
0.0
 10
145.3714425846
 20
49.9065821068
 30
0.0
 10
145.3584071211
 20
50.0038886603
 30
0.0
 10
145.3437983163
 20
50.1519676129
 30
0.0
 10
145.3289661488
 20
50.3418010849
 30
0.0
 10
145.3140325789
 20
50.5728588145
 30
0.0
 10
145.2990288225
 20
50.8446766111
 30
0.0
 10
145.2839880526
 20
51.1566272353
 30
0.0
 10
145.2689157292
 20
51.5080087868
 30
0.0
 10
145.2478351553
 20
52.0529504421
 30
0.0
 10
145.2219541896
 20
52.8259777674
 30
0.0
 10
145.1919842511
 20
53.8587199806
 30
0.0
 10
145.1619418233
 20
55.0245354199
 30
0.0
 10
145.1318409996
 20
56.3128301161
 30
0.0
 10
145.1017013509
 20
57.7118978096
 30
0.0
 10
145.0715348178
 20
59.2090170145
 30
0.0
 10
145.0413485645
 20
60.7905831523
 30
0.0
 10
145.0111472035
 20
62.4422191928
 30
0.0
 10
144.9704640541
 20
64.7406632788
 30
0.0
 10
144.9203096595
 20
67.6726253796
 30
0.0
 10
144.8606809344
 20
71.1867930678
 30
0.0
 10
144.8011205152
 20
74.6034615334
 30
0.0
 10
144.7416962233
 20
77.7986825109
 30
0.0
 10
144.690642834
 20
80.2693705697
 30
0.0
 10
144.6488451153
 20
82.0490638216
 30
0.0
 10
144.618802945
 20
83.206969312
 30
0.0
 10
144.5888434238
 20
84.2311818566
 30
0.0
 10
144.5590407575
 20
85.1124064571
 30
0.0
 10
144.5294001146
 20
85.8426324602
 30
0.0
 10
144.5035013376
 20
86.3535761644
 30
0.0
 10
144.4818317969
 20
86.6818971795
 30
0.0
 10
144.4670432794
 20
86.8665961267
 30
0.0
 10
144.4523905524
 20
87.0095620147
 30
0.0
 10
144.44116807
 20
87.0907849416
 30
0.0
 10
144.4348083857
 20
87.1241776194
 30
0.0
  0
SPLINE
  5
4F0
100
AcDbEntity
  8
0
100
AcDbSpline
 62
7
  6
CONTINUOUS
 70
0
 71
3
 72
9
 73
5
 74
0
 42
0.0000001
 43
0.0000001
 44
0.0000000001
 40
0.0
 40
0.0
 40
0.0
 40
0.0
 40
0.588564968
 40
1.0
 40
1.0
 40
1.0
 40
1.0
 10
144.4348083857
 20
87.1241776194
 30
0.0
 10
144.4325381989
 20
87.1360976476
 30
0.0
 10
144.4282575519
 20
87.1562549799
 30
0.0
 10
144.4224193381
 20
87.1761203279
 30
0.0
 10
144.419110742
 20
87.1839309001
 30
0.0
  0
SPLINE
  5
4F1
100
AcDbEntity
  8
0
100
AcDbSpline
 62
7
  6
CONTINUOUS
 70
0
 71
3
 72
8
 73
4
 74
0
 42
0.0000001
 43
0.0000001
 44
0.0000000001
 40
0.0
 40
0.0
 40
0.0
 40
0.0
 40
1.0
 40
1.0
 40
1.0
 40
1.0
 10
144.419110742
 20
87.1839309001
 30
0.0
 10
144.4181012227
 20
87.1863140632
 30
0.0
 10
144.4169958313
 20
87.1886656081
 30
0.0
 10
144.4157016024
 20
87.1909069396
 30
0.0
  0
SPLINE
  5
4F2
100
AcDbEntity
  8
0
100
AcDbSpline
 62
7
  6
CONTINUOUS
 70
0
 71
3
 72
49
 73
45
 74
0
 42
0.0000001
 43
0.0000001
 44
0.0000000001
 40
0.0
 40
0.0
 40
0.0
 40
0.0
 40
0.0002977834
 40
0.0008693066
 40
0.0017232393
 40
0.0028614426
 40
0.0042843626
 40
0.0059919729
 40
0.0102588986
 40
0.0156530464
 40
0.0221633109
 40
0.0297770527
 40
0.0384763807
 40
0.0482420599
 40
0.0590536128
 40
0.083712077
 40
0.1122318207
 40
0.1443547055
 40
0.179789266
 40
0.2182134211
 40
0.2592754649
 40
0.3025985755
 40
0.3477842152
 40
0.3944146148
 40
0.4902728303
 40
0.5866120421
 40
0.6798282106
 40
0.7241625591
 40
0.7664167846
 40
0.806189098
 40
0.8431010549
 40
0.8767990307
 40
0.9069585355
 40
0.9332898202
 40
0.9555376036
 40
0.9650603511
 40
0.9734841705
 40
0.980788863
 40
0.9869551459
 40
0.991969048
 40
0.9958189737
 40
0.9984955154
 40
0.9993935587
 40
1.0
 40
1.0
 40
1.0
 40
1.0
 10
145.0219931867
 20
49.1333502701
 30
0.0
 10
145.0193193373
 20
49.1360241196
 30
0.0
 10
145.0160649485
 20
49.1472374666
 30
0.0
 10
145.0114111315
 20
49.1681792909
 30
0.0
 10
145.0069740023
 20
49.2006736158
 30
0.0
 10
145.0022519898
 20
49.2436884022
 30
0.0
 10
144.9975569905
 20
49.2977304537
 30
0.0
 10
144.9907063808
 20
49.3914017627
 30
0.0
 10
144.9824770466
 20
49.5355501067
 30
0.0
 10
144.9730494416
 20
49.7406817549
 30
0.0
 10
144.9635733672
 20
49.9883550736
 30
0.0
 10
144.954049908
 20
50.2780203579
 30
0.0
 10
144.9444979469
 20
50.6090437939
 30
0.0
 10
144.9349223889
 20
50.9806884788
 30
0.0
 10
144.9215418128
 20
51.5549574039
 30
0.0
 10
144.9050862855
 20
52.3673647551
 30
0.0
 10
144.8860063227
 20
53.4503911391
 30
0.0
 10
144.8668612714
 20
54.6702751886
 30
0.0
 10
144.8476612268
 20
56.0159431352
 30
0.0
 10
144.8284193685
 20
57.4751347594
 30
0.0
 10
144.8091409201
 20
59.0345065421
 30
0.0
 10
144.7898309366
 20
60.6797446587
 30
0.0
 10
144.7704929697
 20
62.3956967153
 30
0.0
 10
144.7444361461
 20
64.7787309281
 30
0.0
 10
144.7122732142
 20
67.8113093549
 30
0.0
 10
144.6739375172
 20
71.4354236792
 30
0.0
 10
144.6414557502
 20
74.4052889029
 30
0.0
 10
144.6150269515
 20
76.6883818708
 30
0.0
 10
144.5955279094
 20
78.2928539437
 30
0.0
 10
144.5760246327
 20
79.8030655891
 30
0.0
 10
144.556523636
 20
81.2046163156
 30
0.0
 10
144.5370330947
 20
82.4840863999
 30
0.0
 10
144.5175714182
 20
83.6291815989
 30
0.0
 10
144.498152008
 20
84.6288537776
 30
0.0
 10
144.4813027052
 20
85.3664684367
 30
0.0
 10
144.4675045607
 20
85.876689778
 30
0.0
 10
144.4577123178
 20
86.197193055
 30
0.0
 10
144.4479555739
 20
86.4750549518
 30
0.0
 10
144.4382220322
 20
86.7095810319
 30
0.0
 10
144.4286193739
 20
86.9002129175
 30
0.0
 10
144.4190393528
 20
87.0464276501
 30
0.0
 10
144.4107888088
 20
87.1404071991
 30
0.0
 10
144.4034322696
 20
87.1929735737
 30
0.0
 10
144.3997623863
 20
87.2117726853
 30
0.0
 10
144.3975958987
 20
87.2191625348
 30
0.0
  0
SPLINE
  5
4F3
100
AcDbEntity
  8
0
100
AcDbSpline
 62
7
  6
CONTINUOUS
 70
0
 71
3
 72
9
 73
5
 74
0
 42
0.0000001
 43
0.0000001
 44
0.0000000001
 40
0.0
 40
0.0
 40
0.0
 40
0.0
 40
0.3034084236
 40
1.0
 40
1.0
 40
1.0
 40
1.0
 10
144.3975958987
 20
87.2191625348
 30
0.0
 10
144.3973095402
 20
87.2201392985
 30
0.0
 10
144.396309911
 20
87.2233368036
 30
0.0
 10
144.3951209693
 20
87.2265092901
 30
0.0
 10
144.3939544489
 20
87.2285342468
 30
0.0
  0
SPLINE
  5
4F4
100
AcDbEntity
  8
0
100
AcDbSpline
 62
7
  6
CONTINUOUS
 70
0
 71
3
 72
9
 73
5
 74
0
 42
0.0000001
 43
0.0000001
 44
0.0000000001
 40
0.0
 40
0.0
 40
0.0
 40
0.0
 40
0.3906306064
 40
1.0
 40
1.0
 40
1.0
 40
1.0
 10
147.5469384362
 20
49.8071652128
 30
0.0
 10
147.543021089
 20
49.8139436397
 30
0.0
 10
147.5366001141
 20
49.833174985
 30
0.0
 10
147.532087803
 20
49.8526411516
 30
0.0
 10
147.5296533192
 20
49.8646089471
 30
0.0
  0
SPLINE
  5
4F5
100
AcDbEntity
  8
0
100
AcDbSpline
 62
7
  6
CONTINUOUS
 70
0
 71
3
 72
44
 73
40
 74
0
 42
0.0000001
 43
0.0000001
 44
0.0000000001
 40
0.0
 40
0.0
 40
0.0
 40
0.0
 40
0.0026021901
 40
0.0063267891
 40
0.0111698012
 40
0.0171235965
 40
0.0323065211
 40
0.0517428452
 40
0.0752556512
 40
0.1026321791
 40
0.1336239437
 40
0.1679473967
 40
0.205290565
 40
0.2453130659
 40
0.3319136128
 40
0.4245974973
 40
0.519990853
 40
0.614621059
 40
0.6605688267
 40
0.7050434311
 40
0.7476385556
 40
0.7879661948
 40
0.825658914
 40
0.860372008
 40
0.8917900998
 40
0.9196269334
 40
0.9436280572
 40
0.9541216764
 40
0.9635769934
 40
0.9719734998
 40
0.9792930186
 40
0.9855180195
 40
0.9906358706
 40
0.9946373902
 40
0.9975157359
 40
0.9985346397
 40
0.9992767397
 40
0.9997511775
 40
1.0
 40
1.0
 40
1.0
 40
1.0
 10
147.5296533192
 20
49.8646089471
 30
0.0
 10
147.5231938472
 20
49.8963633748
 30
0.0
 10
147.511954813
 20
49.9744289286
 30
0.0
 10
147.497292244
 20
50.1127382524
 30
0.0
 10
147.4825014792
 20
50.2929881445
 30
0.0
 10
147.4607693435
 20
50.6157811547
 30
0.0
 10
147.434824854
 20
51.1203938349
 30
0.0
 10
147.4051484782
 20
51.843698657
 30
0.0
 10
147.3753012453
 20
52.7189536256
 30
0.0
 10
147.3452903763
 20
53.7381690883
 30
0.0
 10
147.3152006454
 20
54.8920578056
 30
0.0
 10
147.2850487337
 20
56.1700955726
 30
0.0
 10
147.2548562553
 20
57.5606196497
 30
0.0
 10
147.2134689442
 20
59.6020522033
 30
0.0
 10
147.1626356103
 20
62.3325833883
 30
0.0
 10
147.1029586677
 20
65.7525923226
 30
0.0
 10
147.0432256767
 20
69.2726073029
 30
0.0
 10
146.9929850052
 20
72.2107004346
 30
0.0
 10
146.9522301249
 20
74.5147775748
 30
0.0
 10
146.9219731086
 20
76.170952195
 30
0.0
 10
146.8917302821
 20
77.7571282063
 30
0.0
 10
146.8615069807
 20
79.2588345329
 30
0.0
 10
146.8313123092
 20
80.6623664705
 30
0.0
 10
146.8011543099
 20
81.9549221403
 30
0.0
 10
146.771055337
 20
83.1247090294
 30
0.0
 10
146.7410321133
 20
84.1610537161
 30
0.0
 10
146.7150989111
 20
84.9368327417
 30
0.0
 10
146.6939827428
 20
85.4837311352
 30
0.0
 10
146.6788814543
 20
85.8363919823
 30
0.0
 10
146.6638100084
 20
86.1494858933
 30
0.0
 10
146.6487816787
 20
86.4223074775
 30
0.0
 10
146.6338201992
 20
86.6542203991
 30
0.0
 10
146.6189552192
 20
86.8447587501
 30
0.0
 10
146.6043237419
 20
86.9933905034
 30
0.0
 10
146.591267289
 20
87.0910667386
 30
0.0
 10
146.5804192436
 20
87.1476564416
 30
0.0
 10
146.5727679942
 20
87.1748014293
 30
0.0
 10
146.5667058574
 20
87.1913312798
 30
0.0
 10
146.559418752
 20
87.199013848
 30
0.0
 10
146.5563201976
 20
87.1990180495
 30
0.0
  0
SPLINE
  5
4F6
100
AcDbEntity
  8
0
100
AcDbSpline
 62
7
  6
CONTINUOUS
 70
0
 71
3
 72
15
 73
11
 74
0
 42
0.0000001
 43
0.0000001
 44
0.0000000001
 40
0.0
 40
0.0
 40
0.0
 40
0.0
 40
0.0513330139
 40
0.1124399907
 40
0.1929031221
 40
0.29882147
 40
0.4332895869
 40
0.5964099667
 40
0.7863389907
 40
1.0
 40
1.0
 40
1.0
 40
1.0
 10
132.7935866471
 20
89.499023471
 30
0.0
 10
132.7828104059
 20
89.499023471
 30
0.0
 10
132.7588162161
 20
89.4911634183
 30
0.0
 10
132.732332049
 20
89.458550739
 30
0.0
 10
132.7165653098
 20
89.4083028461
 30
0.0
 10
132.7117780459
 20
89.3407193283
 30
0.0
 10
132.7193345718
 20
89.2561417425
 30
0.0
 10
132.7371509685
 20
89.1553055999
 30
0.0
 10
132.7635754738
 20
89.0392879247
 30
0.0
 10
132.7833724435
 20
88.9569119881
 30
0.0
 10
132.7935866471
 20
88.9132370334
 30
0.0
  0
SPLINE
  5
4F7
100
AcDbEntity
  8
0
100
AcDbSpline
 62
7
  6
CONTINUOUS
 70
0
 71
3
 72
13
 73
9
 74
0
 42
0.0000001
 43
0.0000001
 44
0.0000000001
 40
0.0
 40
0.0
 40
0.0
 40
0.0
 40
0.2512068194
 40
0.3757808297
 40
0.500000005
 40
0.6242191804
 40
0.7487931898
 40
1.0
 40
1.0
 40
1.0
 40
1.0
 10
138.0441846271
 20
88.9132370334
 30
0.0
 10
138.3044277287
 20
88.0049898022
 30
0.0
 10
138.6165919559
 20
86.6211694846
 30
0.0
 10
138.831375067
 20
84.7515595752
 30
0.0
 10
138.8857258075
 20
83.3482658177
 30
0.0
 10
138.8313750685
 20
81.9449720637
 30
0.0
 10
138.6165919614
 20
80.0753621912
 30
0.0
 10
138.3044277192
 20
78.6915419165
 30
0.0
 10
138.0441846271
 20
77.7832947185
 30
0.0
  0
SPLINE
  5
4F8
100
AcDbEntity
  8
0
100
AcDbSpline
 62
7
  6
CONTINUOUS
 70
0
 71
3
 72
11
 73
7
 74
0
 42
0.0000001
 43
0.0000001
 44
0.0000000001
 40
0.0
 40
0.0
 40
0.0
 40
0.0
 40
0.2502545852
 40
0.5000000008
 40
0.7497454159
 40
1.0
 40
1.0
 40
1.0
 40
1.0
 10
132.8549188242
 20
78.1302669644
 30
0.0
 10
132.9637113621
 20
78.9962607884
 30
0.0
 10
133.1334954342
 20
80.7330089887
 30
0.0
 10
133.2215188312
 20
83.3482658825
 30
0.0
 10
133.1334954317
 20
85.9635227724
 30
0.0
 10
132.9637113616
 20
87.7002709674
 30
0.0
 10
132.8549188242
 20
88.5662647875
 30
0.0
  0
SPLINE
  5
4F9
100
AcDbEntity
  8
0
100
AcDbSpline
 62
7
  6
CONTINUOUS
 70
0
 71
3
 72
11
 73
7
 74
0
 42
0.0000001
 43
0.0000001
 44
0.0000000001
 40
0.0
 40
0.0
 40
0.0
 40
0.0
 40
0.2500105165
 40
0.5000000051
 40
0.7499894929
 40
1.0
 40
1.0
 40
1.0
 40
1.0
 10
138.0441846271
 20
76.3690811561
 30
0.0
 10
138.3064163799
 20
75.0748104193
 30
0.0
 10
138.7218013522
 20
72.4621176711
 30
0.0
 10
138.9405354477
 20
68.4990233942
 30
0.0
 10
138.7218013639
 20
64.5359291641
 30
0.0
 10
138.3064163701
 20
61.9232364743
 30
0.0
 10
138.0441846271
 20
60.6289657859
 30
0.0
  0
SPLINE
  5
4FA
100
AcDbEntity
  8
0
100
AcDbSpline
 62
7
  6
CONTINUOUS
 70
0
 71
3
 72
11
 73
7
 74
0
 42
0.0000001
 43
0.0000001
 44
0.0000000001
 40
0.0
 40
0.0
 40
0.0
 40
0.0
 40
0.2500010805
 40
0.5000000008
 40
0.7499989206
 40
1.0
 40
1.0
 40
1.0
 40
1.0
 10
132.8549188242
 20
61.1196586418
 30
0.0
 10
132.9638853811
 20
62.3463178212
 30
0.0
 10
133.1336400572
 20
64.8042880393
 30
0.0
 10
133.2214762826
 20
68.4990234803
 30
0.0
 10
133.1336400547
 20
72.1937589158
 30
0.0
 10
132.9638853807
 20
74.6517291263
 30
0.0
 10
132.8549188242
 20
75.8783883002
 30
0.0
  0
SPLINE
  5
4FB
100
AcDbEntity
  8
0
100
AcDbSpline
 62
7
  6
CONTINUOUS
 70
0
 71
3
 72
26
 73
22
 74
0
 42
0.0000001
 43
0.0000001
 44
0.0000000001
 40
0.0
 40
0.0
 40
0.0
 40
0.0
 40
0.0011226903
 40
0.0027488221
 40
0.0075570838
 40
0.0144649713
 40
0.0234740876
 40
0.0345739051
 40
0.0477512278
 40
0.0629906893
 40
0.0802691589
 40
0.1208371369
 40
0.1692244602
 40
0.2251420697
 40
0.2882647336
 40
0.3582162697
 40
0.434586285
 40
0.5169243889
 40
0.6047407179
 40
0.7947023872
 40
1.0
 40
1.0
 40
1.0
 40
1.0
 10
151.6645374925
 20
88.4914122089
 30
0.0
 10
151.6671294486
 20
88.4869215549
 30
0.0
 10
151.671713926
 20
88.4749760533
 30
0.0
 10
151.6807710303
 20
88.4412878452
 30
0.0
 10
151.6910289577
 20
88.3803988714
 30
0.0
 10
151.7028585578
 20
88.2854464188
 30
0.0
 10
151.714745694
 20
88.1612105915
 30
0.0
 10
151.726789449
 20
88.0079575539
 30
0.0
 10
151.7388741904
 20
87.8258499809
 30
0.0
 10
151.7510025382
 20
87.6151601182
 30
0.0
 10
151.7681349237
 20
87.2780551898
 30
0.0
 10
151.7890772361
 20
86.7878688619
 30
0.0
 10
151.8132026334
 20
86.1192246506
 30
0.0
 10
151.83740906
 20
85.3463588545
 30
0.0
 10
151.8616751748
 20
84.4738610211
 30
0.0
 10
151.8859820856
 20
83.5068748396
 30
0.0
 10
151.9103167176
 20
82.4511199417
 30
0.0
 10
151.9346733832
 20
81.3128391541
 30
0.0
 10
151.9680485077
 20
79.6500245508
 30
0.0
 10
152.0092157756
 20
77.419381561
 30
0.0
 10
152.0404644773
 20
75.5941954452
 30
0.0
 10
152.0563199858
 20
74.6461878441
 30
0.0
  0
SPLINE
  5
4FC
100
AcDbEntity
  8
0
100
AcDbSpline
 62
7
  6
CONTINUOUS
 70
0
 71
3
 72
9
 73
5
 74
0
 42
0.0000001
 43
0.0000001
 44
0.0000000001
 40
0.0
 40
0.0
 40
0.0
 40
0.0
 40
0.3372532831
 40
1.0
 40
1.0
 40
1.0
 40
1.0
 10
149.3068753358
 20
88.499023471
 30
0.0
 10
149.3100179627
 20
88.499023471
 30
0.0
 10
149.317337888
 20
88.4906500731
 30
0.0
 10
149.3200208396
 20
88.4823195658
 30
0.0
 10
149.3219833541
 20
88.4764640162
 30
0.0
  0
SPLINE
  5
4FD
100
AcDbEntity
  8
0
100
AcDbSpline
 62
7
  6
CONTINUOUS
 70
0
 71
3
 72
46
 73
42
 74
0
 42
0.0000001
 43
0.0000001
 44
0.0000000001
 40
0.0
 40
0.0
 40
0.0
 40
0.0
 40
0.0007372189
 40
0.0017534773
 40
0.0046315326
 40
0.0086394376
 40
0.0137699342
 40
0.0200127907
 40
0.0273556879
 40
0.0357810196
 40
0.0452699162
 40
0.067351785
 40
0.0933986441
 40
0.1231720902
 40
0.1564004863
 40
0.1927787025
 40
0.231973185
 40
0.317351332
 40
0.4094079896
 40
0.5047743971
 40
0.5999576209
 40
0.6914743059
 40
0.7348023527
 40
0.7759754536
 40
0.8146147016
 40
0.8503656885
 40
0.8829011141
 40
0.9119218574
 40
0.937163043
 40
0.9482932092
 40
0.958394665
 40
0.9674439629
 40
0.9754218347
 40
0.9823095405
 40
0.9880915204
 40
0.9927567735
 40
0.9962956642
 40
0.9976412568
 40
0.9987049999
 40
0.9994890599
 40
1.0
 40
1.0
 40
1.0
 40
1.0
 10
149.3219833541
 20
88.4764640162
 30
0.0
 10
149.3251062264
 20
88.4671463098
 30
0.0
 10
149.3307609875
 20
88.4444137368
 30
0.0
 10
149.3419377039
 20
88.3836947105
 30
0.0
 10
149.3548158785
 20
88.2790707584
 30
0.0
 10
149.3695890295
 20
88.1195849
 30
0.0
 10
149.3844516262
 20
87.9150745324
 30
0.0
 10
149.3994688586
 20
87.6660393946
 30
0.0
 10
149.4145335277
 20
87.3730152605
 30
0.0
 10
149.4296505927
 20
87.0366768209
 30
0.0
 10
149.4509320676
 20
86.5039531657
 30
0.0
 10
149.4769668892
 20
85.7363474944
 30
0.0
 10
149.5070213422
 20
84.6983466638
 30
0.0
 10
149.5371669319
 20
83.5117111688
 30
0.0
 10
149.5673836829
 20
82.1873217755
 30
0.0
 10
149.5976481141
 20
80.7373217173
 30
0.0
 10
149.6392369949
 20
78.5922545765
 30
0.0
 10
149.6902719105
 20
75.705042314
 30
0.0
 10
149.7500949809
 20
72.0691026544
 30
0.0
 10
149.809983777
 20
68.3024457476
 30
0.0
 10
149.8698762604
 20
64.5429877574
 30
0.0
 10
149.9205872388
 20
61.4771411416
 30
0.0
 10
149.961785033
 20
59.1311904603
 30
0.0
 10
149.9921012226
 20
57.4900125621
 30
0.0
 10
150.0223916574
 20
55.9498542947
 30
0.0
 10
150.0526482124
 20
54.52485908
 30
0.0
 10
150.0828506806
 20
53.2281081296
 30
0.0
 10
150.1129871324
 20
52.0714930715
 30
0.0
 10
150.1389714646
 20
51.200202211
 30
0.0
 10
150.160097229
 20
50.5810805502
 30
0.0
 10
150.1752523186
 20
50.1777204007
 30
0.0
 10
150.1903858132
 20
49.8164122729
 30
0.0
 10
150.2054815045
 20
49.4979826853
 30
0.0
 10
150.22053223
 20
49.2231616798
 30
0.0
 10
150.2354856348
 20
48.9925615351
 30
0.0
 10
150.2503490236
 20
48.8067229782
 30
0.0
 10
150.2633597114
 20
48.6800476843
 30
0.0
 10
150.2743585884
 20
48.6015332808
 30
0.0
 10
150.2817258428
 20
48.5595577484
 30
0.0
 10
150.289018358
 20
48.5290286932
 30
0.0
 10
150.2947006199
 20
48.5125358178
 30
0.0
 10
150.2981024936
 20
48.5066354397
 30
0.0
  0
SPLINE
  5
4FE
100
AcDbEntity
  8
0
100
AcDbSpline
 62
7
  6
CONTINUOUS
 70
0
 71
3
 72
9
 73
5
 74
0
 42
0.0000001
 43
0.0000001
 44
0.0000000001
 40
0.0
 40
0.0
 40
0.0
 40
0.0
 40
0.3371630435
 40
1.0
 40
1.0
 40
1.0
 40
1.0
 10
147.3068755332
 20
88.499023471
 30
0.0
 10
147.3100217766
 20
88.499023471
 30
0.0
 10
147.3173483027
 20
88.4906325821
 30
0.0
 10
147.3200322809
 20
88.4822909131
 30
0.0
 10
147.3219963504
 20
88.4764257559
 30
0.0
  0
SPLINE
  5
4FF
100
AcDbEntity
  8
0
100
AcDbSpline
 62
7
  6
CONTINUOUS
 70
0
 71
3
 72
46
 73
42
 74
0
 42
0.0000001
 43
0.0000001
 44
0.0000000001
 40
0.0
 40
0.0
 40
0.0
 40
0.0
 40
0.000737677
 40
0.0017543973
 40
0.0046333774
 40
0.008642231
 40
0.0137736931
 40
0.0200174873
 40
0.0273613669
 40
0.0357876832
 40
0.0452773692
 40
0.0673605199
 40
0.0934083851
 40
0.1231828969
 40
0.1564123926
 40
0.1927910537
 40
0.2319854351
 40
0.3173630599
 40
0.4094188127
 40
0.5047852663
 40
0.5999694408
 40
0.6914844794
 40
0.7348107486
 40
0.7759816658
 40
0.8146188865
 40
0.8503684436
 40
0.8829030152
 40
0.911923239
 40
0.937164021
 40
0.9482940618
 40
0.9583954005
 40
0.9674446251
 40
0.9754224492
 40
0.9823100865
 40
0.9880919203
 40
0.9927570052
 40
0.9962957771
 40
0.9976413275
 40
0.9987050373
 40
0.9994890736
 40
1.0
 40
1.0
 40
1.0
 40
1.0
 10
147.3219963504
 20
88.4764257559
 30
0.0
 10
147.3251187802
 20
88.4671014719
 30
0.0
 10
147.3307733793
 20
88.4443563583
 30
0.0
 10
147.3419496862
 20
88.3836122809
 30
0.0
 10
147.3548282587
 20
88.2789572393
 30
0.0
 10
147.369601561
 20
88.1194335081
 30
0.0
 10
147.3844643618
 20
87.9148852744
 30
0.0
 10
147.399481854
 20
87.665811861
 30
0.0
 10
147.4145465858
 20
87.372749257
 30
0.0
 10
147.4296635414
 20
87.0363743711
 30
0.0
 10
147.4509449576
 20
86.503610484
 30
0.0
 10
147.4769791624
 20
85.7359645191
 30
0.0
 10
147.507033287
 20
84.6979200001
 30
0.0
 10
147.5371786043
 20
83.5112434017
 30
0.0
 10
147.5673949867
 20
82.1868205285
 30
0.0
 10
147.5976590678
 20
80.7368026751
 30
0.0
 10
147.6392468842
 20
78.5917400481
 30
0.0
 10
147.6902807883
 20
75.704551041
 30
0.0
 10
147.7501031243
 20
72.068633431
 30
0.0
 10
147.8099918093
 20
68.3019790801
 30
0.0
 10
147.8698842524
 20
64.5425335267
 30
0.0
 10
147.9205950759
 20
61.4767229635
 30
0.0
 10
147.9617918752
 20
59.1308493836
 30
0.0
 10
147.9921069143
 20
57.4897529544
 30
0.0
 10
148.0223961383
 20
55.9496714162
 30
0.0
 10
148.0526517311
 20
54.5247350921
 30
0.0
 10
148.0828535826
 20
53.2280228089
 30
0.0
 10
148.1129895648
 20
52.0714325964
 30
0.0
 10
148.1389737101
 20
51.2001565891
 30
0.0
 10
148.1600992624
 20
50.5810441611
 30
0.0
 10
148.1752543887
 20
50.1776886313
 30
0.0
 10
148.1903879433
 20
49.8163840462
 30
0.0
 10
148.2054836641
 20
49.4979573089
 30
0.0
 10
148.2205342701
 20
49.2231400763
 30
0.0
 10
148.2354875274
 20
48.9925452671
 30
0.0
 10
148.2503507676
 20
48.8067126771
 30
0.0
 10
148.2633611529
 20
48.6800418925
 30
0.0
 10
148.2743597856
 20
48.6015301487
 30
0.0
 10
148.2817269055
 20
48.5595559814
 30
0.0
 10
148.2890192956
 20
48.529027895
 30
0.0
 10
148.294701475
 20
48.5125355428
 30
0.0
 10
148.2981032829
 20
48.5066353448
 30
0.0
  0
SPLINE
  5
500
100
AcDbEntity
  8
0
100
AcDbSpline
 62
7
  6
CONTINUOUS
 70
0
 71
3
 72
9
 73
5
 74
0
 42
0.0000001
 43
0.0000001
 44
0.0000000001
 40
0.0
 40
0.0
 40
0.0
 40
0.0
 40
0.2509543595
 40
1.0
 40
1.0
 40
1.0
 40
1.0
 10
132.7935866471
 20
88.9132370334
 30
0.0
 10
132.8003005454
 20
88.8845290481
 30
0.0
 10
132.8253295964
 20
88.7697324247
 30
0.0
 10
132.8439499107
 20
88.6535778651
 30
0.0
 10
132.8549188242
 20
88.5662647875
 30
0.0
  0
SPLINE
  5
501
100
AcDbEntity
  8
0
100
AcDbSpline
 62
7
  6
CONTINUOUS
 70
0
 71
3
 72
10
 73
6
 74
0
 42
0.0000001
 43
0.0000001
 44
0.0000000001
 40
0.0
 40
0.0
 40
0.0
 40
0.0
 40
0.5400882474
 40
0.7843462309
 40
1.0
 40
1.0
 40
1.0
 40
1.0
 10
138.0441846271
 20
60.6289657859
 30
0.0
 10
137.9932448077
 20
60.3775472723
 30
0.0
 10
137.9504047788
 20
60.0040624632
 30
0.0
 10
137.9753349454
 20
59.5289514478
 30
0.0
 10
138.0159704953
 20
59.313219414
 30
0.0
 10
138.0441846271
 20
59.2147522236
 30
0.0
  0
SPLINE
  5
502
100
AcDbEntity
  8
0
100
AcDbSpline
 62
7
  6
CONTINUOUS
 70
0
 71
3
 72
10
 73
6
 74
0
 42
0.0000001
 43
0.0000001
 44
0.0000000001
 40
0.0
 40
0.0
 40
0.0
 40
0.0
 40
0.2156581783
 40
0.4599227517
 40
1.0
 40
1.0
 40
1.0
 40
1.0
 10
138.0441846271
 20
77.7832947185
 30
0.0
 10
138.0159699176
 20
77.6848255119
 30
0.0
 10
137.9753339469
 20
77.469088176
 30
0.0
 10
137.9504053917
 20
76.9939770364
 30
0.0
 10
137.9932458436
 20
76.6204945571
 30
0.0
 10
138.0441846271
 20
76.3690811561
 30
0.0
  0
SPLINE
  5
503
100
AcDbEntity
  8
0
100
AcDbSpline
 62
7
  6
CONTINUOUS
 70
0
 71
3
 72
15
 73
11
 74
0
 42
0.0000001
 43
0.0000001
 44
0.0000000001
 40
0.0
 40
0.0
 40
0.0
 40
0.0
 40
0.0567790901
 40
0.1170083364
 40
0.1962164848
 40
0.3015489755
 40
0.4353176243
 40
0.5973946108
 40
0.7864868246
 40
1.0
 40
1.0
 40
1.0
 40
1.0
 10
138.0441846271
 20
89.499023471
 30
0.0
 10
138.0322058201
 20
89.499023471
 30
0.0
 10
138.0064960146
 20
89.4926528463
 30
0.0
 10
137.9795163737
 20
89.4585274447
 30
0.0
 10
137.9660814244
 20
89.4080318756
 30
0.0
 10
137.9622112274
 20
89.3407401909
 30
0.0
 10
137.9683467454
 20
89.2561681517
 30
0.0
 10
137.9842195971
 20
89.155022031
 30
0.0
 10
138.0098022602
 20
89.0386132682
 30
0.0
 10
138.0317769354
 20
88.9565398203
 30
0.0
 10
138.0441846271
 20
88.9132370334
 30
0.0
  0
SPLINE
  5
504
100
AcDbEntity
  8
0
100
AcDbSpline
 62
7
  6
CONTINUOUS
 70
0
 71
3
 72
45
 73
41
 74
0
 42
0.0000001
 43
0.0000001
 44
0.0000000001
 40
0.0
 40
0.0
 40
0.0
 40
0.0
 40
0.0002519397
 40
0.0007354656
 40
0.0014931755
 40
0.002533876
 40
0.0054729106
 40
0.0095584643
 40
0.0147854029
 40
0.0211417304
 40
0.0286141667
 40
0.0371867436
 40
0.0468383728
 40
0.0575472219
 40
0.0820365937
 40
0.1104262139
 40
0.1424517921
 40
0.1778161279
 40
0.2161884058
 40
0.2572111815
 40
0.3005025001
 40
0.3456577831
 40
0.3922563335
 40
0.4880351254
 40
0.5842734953
 40
0.677389297
 40
0.7639163549
 40
0.8036898344
 40
0.8406342319
 40
0.8744060174
 40
0.9046892925
 40
0.9312025378
 40
0.953699959
 40
0.9719714234
 40
0.9794692122
 40
0.9858502434
 40
0.9911020211
 40
0.9952137453
 40
0.9981781026
 40
1.0
 40
1.0
 40
1.0
 40
1.0
 10
149.4063196093
 20
49.7990339924
 30
0.0
 10
149.4031785335
 20
49.7990291591
 30
0.0
 10
149.395787846
 20
49.8069135059
 30
0.0
 10
149.3896910607
 20
49.8237825983
 30
0.0
 10
149.3819447027
 20
49.8515571743
 30
0.0
 10
149.3709858789
 20
49.9094290404
 30
0.0
 10
149.357774196
 20
50.0093038196
 30
0.0
 10
149.3429782024
 20
50.16127277
 30
0.0
 10
149.3279502689
 20
50.3560834003
 30
0.0
 10
149.312819911
 20
50.5931739353
 30
0.0
 10
149.2976200286
 20
50.8720570364
 30
0.0
 10
149.2823820746
 20
51.1920702113
 30
0.0
 10
149.267110957
 20
51.5524737753
 30
0.0
 10
149.2457570586
 20
52.1112362639
 30
0.0
 10
149.2195385733
 20
52.9035941145
 30
0.0
 10
149.189177352
 20
53.9617154166
 30
0.0
 10
149.1587408865
 20
55.1554685039
 30
0.0
 10
149.1282464081
 20
56.4737157381
 30
0.0
 10
149.0977128209
 20
57.9041628419
 30
0.0
 10
149.0671512625
 20
59.4334605339
 30
0.0
 10
149.0365707207
 20
61.0473414187
 30
0.0
 10
149.0059748565
 20
62.7307503321
 30
0.0
 10
148.9647928269
 20
65.0684665176
 30
0.0
 10
148.9140368472
 20
68.0429951025
 30
0.0
 10
148.8536598309
 20
71.5974016139
 30
0.0
 10
148.7933492661
 20
75.03644552
 30
0.0
 10
148.7419129881
 20
77.7715553696
 30
0.0
 10
148.6999969813
 20
79.8063943074
 30
0.0
 10
148.6694784727
 20
81.1835960606
 30
0.0
 10
148.6390108498
 20
82.4424479435
 30
0.0
 10
148.6086062122
 20
83.5712079529
 30
0.0
 10
148.5783179219
 20
84.5593520908
 30
0.0
 10
148.5481662277
 20
85.3976577061
 30
0.0
 10
148.5218852183
 20
85.9988693661
 30
0.0
 10
148.5001558392
 20
86.3991147057
 30
0.0
 10
148.4850405053
 20
86.6371648352
 30
0.0
 10
148.4699556485
 20
86.8328541217
 30
0.0
 10
148.4552902748
 20
86.9859533995
 30
0.0
 10
148.4405140753
 20
87.095751011
 30
0.0
 10
148.4294348541
 20
87.1547256024
 30
0.0
 10
148.4220342571
 20
87.1762008652
 30
0.0
  0
SPLINE
  5
505
100
AcDbEntity
  8
0
100
AcDbSpline
 62
7
  6
CONTINUOUS
 70
0
 71
3
 72
9
 73
5
 74
0
 42
0.0000001
 43
0.0000001
 44
0.0000000001
 40
0.0
 40
0.0
 40
0.0
 40
0.0
 40
0.2901194212
 40
1.0
 40
1.0
 40
1.0
 40
1.0
 10
148.4220342571
 20
87.1762008652
 30
0.0
 10
148.4215301431
 20
87.1776637176
 30
0.0
 10
148.4197148127
 20
87.1826749921
 30
0.0
 10
148.4175928721
 20
87.1876017923
 30
0.0
 10
148.415701926
 20
87.1908817105
 30
0.0
  0
SPLINE
  5
506
100
AcDbEntity
  8
0
100
AcDbSpline
 62
7
  6
CONTINUOUS
 70
0
 71
3
 72
15
 73
11
 74
0
 42
0.0000001
 43
0.0000001
 44
0.0000000001
 40
0.0
 40
0.0
 40
0.0
 40
0.0
 40
0.2135144856
 40
0.4026115549
 40
0.5646916133
 40
0.6984607946
 40
0.803790071
 40
0.8829939085
 40
0.9432213566
 40
1.0
 40
1.0
 40
1.0
 40
1.0
 10
138.0441846271
 20
48.0848099087
 30
0.0
 10
138.0317768509
 20
48.0415068266
 30
0.0
 10
138.0098020556
 20
47.9594320057
 30
0.0
 10
137.9842188111
 20
47.8430212954
 30
0.0
 10
137.9683462488
 20
47.7418732121
 30
0.0
 10
137.9622112545
 20
47.6573010713
 30
0.0
 10
137.9660815879
 20
47.5900106545
 30
0.0
 10
137.9795176221
 20
47.5395175908
 30
0.0
 10
138.00649632
 20
47.505393123
 30
0.0
 10
138.0322059062
 20
47.499023471
 30
0.0
 10
138.0441846271
 20
47.499023471
 30
0.0
  0
SPLINE
  5
507
100
AcDbEntity
  8
0
100
AcDbSpline
 62
7
  6
CONTINUOUS
 70
0
 71
3
 72
48
 73
44
 74
0
 42
0.0000001
 43
0.0000001
 44
0.0000000001
 40
0.0
 40
0.0
 40
0.0
 40
0.0
 40
0.0002535317
 40
0.0007405281
 40
0.0015037952
 40
0.0025527266
 40
0.0055170058
 40
0.0096368766
 40
0.0149063759
 40
0.0213161876
 40
0.0288507678
 40
0.0374928671
 40
0.0472239146
 40
0.0580200339
 40
0.0827047803
 40
0.1113162747
 40
0.1435868016
 40
0.1792117693
 40
0.2178568477
 40
0.2591589759
 40
0.3027287524
 40
0.3481569102
 40
0.3950160138
 40
0.4912535363
 40
0.5878280195
 40
0.6811132003
 40
0.7254195712
 40
0.767606963
 40
0.8072785453
 40
0.8440619367
 40
0.8776101575
 40
0.9076083416
 40
0.9337754358
 40
0.955864549
 40
0.9653146121
 40
0.9736703
 40
0.9809138126
 40
0.9870284609
 40
0.991999663
 40
0.9958192293
 40
0.9984826993
 40
0.9993824814
 40
1.0
 40
1.0
 40
1.0
 40
1.0
 10
151.4063201697
 20
49.7990436526
 30
0.0
 10
151.4031582636
 20
49.799046846
 30
0.0
 10
151.3957441304
 20
49.8070174248
 30
0.0
 10
151.3896171229
 20
49.8240079302
 30
0.0
 10
151.3818370304
 20
49.8520134519
 30
0.0
 10
151.3708277523
 20
49.9103853112
 30
0.0
 10
151.3575664321
 20
50.0111413706
 30
0.0
 10
151.3427039668
 20
50.1644291561
 30
0.0
 10
151.3276062681
 20
50.3609264641
 30
0.0
 10
151.3124139407
 20
50.600063417
 30
0.0
 10
151.2971481989
 20
50.8813421707
 30
0.0
 10
151.2818406429
 20
51.2040868945
 30
0.0
 10
151.2665052443
 20
51.5675481472
 30
0.0
 10
151.2450593309
 20
52.1309992324
 30
0.0
 10
151.2187267959
 20
52.9298946
 30
0.0
 10
151.1882331906
 20
53.9966021778
 30
0.0
 10
151.1576660721
 20
55.1997974056
 30
0.0
 10
151.1270378832
 20
56.5281603464
 30
0.0
 10
151.0963718534
 20
57.969186951
 30
0.0
 10
151.0656783228
 20
59.5093170239
 30
0.0
 10
151.0349643308
 20
61.1340573162
 30
0.0
 10
151.0042361541
 20
62.8281126571
 30
0.0
 10
150.9628866556
 20
65.1789260167
 30
0.0
 10
150.9119304976
 20
68.1675373648
 30
0.0
 10
150.8512956426
 20
71.7350680136
 30
0.0
 10
150.7999991134
 20
74.6550073853
 30
0.0
 10
150.7583230372
 20
76.8967238698
 30
0.0
 10
150.7276203509
 20
78.46988904
 30
0.0
 10
150.6969424712
 20
79.9492134541
 30
0.0
 10
150.6663002819
 20
81.3207710327
 30
0.0
 10
150.6357051253
 20
82.5716558351
 30
0.0
 10
150.6051867161
 20
83.6900989352
 30
0.0
 10
150.5747677923
 20
84.665572949
 30
0.0
 10
150.5483924094
 20
85.3847769514
 30
0.0
 10
150.5268169709
 20
85.8818580066
 30
0.0
 10
150.5115142848
 20
86.1938846502
 30
0.0
 10
150.4962711523
 20
86.4642646385
 30
0.0
 10
150.4810800337
 20
86.6923498355
 30
0.0
 10
150.4660833722
 20
86.8776681881
 30
0.0
 10
150.4511492983
 20
87.0197017461
 30
0.0
 10
150.4382409334
 20
87.1110062706
 30
0.0
 10
150.4268104825
 20
87.1618555242
 30
0.0
 10
150.4210497747
 20
87.1799948363
 30
0.0
 10
150.4177485417
 20
87.1869527571
 30
0.0
  0
LINE
  5
508
100
AcDbEntity
  8
0
100
AcDbLine
 62
7
  6
CONTINUOUS
 10
150.4177485417
 20
87.1869527571
 11
150.4157017401
 21
87.190880622
  0
SPLINE
  5
509
100
AcDbEntity
  8
0
100
AcDbSpline
 62
7
  6
CONTINUOUS
 70
0
 71
3
 72
10
 73
6
 74
0
 42
0.0000001
 43
0.0000001
 44
0.0000000001
 40
0.0
 40
0.0
 40
0.0
 40
0.0
 40
0.7143811974
 40
0.9079629918
 40
1.0
 40
1.0
 40
1.0
 40
1.0
 10
130.6295250666
 20
159.5821547354
 30
0.0
 10
130.6362544002
 20
159.5833960042
 30
0.0
 10
130.6451384993
 20
159.5852841265
 30
0.0
 10
130.6536142948
 20
159.5883041338
 30
0.0
 10
130.6563199858
 20
159.5902331884
 30
0.0
 10
130.6563199858
 20
159.591114785
 30
0.0
  0
SPLINE
  5
50A
100
AcDbEntity
  8
0
100
AcDbSpline
 62
7
  6
CONTINUOUS
 70
0
 71
3
 72
9
 73
5
 74
0
 42
0.0000001
 43
0.0000001
 44
0.0000000001
 40
0.0
 40
0.0
 40
0.0
 40
0.0
 40
0.4805947387
 40
1.0
 40
1.0
 40
1.0
 40
1.0
 10
84.9057630363
 20
48.4990347515
 30
0.0
 10
84.9062655284
 20
48.4990324444
 30
0.0
 10
84.9073166431
 20
48.49918911
 30
0.0
 10
84.9082790434
 20
48.4996274017
 30
0.0
 10
84.908747642
 20
48.4999018969
 30
0.0
  0
SPLINE
  5
50B
100
AcDbEntity
  8
0
100
AcDbSpline
 62
7
  6
CONTINUOUS
 70
0
 71
3
 72
9
 73
5
 74
0
 42
0.0000001
 43
0.0000001
 44
0.0000000001
 40
0.0
 40
0.0
 40
0.0
 40
0.0
 40
0.2008543791
 40
1.0
 40
1.0
 40
1.0
 40
1.0
 10
84.908747642
 20
48.4999018969
 30
0.0
 10
84.9092627984
 20
48.5002036647
 30
0.0
 10
84.9116531779
 20
48.5020039766
 30
0.0
 10
84.913348379
 20
48.5045511463
 30
0.0
 10
84.9145367964
 20
48.5066079334
 30
0.0
  0
SPLINE
  5
50C
100
AcDbEntity
  8
0
100
AcDbSpline
 62
7
  6
CONTINUOUS
 70
0
 71
3
 72
41
 73
37
 74
0
 42
0.0000001
 43
0.0000001
 44
0.0000000001
 40
0.0
 40
0.0
 40
0.0
 40
0.0
 40
0.0002501983
 40
0.0007286119
 40
0.0025066051
 40
0.0054159932
 40
0.0094588201
 40
0.0146297534
 40
0.0209204954
 40
0.0283160605
 40
0.0367989335
 40
0.046351344
 40
0.0569521575
 40
0.0811941935
 40
0.1093052703
 40
0.1410234848
 40
0.1760595789
 40
0.2140883316
 40
0.2547604717
 40
0.2977005034
 40
0.3887827593
 40
0.483982581
 40
0.5797957103
 40
0.6726952088
 40
0.7592613392
 40
0.8363077538
 40
0.8703584526
 40
0.9009996279
 40
0.9279496092
 40
0.9509586812
 40
0.9698186458
 40
0.9843540938
 40
0.9899600866
 40
0.9944401768
 40
0.9977865291
 40
1.0
 40
1.0
 40
1.0
 40
1.0
 10
84.806319458
 20
87.1989837465
 30
0.0
 10
84.8094371995
 20
87.1989854325
 30
0.0
 10
84.8167735325
 20
87.1912270016
 30
0.0
 10
84.8271522779
 20
87.1628061859
 30
0.0
 10
84.8404887619
 20
87.0985841088
 30
0.0
 10
84.8544713253
 20
86.9913017701
 30
0.0
 10
84.8693537659
 20
86.840678943
 30
0.0
 10
84.8842390714
 20
86.6481472125
 30
0.0
 10
84.899304113
 20
86.4136068863
 30
0.0
 10
84.9144101665
 20
86.1377781257
 30
0.0
 10
84.9295693031
 20
85.8212389883
 30
0.0
 10
84.9447542333
 20
85.4647255174
 30
0.0
 10
84.9659872898
 20
84.9119184266
 30
0.0
 10
84.9920658936
 20
84.1278736514
 30
0.0
 10
85.0222551905
 20
83.0806869749
 30
0.0
 10
85.0525247845
 20
81.8989476996
 30
0.0
 10
85.0828491163
 20
80.5935887241
 30
0.0
 10
85.1132140249
 20
79.1766275826
 30
0.0
 10
85.1436064292
 20
77.6611544672
 30
0.0
 10
85.1849703888
 20
75.4846656748
 30
0.0
 10
85.2358667536
 20
72.6287630034
 30
0.0
 10
85.2959117132
 20
69.1140644887
 30
0.0
 10
85.3559670212
 20
65.5767180934
 30
0.0
 10
85.4159490453
 20
62.1469709659
 30
0.0
 10
85.4757833522
 20
58.9511127207
 30
0.0
 10
85.5272372014
 20
56.4885478426
 30
0.0
 10
85.5694074012
 20
54.7228376911
 30
0.0
 10
85.5996554854
 20
53.5812795636
 30
0.0
 10
85.6298125259
 20
52.5773649566
 30
0.0
 10
85.6597886142
 20
51.7203207238
 30
0.0
 10
85.6895832296
 20
51.0180929585
 30
0.0
 10
85.7156310471
 20
50.5327525154
 30
0.0
 10
85.7375851525
 20
50.2267343221
 30
0.0
 10
85.7523512838
 20
50.0599616357
 30
0.0
 10
85.7670373169
 20
49.9357623486
 30
0.0
 10
85.7782865647
 20
49.8672440657
 30
0.0
 10
85.7851171716
 20
49.8405209889
 30
0.0
  0
SPLINE
  5
50D
100
AcDbEntity
  8
0
100
AcDbSpline
 62
7
  6
CONTINUOUS
 70
0
 71
3
 72
9
 73
5
 74
0
 42
0.0000001
 43
0.0000001
 44
0.0000000001
 40
0.0
 40
0.0
 40
0.0
 40
0.0
 40
0.3147303529
 40
1.0
 40
1.0
 40
1.0
 40
1.0
 10
85.7851171716
 20
49.8405209889
 30
0.0
 10
85.7860380718
 20
49.8369181927
 30
0.0
 10
85.7891803821
 20
49.8255574664
 30
0.0
 10
85.7928906624
 20
49.8141619698
 30
0.0
 10
85.7969376571
 20
49.8071492912
 30
0.0
  0
SPLINE
  5
50E
100
AcDbEntity
  8
0
100
AcDbSpline
 62
7
  6
CONTINUOUS
 70
0
 71
3
 72
11
 73
7
 74
0
 42
0.0000001
 43
0.0000001
 44
0.0000000001
 40
0.0
 40
0.0
 40
0.0
 40
0.0
 40
0.0902182682
 40
0.279897854
 40
0.5823433459
 40
1.0
 40
1.0
 40
1.0
 40
1.0
 10
91.5568748423
 20
88.499023471
 30
0.0
 10
91.5607303054
 20
88.499023471
 30
0.0
 10
91.569162543
 20
88.4870861234
 30
0.0
 10
91.5757556142
 20
88.4647478419
 30
0.0
 10
91.5846795156
 20
88.4259903773
 30
0.0
 10
91.589312122
 20
88.3958277508
 30
0.0
 10
91.5918750717
 20
88.378164233
 30
0.0
  0
SPLINE
  5
50F
100
AcDbEntity
  8
0
100
AcDbSpline
 62
7
  6
CONTINUOUS
 70
0
 71
3
 72
37
 73
33
 74
0
 42
0.0000001
 43
0.0000001
 44
0.0000000001
 40
0.0
 40
0.0
 40
0.0
 40
0.0
 40
0.0073907172
 40
0.0190917282
 40
0.0350081024
 40
0.0550009213
 40
0.0788974941
 40
0.1064853251
 40
0.171741782
 40
0.2484815634
 40
0.3340062607
 40
0.4253113622
 40
0.5191897329
 40
0.6123416157
 40
0.7014951375
 40
0.743585786
 40
0.7835202349
 40
0.8209455008
 40
0.8555321548
 40
0.8869762475
 40
0.9149998146
 40
0.9393594399
 40
0.9598390119
 40
0.9685680556
 40
0.9762623613
 40
0.9829052929
 40
0.9884844763
 40
0.9929881539
 40
0.9964066756
 40
0.9987387677
 40
0.9995006699
 40
1.0
 40
1.0
 40
1.0
 40
1.0
 10
91.5918750717
 20
88.378164233
 30
0.0
 10
91.605986211
 20
88.2809120898
 30
0.0
 10
91.6275050399
 20
88.0277327825
 30
0.0
 10
91.6561894827
 20
87.5632303215
 30
0.0
 10
91.6847501447
 20
86.9307567997
 30
0.0
 10
91.7140435565
 20
86.1361061574
 30
0.0
 10
91.7433994564
 20
85.1861522155
 30
0.0
 10
91.7851294177
 20
83.6344706558
 30
0.0
 10
91.8355968631
 20
81.3801523525
 30
0.0
 10
91.8938720368
 20
78.3554841419
 30
0.0
 10
91.9523757689
 20
74.9844057671
 30
0.0
 10
92.011042119
 20
71.385416616
 30
0.0
 10
92.0697588797
 20
67.6850003999
 30
0.0
 10
92.1284662007
 20
64.0131961945
 30
0.0
 10
92.1782109795
 20
61.0299313989
 30
0.0
 10
92.218612753
 20
58.7542157468
 30
0.0
 10
92.2483139569
 20
57.1662231671
 30
0.0
 10
92.277990186
 20
55.6780252908
 30
0.0
 10
92.3076321016
 20
54.3027425489
 30
0.0
 10
92.3372239663
 20
53.0524997537
 30
0.0
 10
92.3667410076
 20
51.9382802089
 30
0.0
 10
92.3961556381
 20
50.9699054803
 30
0.0
 10
92.4216819981
 20
50.2580871414
 30
0.0
 10
92.4425741696
 20
49.7678503319
 30
0.0
 10
92.4573685012
 20
49.4615064358
 30
0.0
 10
92.4721019243
 20
49.1970900617
 30
0.0
 10
92.4867905848
 20
48.9751898015
 30
0.0
 10
92.5012468206
 20
48.7962056126
 30
0.0
 10
92.5156870893
 20
48.6606918104
 30
0.0
 10
92.5280702689
 20
48.5747881452
 30
0.0
 10
92.5392134733
 20
48.5283932322
 30
0.0
 10
92.5447886398
 20
48.5123956377
 30
0.0
 10
92.5481027563
 20
48.5066426025
 30
0.0
  0
SPLINE
  5
510
100
AcDbEntity
  8
0
100
AcDbSpline
 62
7
  6
CONTINUOUS
 70
0
 71
3
 72
26
 73
22
 74
0
 42
0.0000001
 43
0.0000001
 44
0.0000000001
 40
0.0
 40
0.0
 40
0.0
 40
0.0
 40
0.1914773987
 40
0.3758573832
 40
0.4632485613
 40
0.546344012
 40
0.6243752914
 40
0.6966170725
 40
0.7624051521
 40
0.8211251949
 40
0.8722370429
 40
0.9152680046
 40
0.9336262146
 40
0.9498199933
 40
0.9638163748
 40
0.9755835694
 40
0.9850927282
 40
0.9923291288
 40
0.9972886168
 40
0.9989200601
 40
1.0
 40
1.0
 40
1.0
 40
1.0
 10
89.3063199858
 20
68.499023471
 30
0.0
 10
89.326636778
 20
67.3054557962
 30
0.0
 10
89.3665157914
 20
64.962561943
 30
0.0
 10
89.4174726488
 20
62.0749488803
 30
0.0
 10
89.4588688456
 20
59.8629668734
 30
0.0
 10
89.4893448635
 20
58.3139142201
 30
0.0
 10
89.5197924135
 20
56.8593271705
 30
0.0
 10
89.5502078225
 20
55.51266512
 30
0.0
 10
89.5805712943
 20
54.2864284882
 30
0.0
 10
89.6108585329
 20
53.1919656507
 30
0.0
 10
89.6410453687
 20
52.2394377803
 30
0.0
 10
89.6672285758
 20
51.5385469561
 30
0.0
 10
89.6886607018
 20
51.0553386436
 30
0.0
 10
89.7038461037
 20
50.7530507597
 30
0.0
 10
89.7189669074
 20
50.4919025104
 30
0.0
 10
89.7340370226
 20
50.2725236997
 30
0.0
 10
89.7488858184
 20
50.0953408941
 30
0.0
 10
89.763697776
 20
49.9608975222
 30
0.0
 10
89.7764266283
 20
49.8754423451
 30
0.0
 10
89.7878367236
 20
49.8290577254
 30
0.0
 10
89.7935677192
 20
49.8129792839
 30
0.0
 10
89.7969376909
 20
49.8071506379
 30
0.0
  0
SPLINE
  5
511
100
AcDbEntity
  8
0
100
AcDbSpline
 62
7
  6
CONTINUOUS
 70
0
 71
3
 72
28
 73
24
 74
0
 42
0.0000001
 43
0.0000001
 44
0.0000000001
 40
0.0
 40
0.0
 40
0.0
 40
0.0
 40
0.1949618982
 40
0.3824185475
 40
0.4710759621
 40
0.5551955704
 40
0.6339708103
 40
0.706641437
 40
0.7725117238
 40
0.8309459551
 40
0.881382002
 40
0.9034475712
 40
0.9233401655
 40
0.9410085582
 40
0.9564136912
 40
0.9695216258
 40
0.9802993555
 40
0.9887234032
 40
0.994784803
 40
0.9969306791
 40
0.9984918753
 40
0.9994859489
 40
1.0
 40
1.0
 40
1.0
 40
1.0
 10
89.1563199858
 20
68.499023471
 30
0.0
 10
89.1770203861
 20
67.2829196479
 30
0.0
 10
89.2176227052
 20
64.8975271239
 30
0.0
 10
89.2695452364
 20
61.9591531613
 30
0.0
 10
89.3117531172
 20
59.7122126858
 30
0.0
 10
89.3428023882
 20
58.1431975996
 30
0.0
 10
89.373819685
 20
56.6739368663
 30
0.0
 10
89.4048010689
 20
55.3185518859
 30
0.0
 10
89.4357204803
 20
54.0900995999
 30
0.0
 10
89.4665641502
 20
53.0004059821
 30
0.0
 10
89.4931986174
 20
52.1839854734
 30
0.0
 10
89.514890039
 20
51.6079865896
 30
0.0
 10
89.5304019881
 20
51.2363250907
 30
0.0
 10
89.5458860098
 20
50.9062555539
 30
0.0
 10
89.5613293249
 20
50.6185576284
 30
0.0
 10
89.5766973602
 20
50.3739287528
 30
0.0
 10
89.5919664832
 20
50.1729026014
 30
0.0
 10
89.6069995246
 20
50.0160811654
 30
0.0
 10
89.6204241407
 20
49.9129936751
 30
0.0
 10
89.631549506
 20
49.8532611117
 30
0.0
 10
89.6394271209
 20
49.8245810646
 30
0.0
 10
89.6455910863
 20
49.8072310718
 30
0.0
 10
89.6531127245
 20
49.7990419444
 30
0.0
 10
89.6563196514
 20
49.7990488776
 30
0.0
  0
SPLINE
  5
512
100
AcDbEntity
  8
0
100
AcDbSpline
 62
7
  6
CONTINUOUS
 70
0
 71
3
 72
11
 73
7
 74
0
 42
0.0000001
 43
0.0000001
 44
0.0000000001
 40
0.0
 40
0.0
 40
0.0
 40
0.0
 40
0.0924911605
 40
0.2824317842
 40
0.5840265697
 40
1.0
 40
1.0
 40
1.0
 40
1.0
 10
89.5568757059
 20
88.499023471
 30
0.0
 10
89.5604559201
 20
88.499023471
 30
0.0
 10
89.568473114
 20
88.4885050722
 30
0.0
 10
89.5747993947
 20
88.4681338678
 30
0.0
 10
89.5832520513
 20
88.433300538
 30
0.0
 10
89.5876597492
 20
88.4060788463
 30
0.0
 10
89.590092665
 20
88.3901619114
 30
0.0
  0
SPLINE
  5
513
100
AcDbEntity
  8
0
100
AcDbSpline
 62
7
  6
CONTINUOUS
 70
0
 71
3
 72
18
 73
14
 74
0
 42
0.0000001
 43
0.0000001
 44
0.0000000001
 40
0.0
 40
0.0
 40
0.0
 40
0.0
 40
0.0138569662
 40
0.0359605806
 40
0.0661430301
 40
0.1041530369
 40
0.1496787564
 40
0.2023345172
 40
0.3272280488
 40
0.4746572931
 40
0.6396836427
 40
0.8167668481
 40
1.0
 40
1.0
 40
1.0
 40
1.0
 10
89.590092665
 20
88.3901619114
 30
0.0
 10
89.6039800593
 20
88.2993060146
 30
0.0
 10
89.6249258142
 20
88.0614475185
 30
0.0
 10
89.652946583
 20
87.6237359622
 30
0.0
 10
89.6807941177
 20
87.0253876479
 30
0.0
 10
89.7093963059
 20
86.2716734523
 30
0.0
 10
89.7380508308
 20
85.3687783319
 30
0.0
 10
89.7788331889
 20
83.8897192177
 30
0.0
 10
89.828145047
 20
81.734739214
 30
0.0
 10
89.8850586427
 20
78.8344275405
 30
0.0
 10
89.9421987151
 20
75.5878930588
 30
0.0
 10
89.9995072889
 20
72.1038471158
 30
0.0
 10
90.0375347934
 20
69.7142267998
 30
0.0
 10
90.0568753358
 20
68.499023471
 30
0.0
  0
SPLINE
  5
514
100
AcDbEntity
  8
0
100
AcDbSpline
 62
7
  6
CONTINUOUS
 70
0
 71
3
 72
11
 73
7
 74
0
 42
0.0000001
 43
0.0000001
 44
0.0000000001
 40
0.0
 40
0.0
 40
0.0
 40
0.0
 40
0.0902521538
 40
0.279935722
 40
0.5823686417
 40
1.0
 40
1.0
 40
1.0
 40
1.0
 10
87.5568754592
 20
88.499023471
 30
0.0
 10
87.5607265172
 20
88.499023471
 30
0.0
 10
87.5691523878
 20
88.4871091189
 30
0.0
 10
87.5757411621
 20
88.464802294
 30
0.0
 10
87.5846577094
 20
88.4261081865
 30
0.0
 10
87.5892867652
 20
88.3959929297
 30
0.0
 10
87.5918476712
 20
88.378357576
 30
0.0
  0
SPLINE
  5
515
100
AcDbEntity
  8
0
100
AcDbSpline
 62
7
  6
CONTINUOUS
 70
0
 71
3
 72
37
 73
33
 74
0
 42
0.0000001
 43
0.0000001
 44
0.0000000001
 40
0.0
 40
0.0
 40
0.0
 40
0.0
 40
0.0073868425
 40
0.0190842033
 40
0.0349972139
 40
0.0549868614
 40
0.0788804721
 40
0.1064661422
 40
0.1717212844
 40
0.2484612249
 40
0.3339866861
 40
0.4252921388
 40
0.5191718851
 40
0.6123276009
 40
0.7014841975
 40
0.7435759597
 40
0.783511399
 40
0.8209374009
 40
0.8555246506
 40
0.8869694559
 40
0.9149943324
 40
0.9393556834
 40
0.9598366394
 40
0.9685662519
 40
0.9762610145
 40
0.9829043469
 40
0.9884838709
 40
0.9929878108
 40
0.9964065133
 40
0.9987387187
 40
0.9995006531
 40
1.0
 40
1.0
 40
1.0
 40
1.0
 10
87.5918476712
 20
88.378357576
 30
0.0
 10
87.6059625081
 20
88.2811575434
 30
0.0
 10
87.6274798772
 20
88.0280767475
 30
0.0
 10
87.6561653702
 20
87.5637174517
 30
0.0
 10
87.684725434
 20
86.9313761902
 30
0.0
 10
87.7140194463
 20
86.1368481051
 30
0.0
 10
87.7433758497
 20
85.1869998357
 30
0.0
 10
87.785107853
 20
83.635396369
 30
0.0
 10
87.8355779585
 20
81.3811111828
 30
0.0
 10
87.8938555679
 20
78.3564334209
 30
0.0
 10
87.9523611827
 20
74.9853216269
 30
0.0
 10
88.0110289975
 20
71.3862817574
 30
0.0
 10
88.0697473131
 20
67.685773513
 30
0.0
 10
88.1284564087
 20
64.0138412056
 30
0.0
 10
88.1782026637
 20
61.0304551547
 30
0.0
 10
88.2186053727
 20
58.7546595048
 30
0.0
 10
88.2483069171
 20
57.1666213847
 30
0.0
 10
88.2779834446
 20
55.6783853459
 30
0.0
 10
88.3076253752
 20
54.3030686821
 30
0.0
 10
88.3372173988
 20
53.0527849524
 30
0.0
 10
88.3667352531
 20
51.9385101229
 30
0.0
 10
88.3961507417
 20
50.97007189
 30
0.0
 10
88.421678233
 20
50.2582011596
 30
0.0
 10
88.4425711437
 20
49.7679299076
 30
0.0
 10
88.4573660733
 20
49.4615655474
 30
0.0
 10
88.4721000321
 20
49.1971319467
 30
0.0
 10
88.4867892053
 20
48.9752172556
 30
0.0
 10
88.5012459295
 20
48.7962217658
 30
0.0
 10
88.5156867129
 20
48.6606999147
 30
0.0
 10
88.5280702563
 20
48.5747914758
 30
0.0
 10
88.539213814
 20
48.5283941991
 30
0.0
 10
88.5447891386
 20
48.5123958679
 30
0.0
 10
88.5481033784
 20
48.5066426092
 30
0.0
  0
SPLINE
  5
516
100
AcDbEntity
  8
0
100
AcDbSpline
 62
7
  6
CONTINUOUS
 70
0
 71
3
 72
11
 73
7
 74
0
 42
0.0000001
 43
0.0000001
 44
0.0000000001
 40
0.0
 40
0.0
 40
0.0
 40
0.0
 40
0.0902651048
 40
0.2799503329
 40
0.5823785086
 40
1.0
 40
1.0
 40
1.0
 40
1.0
 10
85.5568748176
 20
88.499023471
 30
0.0
 10
85.5607242064
 20
88.499023471
 30
0.0
 10
85.5691476551
 20
88.4871178258
 30
0.0
 10
85.5757348013
 20
88.4648229386
 30
0.0
 10
85.5846485527
 20
88.4261528769
 30
0.0
 10
85.5892762588
 20
88.3960556094
 30
0.0
 10
85.5918363861
 20
88.3784309559
 30
0.0
  0
SPLINE
  5
517
100
AcDbEntity
  8
0
100
AcDbSpline
 62
7
  6
CONTINUOUS
 70
0
 71
3
 72
37
 73
33
 74
0
 42
0.0000001
 43
0.0000001
 44
0.0000000001
 40
0.0
 40
0.0
 40
0.0
 40
0.0
 40
0.0073853413
 40
0.0190811802
 40
0.0349925591
 40
0.0549805718
 40
0.0788728737
 40
0.1064575438
 40
0.171711354
 40
0.2484506384
 40
0.3339760851
 40
0.4252819113
 40
0.5191638065
 40
0.6123217958
 40
0.7014797858
 40
0.7435719737
 40
0.7835075918
 40
0.8209336245
 40
0.8555211852
 40
0.8869667281
 40
0.9149922826
 40
0.9393542114
 40
0.9598356678
 40
0.9685655033
 40
0.9762604431
 40
0.9829039395
 40
0.9884836075
 40
0.9929876555
 40
0.9964064324
 40
0.9987386914
 40
0.9995006431
 40
1.0
 40
1.0
 40
1.0
 40
1.0
 10
85.5918363861
 20
88.3784309559
 30
0.0
 10
85.6059525665
 20
88.2812511048
 30
0.0
 10
85.62746917
 20
88.0282099127
 30
0.0
 10
85.6561547106
 20
87.5639118896
 30
0.0
 10
85.6847142764
 20
86.9316330977
 30
0.0
 10
85.7140082124
 20
86.1371644333
 30
0.0
 10
85.7433645124
 20
85.1873668488
 30
0.0
 10
85.7850972012
 20
83.6358089518
 30
0.0
 10
85.8355679376
 20
81.3815593327
 30
0.0
 10
85.8938462733
 20
78.3569026035
 30
0.0
 10
85.9523525712
 20
74.9857885142
 30
0.0
 10
86.0110213575
 20
71.3867086289
 30
0.0
 10
86.0697408196
 20
67.6861297582
 30
0.0
 10
86.1284511314
 20
64.0141133154
 30
0.0
 10
86.1781981571
 20
61.0306673168
 30
0.0
 10
86.218601225
 20
58.7548408799
 30
0.0
 10
86.2483027728
 20
57.1667913634
 30
0.0
 10
86.2779792102
 20
55.6785456356
 30
0.0
 10
86.3076213294
 20
54.3032120676
 30
0.0
 10
86.3372135526
 20
53.0529030568
 30
0.0
 10
86.3667318419
 20
51.9385996555
 30
0.0
 10
86.3961477448
 20
50.970136274
 30
0.0
 10
86.4216756198
 20
50.2582469241
 30
0.0
 10
86.4425687649
 20
49.7679627847
 30
0.0
 10
86.4573639298
 20
49.4615903552
 30
0.0
 10
86.4720980897
 20
49.1971498122
 30
0.0
 10
86.4867874582
 20
48.9752291759
 30
0.0
 10
86.5012443966
 20
48.7962290126
 30
0.0
 10
86.5156854463
 20
48.6607037792
 30
0.0
 10
86.5280691532
 20
48.574793248
 30
0.0
 10
86.539212857
 20
48.528394813
 30
0.0
 10
86.5447882452
 20
48.5123960826
 30
0.0
 10
86.548102536
 20
48.5066426852
 30
0.0
  0
SPLINE
  5
518
100
AcDbEntity
  8
0
100
AcDbSpline
 62
7
  6
CONTINUOUS
 70
0
 71
3
 72
36
 73
32
 74
0
 42
0.0000001
 43
0.0000001
 44
0.0000000001
 40
0.0
 40
0.0
 40
0.0
 40
0.0
 40
0.0003664841
 40
0.0009967759
 40
0.0018954718
 40
0.0030635277
 40
0.006207436
 40
0.0104255402
 40
0.0157088385
 40
0.0220442098
 40
0.0294182067
 40
0.0378158331
 40
0.0575997575
 40
0.0812214165
 40
0.1084696303
 40
0.1391070316
 40
0.1728621462
 40
0.2094420992
 40
0.2485267211
 40
0.2897774238
 40
0.3773337146
 40
0.4690999686
 40
0.5619383852
 40
0.6526924222
 40
0.738293938
 40
0.8158658475
 40
0.882816873
 40
0.9369263659
 40
0.9764136421
 40
0.9902552654
 40
1.0
 40
1.0
 40
1.0
 40
1.0
 10
84.259424224
 20
87.8942992722
 30
0.0
 10
84.2618161701
 20
87.8901561032
 30
0.0
 10
84.2651806342
 20
87.8773502178
 30
0.0
 10
84.2697280392
 20
87.8531534712
 30
0.0
 10
84.2742033913
 20
87.8181569267
 30
0.0
 10
84.281084303
 20
87.7505178467
 30
0.0
 10
84.2891104854
 20
87.639413986
 30
0.0
 10
84.2983123134
 20
87.4746108679
 30
0.0
 10
84.3075541585
 20
87.2680764974
 30
0.0
 10
84.3168697641
 20
87.0203231232
 30
0.0
 10
84.3262095772
 20
86.7318891628
 30
0.0
 10
84.3394184049
 20
86.2679365168
 30
0.0
 10
84.3555255251
 20
85.5918889472
 30
0.0
 10
84.3740612606
 20
84.6697635993
 30
0.0
 10
84.3926460532
 20
83.6059336336
 30
0.0
 10
84.4112616729
 20
82.4098051789
 30
0.0
 10
84.4298932548
 20
81.0918477018
 30
0.0
 10
84.4485280739
 20
79.6636107086
 30
0.0
 10
84.4671630045
 20
78.1375190168
 30
0.0
 10
84.492505317
 20
75.9460179117
 30
0.0
 10
84.5236672423
 20
73.0668357116
 30
0.0
 10
84.5603582766
 20
69.514251605
 30
0.0
 10
84.5969945998
 20
65.9199214996
 30
0.0
 10
84.6335434028
 20
62.406069042
 30
0.0
 10
84.6699384572
 20
59.0915134253
 30
0.0
 10
84.7061653311
 20
56.087701387
 30
0.0
 10
84.7419281667
 20
53.4950043934
 30
0.0
 10
84.7774537665
 20
51.3995319724
 30
0.0
 10
84.8080871112
 20
49.9973349716
 30
0.0
 10
84.8349950324
 20
49.1744197908
 30
0.0
 10
84.848540454
 20
48.8667937132
 30
0.0
 10
84.8563199858
 20
48.739824614
 30
0.0
  0
SPLINE
  5
519
100
AcDbEntity
  8
0
100
AcDbSpline
 62
7
  6
CONTINUOUS
 70
0
 71
3
 72
9
 73
5
 74
0
 42
0.0000001
 43
0.0000001
 44
0.0000000001
 40
0.0
 40
0.0
 40
0.0
 40
0.0
 40
0.3865892179
 40
1.0
 40
1.0
 40
1.0
 40
1.0
 10
90.6657014508
 20
87.1909013581
 30
0.0
 10
90.6699461491
 20
87.1835533295
 30
0.0
 10
90.6767440653
 20
87.1623903282
 30
0.0
 10
90.6815177168
 20
87.1410453755
 30
0.0
 10
90.6840977942
 20
87.1278300435
 30
0.0
  0
SPLINE
  5
51A
100
AcDbEntity
  8
0
100
AcDbSpline
 62
7
  6
CONTINUOUS
 70
0
 71
3
 72
40
 73
36
 74
0
 42
0.0000001
 43
0.0000001
 44
0.0000000001
 40
0.0
 40
0.0
 40
0.0
 40
0.0
 40
0.0026805582
 40
0.0064806096
 40
0.0174217562
 40
0.0327345906
 40
0.0522876884
 40
0.0759014407
 40
0.1033646699
 40
0.1344264281
 40
0.1688048487
 40
0.2462342616
 40
0.3328419193
 40
0.4254825002
 40
0.5207913107
 40
0.6153067941
 40
0.7055963221
 40
0.7481225398
 40
0.7883809508
 40
0.8260055412
 40
0.8606546541
 40
0.8920116236
 40
0.9197939599
 40
0.9437461709
 40
0.9542185038
 40
0.9636547397
 40
0.9720332619
 40
0.9793371809
 40
0.98555012
 40
0.9906569522
 40
0.9946490769
 40
0.9975221561
 40
0.999278918
 40
0.9997519175
 40
1.0
 40
1.0
 40
1.0
 40
1.0
 10
90.6840977942
 20
87.1278300435
 30
0.0
 10
90.6904930714
 20
87.095072998
 30
0.0
 10
90.7017325678
 20
87.0150946205
 30
0.0
 10
90.7240559487
 20
86.7993377152
 30
0.0
 10
90.7494968743
 20
86.4259012073
 30
0.0
 10
90.7788841916
 20
85.8563371317
 30
0.0
 10
90.808399354
 20
85.1287851658
 30
0.0
 10
90.8382703503
 20
84.249882237
 30
0.0
 10
90.8682320797
 20
83.2276115039
 30
0.0
 10
90.8982994814
 20
82.0712657915
 30
0.0
 10
90.9401316874
 20
80.2928940962
 30
0.0
 10
90.9912250043
 20
77.8229573474
 30
0.0
 10
91.0506889206
 20
74.6276292999
 30
0.0
 10
91.1102910765
 20
71.2096525598
 30
0.0
 10
91.1699587701
 20
67.6932029153
 30
0.0
 10
91.2296124864
 20
64.2060300844
 30
0.0
 10
91.2801899329
 20
61.3759915815
 30
0.0
 10
91.321290484
 20
59.2214456905
 30
0.0
 10
91.3514801025
 20
57.7225402284
 30
0.0
 10
91.3816414192
 20
56.3217326438
 30
0.0
 10
91.4117633241
 20
55.0317831367
 30
0.0
 10
91.441830056
 20
53.8644138307
 30
0.0
 10
91.4718173455
 20
52.8302781603
 30
0.0
 10
91.4977223528
 20
52.0561723929
 30
0.0
 10
91.5188149138
 20
51.5104697819
 30
0.0
 10
91.5338968596
 20
51.1585916995
 30
0.0
 10
91.5489544833
 20
50.8461970896
 30
0.0
 10
91.5639602259
 20
50.5740015958
 30
0.0
 10
91.578923374
 20
50.3425612721
 30
0.0
 10
91.5937085994
 20
50.1525814498
 30
0.0
 10
91.6084894022
 20
50.0039710868
 30
0.0
 10
91.6223876553
 20
49.8981067111
 30
0.0
 10
91.6356242597
 20
49.8347525521
 30
0.0
 10
91.645944754
 20
49.8066818625
 30
0.0
 10
91.6532310295
 20
49.7990533926
 30
0.0
 10
91.6563198889
 20
49.7990580696
 30
0.0
  0
SPLINE
  5
51B
100
AcDbEntity
  8
0
100
AcDbSpline
 62
7
  6
CONTINUOUS
 70
0
 71
3
 72
11
 73
7
 74
0
 42
0.0000001
 43
0.0000001
 44
0.0000000001
 40
0.0
 40
0.0
 40
0.0
 40
0.0
 40
0.0902701957
 40
0.2799559886
 40
0.5823822599
 40
1.0
 40
1.0
 40
1.0
 40
1.0
 10
92.9057651541
 20
48.499023471
 30
0.0
 10
92.9019164277
 20
48.499023471
 30
0.0
 10
92.8934939352
 20
48.5109256569
 30
0.0
 10
92.8869074341
 20
48.533215817
 30
0.0
 10
92.8779947877
 20
48.5718763612
 30
0.0
 10
92.8733676156
 20
48.601966515
 30
0.0
 10
92.8708077956
 20
48.6195869402
 30
0.0
  0
SPLINE
  5
51C
100
AcDbEntity
  8
0
100
AcDbSpline
 62
7
  6
CONTINUOUS
 70
0
 71
3
 72
37
 73
33
 74
0
 42
0.0000001
 43
0.0000001
 44
0.0000000001
 40
0.0
 40
0.0
 40
0.0
 40
0.0
 40
0.0073847616
 40
0.0190800533
 40
0.0349909139
 40
0.0549784559
 40
0.0788703726
 40
0.106454721
 40
0.1717080403
 40
0.248447078
 40
0.3339724952
 40
0.4252785109
 40
0.5191608294
 40
0.6123193202
 40
0.7014777994
 40
0.7435702185
 40
0.7835060498
 40
0.8209322851
 40
0.8555200733
 40
0.8869658695
 40
0.9149916411
 40
0.9393537472
 40
0.9598353589
 40
0.9685652625
 40
0.9762602616
 40
0.9829038103
 40
0.9884835225
 40
0.9929876053
 40
0.9964064076
 40
0.9987386835
 40
0.9995006403
 40
1.0
 40
1.0
 40
1.0
 40
1.0
 10
92.8708077956
 20
48.6195869402
 30
0.0
 10
92.8566910554
 20
48.716758994
 30
0.0
 10
92.8351746809
 20
48.9697854351
 30
0.0
 10
92.8064889897
 20
49.4340618248
 30
0.0
 10
92.7779294981
 20
50.0663206656
 30
0.0
 10
92.7486354564
 20
50.8607716161
 30
0.0
 10
92.7192790834
 20
51.8105542361
 30
0.0
 10
92.6775461387
 20
53.3620973349
 30
0.0
 10
92.6270751861
 20
55.6163345208
 30
0.0
 10
92.568796613
 20
58.6409832673
 30
0.0
 10
92.5102900661
 20
62.0120986775
 30
0.0
 10
92.4516209997
 20
65.6111889612
 30
0.0
 10
92.3929012408
 20
69.3117853655
 30
0.0
 10
92.3341906345
 20
72.9838233076
 30
0.0
 10
92.2844433896
 20
75.9672877468
 30
0.0
 10
92.2440401624
 20
78.2431282714
 30
0.0
 10
92.2143385125
 20
79.8311875574
 30
0.0
 10
92.1846619775
 20
81.319442933
 30
0.0
 10
92.1550197281
 20
82.6947865987
 30
0.0
 10
92.1254273744
 20
83.9451058082
 30
0.0
 10
92.0959089485
 20
85.0594186415
 30
0.0
 10
92.0664929108
 20
86.0278900433
 30
0.0
 10
92.0409649261
 20
86.7397852455
 30
0.0
 10
92.0200716934
 20
87.2300735037
 30
0.0
 10
92.0052764607
 20
87.5364485476
 30
0.0
 10
91.9905422351
 20
87.800891357
 30
0.0
 10
91.9758528009
 20
88.0228139026
 30
0.0
 10
91.9613957961
 20
88.2018155874
 30
0.0
 10
91.9469546743
 20
88.3373419446
 30
0.0
 10
91.9345709135
 20
88.4232531712
 30
0.0
 10
91.9234271572
 20
88.4696519671
 30
0.0
 10
91.9178517452
 20
88.4856508149
 30
0.0
 10
91.9145374356
 20
88.4914042497
 30
0.0
  0
SPLINE
  5
51D
100
AcDbEntity
  8
0
100
AcDbSpline
 62
7
  6
CONTINUOUS
 70
0
 71
3
 72
26
 73
22
 74
0
 42
0.0000001
 43
0.0000001
 44
0.0000000001
 40
0.0
 40
0.0
 40
0.0
 40
0.0
 40
0.1917060578
 40
0.3762887627
 40
0.4637654999
 40
0.5469310054
 40
0.6250140305
 40
0.6972899717
 40
0.7630835619
 40
0.8217885559
 40
0.8728587511
 40
0.9158214162
 40
0.9341360914
 40
0.950282142
 40
0.9642195924
 40
0.9759202581
 40
0.9853599096
 40
0.9925172
 40
0.9973865618
 40
0.99896992
 40
1.0
 40
1.0
 40
1.0
 40
1.0
 10
90.0568753358
 20
68.499023471
 30
0.0
 10
90.0772164805
 20
67.2209503823
 30
0.0
 10
90.1171415017
 20
64.712294453
 30
0.0
 10
90.1681596658
 20
61.6204741037
 30
0.0
 10
90.2096079614
 20
59.2523097251
 30
0.0
 10
90.2401202183
 20
57.594169261
 30
0.0
 10
90.2706066184
 20
56.0374004666
 30
0.0
 10
90.3010558239
 20
54.5964849678
 30
0.0
 10
90.3314581504
 20
53.2848062628
 30
0.0
 10
90.3617779422
 20
52.1145600991
 30
0.0
 10
90.3919988249
 20
51.0965985534
 30
0.0
 10
90.4182156064
 20
50.3479533347
 30
0.0
 10
90.4396815865
 20
49.8321626174
 30
0.0
 10
90.4548800068
 20
49.5098167704
 30
0.0
 10
90.4700154267
 20
49.2316161003
 30
0.0
 10
90.4851069628
 20
48.9982256081
 30
0.0
 10
90.4999522539
 20
48.8100817413
 30
0.0
 10
90.5147860794
 20
48.6677942736
 30
0.0
 10
90.527486589
 20
48.5777266747
 30
0.0
 10
90.538951015
 20
48.5292450495
 30
0.0
 10
90.5446732787
 20
48.5125906307
 30
0.0
 10
90.5481025272
 20
48.5066397439
 30
0.0
  0
SPLINE
  5
51E
100
AcDbEntity
  8
0
100
AcDbSpline
 62
7
  6
CONTINUOUS
 70
0
 71
3
 72
11
 73
7
 74
0
 42
0.0000001
 43
0.0000001
 44
0.0000000001
 40
0.0
 40
0.0
 40
0.0
 40
0.0
 40
0.0902539638
 40
0.279937757
 40
0.5823700106
 40
1.0
 40
1.0
 40
1.0
 40
1.0
 10
90.9057645125
 20
48.499023471
 30
0.0
 10
90.9019136885
 20
48.499023471
 30
0.0
 10
90.8934881569
 20
48.5109366024
 30
0.0
 10
90.8868996109
 20
48.533241755
 30
0.0
 10
90.8779834549
 20
48.571932494
 30
0.0
 10
90.8733545879
 20
48.6020452313
 30
0.0
 10
90.8707937907
 20
48.6196790865
 30
0.0
  0
SPLINE
  5
51F
100
AcDbEntity
  8
0
100
AcDbSpline
 62
7
  6
CONTINUOUS
 70
0
 71
3
 72
37
 73
33
 74
0
 42
0.0000001
 43
0.0000001
 44
0.0000000001
 40
0.0
 40
0.0
 40
0.0
 40
0.0
 40
0.0073866345
 40
0.0190837938
 40
0.0349966087
 40
0.0549860653
 40
0.0788795023
 40
0.1064650316
 40
0.171719996
 40
0.2484598542
 40
0.333985335
 40
0.4252908199
 40
0.5191707629
 40
0.6123267333
 40
0.7014835221
 40
0.7435753584
 40
0.7835108567
 40
0.8209369087
 40
0.8555242153
 40
0.886969096
 40
0.9149940522
 40
0.9393554824
 40
0.9598365052
 40
0.9685661466
 40
0.9762609325
 40
0.9829042877
 40
0.9884838325
 40
0.9929877881
 40
0.9964065014
 40
0.9987387146
 40
0.9995006516
 40
1.0
 40
1.0
 40
1.0
 40
1.0
 10
90.8707937907
 20
48.6196790865
 30
0.0
 10
90.8566787605
 20
48.7168763214
 30
0.0
 10
90.8351614787
 20
48.9699517542
 30
0.0
 10
90.8064759468
 20
49.43430309
 30
0.0
 10
90.7779159296
 20
50.0666367015
 30
0.0
 10
90.7486219015
 20
50.8611575348
 30
0.0
 10
90.7192654945
 20
51.8109993283
 30
0.0
 10
90.6775334165
 20
53.3625966465
 30
0.0
 10
90.6270632195
 20
55.6168770849
 30
0.0
 10
90.5687855104
 20
58.6415524322
 30
0.0
 10
90.5102798012
 20
62.0126646961
 30
0.0
 10
90.4516118738
 20
65.6117088055
 30
0.0
 10
90.3928934355
 20
69.3122244393
 30
0.0
 10
90.3341842053
 20
72.9841662572
 30
0.0
 10
90.2844378531
 20
75.9675600078
 30
0.0
 10
90.2440350878
 20
78.2433605754
 30
0.0
 10
90.2143335181
 20
79.8314015442
 30
0.0
 10
90.184656973
 20
81.3196401774
 30
0.0
 10
90.1550150151
 20
82.6949596234
 30
0.0
 10
90.1254229643
 20
83.9452464975
 30
0.0
 10
90.0959050602
 20
85.0595247325
 30
0.0
 10
90.0664895229
 20
86.0279662188
 30
0.0
 10
90.0409619832
 20
86.7398394589
 30
0.0
 10
90.0200690424
 20
87.2301124201
 30
0.0
 10
90.0052740815
 20
87.5364778569
 30
0.0
 10
89.9905400961
 20
87.8009124154
 30
0.0
 10
89.9758508964
 20
88.0228279532
 30
0.0
 10
89.9613941421
 20
88.2018241182
 30
0.0
 10
89.9469533191
 20
88.3373464602
 30
0.0
 10
89.9345697522
 20
88.4232552034
 30
0.0
 10
89.9234261738
 20
88.4696526506
 30
0.0
 10
89.9178508403
 20
88.4856510411
 30
0.0
 10
89.9145365933
 20
88.4914043207
 30
0.0
  0
SPLINE
  5
520
100
AcDbEntity
  8
0
100
AcDbSpline
 62
7
  6
CONTINUOUS
 70
0
 71
3
 72
11
 73
7
 74
0
 42
0.0000001
 43
0.0000001
 44
0.0000000001
 40
0.0
 40
0.0
 40
0.0
 40
0.0
 40
0.0902273413
 40
0.2799079245
 40
0.5823500191
 40
1.0
 40
1.0
 40
1.0
 40
1.0
 10
86.9057651294
 20
48.499023471
 30
0.0
 10
86.9019108524
 20
48.499023471
 30
0.0
 10
86.8934803245
 20
48.5109546231
 30
0.0
 10
86.8868884098
 20
48.5332844433
 30
0.0
 10
86.8779664849
 20
48.5720248671
 30
0.0
 10
86.8733348341
 20
48.6021747586
 30
0.0
 10
86.8707724338
 20
48.6198307068
 30
0.0
  0
SPLINE
  5
521
100
AcDbEntity
  8
0
100
AcDbSpline
 62
7
  6
CONTINUOUS
 70
0
 71
3
 72
37
 73
33
 74
0
 42
0.0000001
 43
0.0000001
 44
0.0000000001
 40
0.0
 40
0.0
 40
0.0
 40
0.0
 40
0.0073896839
 40
0.0190897363
 40
0.0350052425
 40
0.0549972839
 40
0.0788931759
 40
0.1064804318
 40
0.1717360923
 40
0.2484755224
 40
0.3340001905
 40
0.4253055236
 40
0.519184301
 40
0.6123369364
 40
0.7014913081
 40
0.7435824004
 40
0.7835172959
 40
0.8209430125
 40
0.8555300921
 40
0.8869745997
 40
0.914998556
 40
0.9393585481
 40
0.9598384333
 40
0.9685676125
 40
0.9762620323
 40
0.9829050615
 40
0.988484326
 40
0.9929880669
 40
0.9964066341
 40
0.998738755
 40
0.9995006655
 40
1.0
 40
1.0
 40
1.0
 40
1.0
 10
86.8707724338
 20
48.6198307068
 30
0.0
 10
86.8566602886
 20
48.7170689513
 30
0.0
 10
86.8351418345
 20
48.9702221883
 30
0.0
 10
86.8064570702
 20
49.4346870556
 30
0.0
 10
86.7778965066
 20
50.0671268035
 30
0.0
 10
86.748602865
 20
50.8617475149
 30
0.0
 10
86.7192468068
 20
51.811675662
 30
0.0
 10
86.6775164121
 20
53.363331953
 30
0.0
 10
86.6270485388
 20
55.6176303059
 30
0.0
 10
86.5687729262
 20
58.6422868393
 30
0.0
 10
86.5102687668
 20
62.013367668
 30
0.0
 10
86.4516020168
 20
65.6123696528
 30
0.0
 10
86.3928848515
 20
69.3128092311
 30
0.0
 10
86.3341771185
 20
72.9846449833
 30
0.0
 10
86.28443198
 20
75.9679409137
 30
0.0
 10
86.2440299268
 20
78.243682702
 30
0.0
 10
86.2143284931
 20
79.8316952042
 30
0.0
 10
86.184652052
 20
81.3199126287
 30
0.0
 10
86.1550098999
 20
82.6952143481
 30
0.0
 10
86.1254178211
 20
83.9454751391
 30
0.0
 10
86.0959005243
 20
85.0597117204
 30
0.0
 10
86.0664856485
 20
86.0281019421
 30
0.0
 10
86.0409590477
 20
86.7399320621
 30
0.0
 10
86.0200666992
 20
87.2301770014
 30
0.0
 10
86.0052722312
 20
87.5365259165
 30
0.0
 10
85.9905386787
 20
87.8009465317
 30
0.0
 10
85.9758498921
 20
88.0228503013
 30
0.0
 10
85.9613935359
 20
88.2018372519
 30
0.0
 10
85.9469531443
 20
88.3373530604
 30
0.0
 10
85.934569871
 20
88.423257941
 30
0.0
 10
85.9234265736
 20
88.4696534609
 30
0.0
 10
85.9178513647
 20
88.485651246
 30
0.0
 10
85.9145372154
 20
88.4914043389
 30
0.0
  0
SPLINE
  5
522
100
AcDbEntity
  8
0
100
AcDbSpline
 62
7
  6
CONTINUOUS
 70
0
 71
3
 72
11
 73
7
 74
0
 42
0.0000001
 43
0.0000001
 44
0.0000000001
 40
0.0
 40
0.0
 40
0.0
 40
0.0
 40
0.0925014613
 40
0.2824433136
 40
0.584034243
 40
1.0
 40
1.0
 40
1.0
 40
1.0
 10
88.9057642658
 20
48.499023471
 30
0.0
 10
88.9021852072
 20
48.499023471
 30
0.0
 10
88.8941698344
 20
48.5095359967
 30
0.0
 10
88.8878446685
 20
48.5298989295
 30
0.0
 10
88.879394044
 20
48.5647159229
 30
0.0
 10
88.8749873044
 20
48.591925335
 30
0.0
 10
88.8725549454
 20
48.6078349838
 30
0.0
  0
SPLINE
  5
523
100
AcDbEntity
  8
0
100
AcDbSpline
 62
7
  6
CONTINUOUS
 70
0
 71
3
 72
18
 73
14
 74
0
 42
0.0000001
 43
0.0000001
 44
0.0000000001
 40
0.0
 40
0.0
 40
0.0
 40
0.0
 40
0.0138550445
 40
0.0359570066
 40
0.0661380936
 40
0.1041470322
 40
0.1496719887
 40
0.202327293
 40
0.3272208111
 40
0.4746510553
 40
0.6396792002
 40
0.8167644878
 40
1.0
 40
1.0
 40
1.0
 40
1.0
 10
88.8725549454
 20
48.6078349838
 30
0.0
 10
88.8586663347
 20
48.6986780369
 30
0.0
 10
88.8377208706
 20
48.9365135405
 30
0.0
 10
88.8096995147
 20
49.3741932598
 30
0.0
 10
88.7818518827
 20
49.9725160409
 30
0.0
 10
88.7532492231
 20
50.7262109181
 30
0.0
 10
88.7245943015
 20
51.6290931506
 30
0.0
 10
88.6838111621
 20
53.108147822
 30
0.0
 10
88.6344984795
 20
55.2631368084
 30
0.0
 10
88.5775839688
 20
58.1634742953
 30
0.0
 10
88.5204430069
 20
61.4100493754
 30
0.0
 10
88.463133545
 20
64.8941455445
 30
0.0
 10
88.4251054766
 20
67.283801399
 30
0.0
 10
88.4057646359
 20
68.499023471
 30
0.0
  0
SPLINE
  5
524
100
AcDbEntity
  8
0
100
AcDbSpline
 62
7
  6
CONTINUOUS
 70
0
 71
3
 72
26
 73
22
 74
0
 42
0.0000001
 43
0.0000001
 44
0.0000000001
 40
0.0
 40
0.0
 40
0.0
 40
0.0
 40
0.1917062075
 40
0.3762890099
 40
0.4637656669
 40
0.5469311179
 40
0.6250140821
 40
0.6972899432
 40
0.7630834862
 40
0.821788461
 40
0.8728586674
 40
0.9158213484
 40
0.9341360394
 40
0.9502821012
 40
0.9642195601
 40
0.9759202374
 40
0.9853598979
 40
0.9925171923
 40
0.9973865586
 40
0.9989699186
 40
1.0
 40
1.0
 40
1.0
 40
1.0
 10
88.4057646359
 20
68.499023471
 30
0.0
 10
88.3854234753
 20
69.7770975572
 30
0.0
 10
88.3454984268
 20
72.2857551332
 30
0.0
 10
88.2944802439
 20
75.3775765938
 30
0.0
 10
88.2530319479
 20
77.7457407225
 30
0.0
 10
88.2225197092
 20
79.4038798805
 30
0.0
 10
88.1920333373
 20
80.9606473704
 30
0.0
 10
88.161584154
 20
82.4015616128
 30
0.0
 10
88.1311818555
 20
83.7132393407
 30
0.0
 10
88.1008620727
 20
84.8834851355
 30
0.0
 10
88.0706412056
 20
85.9014467343
 30
0.0
 10
88.0444244109
 20
86.6500922386
 30
0.0
 10
88.0229584346
 20
87.1658832422
 30
0.0
 10
88.0077600102
 20
87.4882293258
 30
0.0
 10
87.9926245818
 20
87.7664302039
 30
0.0
 10
87.9775330419
 20
87.9998208903
 30
0.0
 10
87.962687747
 20
88.187964921
 30
0.0
 10
87.9478539028
 20
88.3302525035
 30
0.0
 10
87.9351533866
 20
88.4203201703
 30
0.0
 10
87.923688958
 20
88.4688018478
 30
0.0
 10
87.9179666937
 20
88.4854562893
 30
0.0
 10
87.9145374445
 20
88.491407186
 30
0.0
  0
SPLINE
  5
525
100
AcDbEntity
  8
0
100
AcDbSpline
 62
7
  6
CONTINUOUS
 70
0
 71
3
 72
20
 73
16
 74
0
 42
0.0000001
 43
0.0000001
 44
0.0000000001
 40
0.0
 40
0.0
 40
0.0
 40
0.0
 40
0.227720874
 40
0.4281876268
 40
0.5999168299
 40
0.7418968214
 40
0.8014664891
 40
0.8533053088
 40
0.8973475153
 40
0.9335309294
 40
0.9618012138
 40
0.9821461868
 40
0.9946443532
 40
0.9980783635
 40
1.0
 40
1.0
 40
1.0
 40
1.0
 10
93.7563199858
 20
84.6998640357
 30
0.0
 10
93.7484707392
 20
84.9890523885
 30
0.0
 10
93.7329689737
 20
85.5327988209
 30
0.0
 10
93.7083604747
 20
86.2945337463
 30
0.0
 10
93.6838312478
 20
86.9472818628
 30
0.0
 10
93.6625051252
 20
87.4210199529
 30
0.0
 10
93.6449903714
 20
87.7424511181
 30
0.0
 10
93.6326703344
 20
87.9395462083
 30
0.0
 10
93.6203936578
 20
88.1068932846
 30
0.0
 10
93.6082426071
 20
88.2441439152
 30
0.0
 10
93.5961609805
 20
88.3513444767
 30
0.0
 10
93.5846283028
 20
88.4278330921
 30
0.0
 10
93.5739220671
 20
88.4733296183
 30
0.0
 10
93.5651824702
 20
88.4938299116
 30
0.0
 10
93.5593172832
 20
88.4990084413
 30
0.0
 10
93.5568760555
 20
88.4990132448
 30
0.0
  0
SPLINE
  5
526
100
AcDbEntity
  8
0
100
AcDbSpline
 62
7
  6
CONTINUOUS
 70
0
 71
3
 72
9
 73
5
 74
0
 42
0.0000001
 43
0.0000001
 44
0.0000000001
 40
0.0
 40
0.0
 40
0.0
 40
0.0
 40
0.6323446059
 40
1.0
 40
1.0
 40
1.0
 40
1.0
 10
84.8563199858
 20
48.739824614
 30
0.0
 10
84.8611291277
 20
48.6930763616
 30
0.0
 10
84.8701807207
 20
48.6195334652
 30
0.0
 10
84.8822586863
 20
48.5456365052
 30
0.0
 10
84.8912665846
 20
48.5198404047
 30
0.0
  0
SPLINE
  5
527
100
AcDbEntity
  8
0
100
AcDbSpline
 62
7
  6
CONTINUOUS
 70
0
 71
3
 72
9
 73
5
 74
0
 42
0.0000001
 43
0.0000001
 44
0.0000000001
 40
0.0
 40
0.0
 40
0.0
 40
0.0
 40
0.6579887657
 40
1.0
 40
1.0
 40
1.0
 40
1.0
 10
84.8912665846
 20
48.5198404047
 30
0.0
 10
84.893155268
 20
48.5144317441
 30
0.0
 10
84.8957998743
 20
48.5066225287
 30
0.0
 10
84.9027852641
 20
48.4990484234
 30
0.0
 10
84.9057630363
 20
48.4990347515
 30
0.0
  0
SPLINE
  5
528
100
AcDbEntity
  8
0
100
AcDbSpline
 62
7
  6
CONTINUOUS
 70
0
 71
3
 72
9
 73
5
 74
0
 42
0.0000001
 43
0.0000001
 44
0.0000000001
 40
0.0
 40
0.0
 40
0.0
 40
0.0
 40
0.1753892087
 40
1.0
 40
1.0
 40
1.0
 40
1.0
 10
84.6657013874
 20
87.1908750961
 30
0.0
 10
84.6671567752
 20
87.1883584772
 30
0.0
 10
84.6740605383
 20
87.1732293757
 30
0.0
 10
84.6778767175
 20
87.1569580637
 30
0.0
 10
84.6808297898
 20
87.1436126122
 30
0.0
  0
SPLINE
  5
529
100
AcDbEntity
  8
0
100
AcDbSpline
 62
7
  6
CONTINUOUS
 70
0
 71
3
 72
41
 73
37
 74
0
 42
0.0000001
 43
0.0000001
 44
0.0000000001
 40
0.0
 40
0.0
 40
0.0
 40
0.0
 40
0.0024493702
 40
0.0060257597
 40
0.0107255743
 40
0.0165419982
 40
0.0314715885
 40
0.0506805946
 40
0.0739957456
 40
0.1012051947
 40
0.1320584791
 40
0.1662758944
 40
0.2435162935
 40
0.3301035614
 40
0.42287235
 40
0.5184308327
 40
0.6132848877
 40
0.7039662695
 40
0.7466972604
 40
0.7871596784
 40
0.8249849285
 40
0.8598241029
 40
0.8913608533
 40
0.9193044267
 40
0.9434007259
 40
0.9539355092
 40
0.9634298777
 40
0.9718607877
 40
0.9792089071
 40
0.9854598068
 40
0.9905997362
 40
0.9946166816
 40
0.9975065109
 40
0.9992743229
 40
0.9997507263
 40
1.0
 40
1.0
 40
1.0
 40
1.0
 10
84.6808297898
 20
87.1436126122
 30
0.0
 10
84.6874216034
 20
87.1138230499
 30
0.0
 10
84.698674047
 20
87.0395060248
 30
0.0
 10
84.7133418822
 20
86.9067331247
 30
0.0
 10
84.7281307416
 20
86.7317864244
 30
0.0
 10
84.7499502068
 20
86.4155773536
 30
0.0
 10
84.7759321746
 20
85.9185315277
 30
0.0
 10
84.8056602608
 20
85.2034854653
 30
0.0
 10
84.8355570657
 20
84.335367853
 30
0.0
 10
84.8656248774
 20
83.3221424966
 30
0.0
 10
84.8957807406
 20
82.1730642408
 30
0.0
 10
84.9377797105
 20
80.4008866565
 30
0.0
 10
84.9890529926
 20
77.9345004494
 30
0.0
 10
85.0487011084
 20
74.7388062949
 30
0.0
 10
85.1084922496
 20
71.3149017622
 30
0.0
 10
85.1683525944
 20
67.7880098719
 30
0.0
 10
85.2282005635
 20
64.2871229294
 30
0.0
 10
85.2789371534
 20
61.4442130469
 30
0.0
 10
85.3201677604
 20
59.278763556
 30
0.0
 10
85.3504596554
 20
57.7716193015
 30
0.0
 10
85.3807196338
 20
56.3627984326
 30
0.0
 10
85.4109456287
 20
55.0651853804
 30
0.0
 10
85.4411089574
 20
53.8906963196
 30
0.0
 10
85.4712013983
 20
52.8500713103
 30
0.0
 10
85.4971876051
 20
52.0710497079
 30
0.0
 10
85.5183541668
 20
51.5218145085
 30
0.0
 10
85.5334860942
 20
51.1676297227
 30
0.0
 10
85.5485916376
 20
50.8531725576
 30
0.0
 10
85.5636493851
 20
50.5791836583
 30
0.0
 10
85.5786670137
 20
50.3462070509
 30
0.0
 10
85.5934950459
 20
50.154952181
 30
0.0
 10
85.6083275902
 20
50.0053420071
 30
0.0
 10
85.6222690471
 20
49.8987879808
 30
0.0
 10
85.6355692715
 20
49.8349983714
 30
0.0
 10
85.6459016864
 20
49.8067397893
 30
0.0
 10
85.6532146306
 20
49.7990228511
 30
0.0
 10
85.6563196613
 20
49.7990278774
 30
0.0
  0
SPLINE
  5
52A
100
AcDbEntity
  8
0
100
AcDbSpline
 62
7
  6
CONTINUOUS
 70
0
 71
3
 72
42
 73
38
 74
0
 42
0.0000001
 43
0.0000001
 44
0.0000000001
 40
0.0
 40
0.0
 40
0.0
 40
0.0
 40
0.0002506457
 40
0.0007309109
 40
0.0025152183
 40
0.0054325664
 40
0.0094871261
 40
0.0146751604
 40
0.0209850344
 40
0.0284019647
 40
0.0369107527
 40
0.0464928296
 40
0.0571244059
 40
0.0814380123
 40
0.1096290106
 40
0.141437006
 40
0.1765669314
 40
0.2146958615
 40
0.255468827
 40
0.2985107688
 40
0.3897872
 40
0.4851545991
 40
0.5810909622
 40
0.6740530942
 40
0.7606079338
 40
0.8004718664
 40
0.8375595879
 40
0.8715304744
 40
0.9020675768
 40
0.9288915018
 40
0.9517526278
 40
0.9704415437
 40
0.9847880473
 40
0.9902908289
 40
0.9946632537
 40
0.9978998506
 40
1.0
 40
1.0
 40
1.0
 40
1.0
 10
90.8063194585
 20
87.1990091827
 30
0.0
 10
90.8094432897
 20
87.1990162692
 30
0.0
 10
90.8168011116
 20
87.1912164774
 30
0.0
 10
90.8271722346
 20
87.1626884405
 30
0.0
 10
90.8405453204
 20
87.0982474532
 30
0.0
 10
90.8545496421
 20
86.9906277236
 30
0.0
 10
90.8694607079
 20
86.8395193162
 30
0.0
 10
90.8843627484
 20
86.6463577117
 30
0.0
 10
90.8994548852
 20
86.411060155
 30
0.0
 10
90.914587805
 20
86.1343577166
 30
0.0
 10
90.9297705441
 20
85.8168065057
 30
0.0
 10
90.9449778806
 20
85.4591571616
 30
0.0
 10
90.966249009
 20
84.904612577
 30
0.0
 10
90.992365955
 20
84.1181650456
 30
0.0
 10
91.0226076392
 20
83.0677962984
 30
0.0
 10
91.0529229967
 20
81.8825748407
 30
0.0
 10
91.0832996733
 20
80.5734607368
 30
0.0
 10
91.1137113217
 20
79.1525880488
 30
0.0
 10
91.1441547338
 20
77.6330863369
 30
0.0
 10
91.1855812635
 20
75.4512868623
 30
0.0
 10
91.2365555277
 20
72.5891280699
 30
0.0
 10
91.2966959843
 20
69.0677977553
 30
0.0
 10
91.3568416523
 20
65.525455219
 30
0.0
 10
91.4169282175
 20
62.0929602479
 30
0.0
 10
91.4681508951
 20
59.3592577682
 30
0.0
 10
91.5098778906
 20
57.3218758772
 30
0.0
 10
91.5402817823
 20
55.9397634715
 30
0.0
 10
91.5706371123
 20
54.6739222748
 30
0.0
 10
91.6009284273
 20
53.5360382711
 30
0.0
 10
91.6311301847
 20
52.5366713116
 30
0.0
 10
91.661138043
 20
51.6850337806
 30
0.0
 10
91.6909754005
 20
50.9890283817
 30
0.0
 10
91.7170398632
 20
50.5093833547
 30
0.0
 10
91.739066366
 20
50.2083198245
 30
0.0
 10
91.7538203961
 20
50.0455189833
 30
0.0
 10
91.7685186214
 20
49.9254715135
 30
0.0
 10
91.779736425
 20
49.8597185928
 30
0.0
 10
91.7867121427
 20
49.8344907431
 30
0.0
  0
SPLINE
  5
52B
100
AcDbEntity
  8
0
100
AcDbSpline
 62
7
  6
CONTINUOUS
 70
0
 71
3
 72
9
 73
5
 74
0
 42
0.0000001
 43
0.0000001
 44
0.0000000001
 40
0.0
 40
0.0
 40
0.0
 40
0.0
 40
0.3085062947
 40
1.0
 40
1.0
 40
1.0
 40
1.0
 10
91.7867121427
 20
49.8344907431
 30
0.0
 10
91.7875127583
 20
49.8315952979
 30
0.0
 10
91.7902775679
 20
49.8222768021
 30
0.0
 10
91.7935667655
 20
49.8129895686
 30
0.0
 10
91.7969379311
 20
49.8071607911
 30
0.0
  0
SPLINE
  5
52C
100
AcDbEntity
  8
0
100
AcDbSpline
 62
7
  6
CONTINUOUS
 70
0
 71
3
 72
9
 73
5
 74
0
 42
0.0000001
 43
0.0000001
 44
0.0000000001
 40
0.0
 40
0.0
 40
0.0
 40
0.0
 40
0.527193791
 40
1.0
 40
1.0
 40
1.0
 40
1.0
 10
105.9993618221
 20
139.7367209396
 30
0.0
 10
105.9993637796
 20
139.6357769051
 30
0.0
 10
105.9926666358
 20
139.4442723989
 30
0.0
 10
105.9703577432
 20
139.2536547832
 30
0.0
 10
105.9534951027
 20
139.164708896
 30
0.0
  0
SPLINE
  5
52D
100
AcDbEntity
  8
0
100
AcDbSpline
 62
7
  6
CONTINUOUS
 70
0
 71
3
 72
9
 73
5
 74
0
 42
0.0000001
 43
0.0000001
 44
0.0000000001
 40
0.0
 40
0.0
 40
0.0
 40
0.0
 40
0.5237450248
 40
1.0
 40
1.0
 40
1.0
 40
1.0
 10
105.7087175086
 20
139.7367209396
 30
0.0
 10
105.7243529986
 20
139.6673623564
 30
0.0
 10
105.7490220978
 20
139.5337795863
 30
0.0
 10
105.7602755915
 20
139.3978758628
 30
0.0
 10
105.7589003366
 20
139.3332382328
 30
0.0
  0
SPLINE
  5
52E
100
AcDbEntity
  8
0
100
AcDbSpline
 62
7
  6
CONTINUOUS
 70
0
 71
3
 72
13
 73
9
 74
0
 42
0.0000001
 43
0.0000001
 44
0.0000000001
 40
0.0
 40
0.0
 40
0.0
 40
0.0
 40
0.4010540325
 40
0.6831442213
 40
0.7809257759
 40
0.8555592364
 40
0.9222087982
 40
1.0
 40
1.0
 40
1.0
 40
1.0
 10
105.9534951027
 20
139.164708896
 30
0.0
 10
105.9448721424
 20
139.1387298141
 30
0.0
 10
105.932186636
 20
139.0938824329
 30
0.0
 10
105.9198148096
 20
139.0418480049
 30
0.0
 10
105.9075931789
 20
139.0132683897
 30
0.0
 10
105.8966611207
 20
139.0003308908
 30
0.0
 10
105.881486597
 20
138.9959878951
 30
0.0
 10
105.8716200464
 20
138.998526992
 30
0.0
 10
105.8666531456
 20
139.0004030854
 30
0.0
  0
SPLINE
  5
52F
100
AcDbEntity
  8
0
100
AcDbSpline
 62
7
  6
CONTINUOUS
 70
0
 71
3
 72
9
 73
5
 74
0
 42
0.0000001
 43
0.0000001
 44
0.0000000001
 40
0.0
 40
0.0
 40
0.0
 40
0.0
 40
0.2907585819
 40
1.0
 40
1.0
 40
1.0
 40
1.0
 10
105.7589003377
 20
139.3332382346
 30
0.0
 10
105.7829649337
 20
139.3250756107
 30
0.0
 10
105.8622255703
 20
139.2911000683
 30
0.0
 10
105.9371394795
 20
139.2244973596
 30
0.0
 10
105.9534951038
 20
139.164708896
 30
0.0
  0
SPLINE
  5
530
100
AcDbEntity
  8
0
100
AcDbSpline
 62
7
  6
CONTINUOUS
 70
0
 71
3
 72
18
 73
14
 74
0
 42
0.0000001
 43
0.0000001
 44
0.0000000001
 40
0.0
 40
0.0
 40
0.0
 40
0.0
 40
0.1929174458
 40
0.3727169835
 40
0.5366484503
 40
0.6796368145
 40
0.7930149073
 40
0.8351927325
 40
0.8668623761
 40
0.8915336178
 40
0.9179626
 40
0.9536627855
 40
1.0
 40
1.0
 40
1.0
 40
1.0
 10
105.7589003366
 20
139.3332382328
 30
0.0
 10
105.7585932267
 20
139.3184488713
 30
0.0
 10
105.759244486
 20
139.2898381735
 30
0.0
 10
105.7631448895
 20
139.248852618
 30
0.0
 10
105.7686433264
 20
139.2119189373
 30
0.0
 10
105.7740616496
 20
139.180184171
 30
0.0
 10
105.7774468009
 20
139.1574623881
 30
0.0
 10
105.7773882142
 20
139.14309032
 30
0.0
 10
105.7757778737
 20
139.1355592246
 30
0.0
 10
105.7712348759
 20
139.1304784284
 30
0.0
 10
105.7641752357
 20
139.1298262297
 30
0.0
 10
105.7562041166
 20
139.1323401153
 30
0.0
 10
105.7505739669
 20
139.1352047936
 30
0.0
 10
105.7474969514
 20
139.1369813487
 30
0.0
  0
LINE
  5
531
100
AcDbEntity
  8
0
100
AcDbLine
 62
7
  6
CONTINUOUS
 10
105.8347017999
 20
139.012431378
 11
105.6673407012
 21
139.073736657
  0
SPLINE
  5
532
100
AcDbEntity
  8
0
100
AcDbSpline
 62
7
  6
CONTINUOUS
 70
0
 71
3
 72
9
 73
5
 74
0
 42
0.0000001
 43
0.0000001
 44
0.0000000001
 40
0.0
 40
0.0
 40
0.0
 40
0.0
 40
0.498145453
 40
1.0
 40
1.0
 40
1.0
 40
1.0
 10
105.7474969425
 20
139.1369813332
 30
0.0
 10
105.773915614
 20
139.1217285148
 30
0.0
 10
105.8221867454
 20
139.0820122542
 30
0.0
 10
105.8549029467
 20
139.0288009233
 30
0.0
 10
105.8666531652
 20
139.0004030944
 30
0.0
  0
SPLINE
  5
533
100
AcDbEntity
  8
0
100
AcDbSpline
 62
7
  6
CONTINUOUS
 70
0
 71
3
 72
14
 73
10
 74
0
 42
0.0000001
 43
0.0000001
 44
0.0000000001
 40
0.0
 40
0.0
 40
0.0
 40
0.0
 40
0.0388795363
 40
0.0678408301
 40
0.1042330594
 40
0.199374066
 40
0.322444759
 40
0.6353235164
 40
1.0
 40
1.0
 40
1.0
 40
1.0
 10
105.8299831145
 20
145.799023471
 30
0.0
 10
105.8408476965
 20
145.7990231925
 30
0.0
 10
105.8582140273
 20
145.7860366831
 30
0.0
 10
105.8748694751
 20
145.7628128857
 30
0.0
 10
105.8964341861
 20
145.7230832229
 30
0.0
 10
105.9208410053
 20
145.6561344717
 30
0.0
 10
105.9583481156
 20
145.5123606497
 30
0.0
 10
105.9904034712
 20
145.2903356197
 30
0.0
 10
105.9993616337
 20
145.1009294594
 30
0.0
 10
105.9993618221
 20
144.999023471
 30
0.0
  0
SPLINE
  5
534
100
AcDbEntity
  8
0
100
AcDbSpline
 62
7
  6
CONTINUOUS
 70
0
 71
3
 72
11
 73
7
 74
0
 42
0.0000001
 43
0.0000001
 44
0.0000000001
 40
0.0
 40
0.0
 40
0.0
 40
0.0
 40
0.2479071266
 40
0.4973981146
 40
0.748423338
 40
1.0
 40
1.0
 40
1.0
 40
1.0
 10
105.5347193816
 20
145.499023471
 30
0.0
 10
105.5731004924
 20
145.499023471
 30
0.0
 10
105.6508895525
 20
145.5149068094
 30
0.0
 10
105.7492989097
 20
145.5815445831
 30
0.0
 10
105.8145180814
 20
145.6815057905
 30
0.0
 10
105.8299831145
 20
145.7600742408
 30
0.0
 10
105.8299831145
 20
145.799023471
 30
0.0
  0
SPLINE
  5
535
100
AcDbEntity
  8
0
100
AcDbSpline
 62
7
  6
CONTINUOUS
 70
0
 71
3
 72
12
 73
8
 74
0
 42
0.0000001
 43
0.0000001
 44
0.0000000001
 40
0.0
 40
0.0
 40
0.0
 40
0.0
 40
0.1249778277
 40
0.2217963817
 40
0.3423540905
 40
0.6449891823
 40
1.0
 40
1.0
 40
1.0
 40
1.0
 10
105.5347193816
 20
145.499023471
 30
0.0
 10
105.5577604033
 20
145.4990231963
 30
0.0
 10
105.5933413869
 20
145.4667506848
 30
0.0
 10
105.6255397878
 20
145.4144791521
 30
0.0
 10
105.6647530621
 20
145.3258552036
 30
0.0
 10
105.6989440748
 20
145.1860085675
 30
0.0
 10
105.7087172879
 20
145.064473576
 30
0.0
 10
105.7087175086
 20
144.999023471
 30
0.0
  0
SPLINE
  5
536
100
AcDbEntity
  8
0
100
AcDbSpline
 62
7
  6
CONTINUOUS
 70
0
 71
3
 72
14
 73
10
 74
0
 42
0.0000001
 43
0.0000001
 44
0.0000000001
 40
0.0
 40
0.0
 40
0.0
 40
0.0
 40
0.1898612161
 40
0.3138842675
 40
0.4502385505
 40
0.5933804481
 40
0.7369034726
 40
0.8743269452
 40
1.0
 40
1.0
 40
1.0
 40
1.0
 10
106.6918538918
 20
89.9777055262
 30
0.0
 10
107.6837832777
 20
89.5416545218
 30
0.0
 10
109.3572085334
 20
88.8914031748
 30
0.0
 10
111.8329162755
 20
88.1938992532
 30
0.0
 10
114.1022351529
 20
87.7776744039
 30
0.0
 10
116.5166777668
 20
87.6130119418
 30
0.0
 10
118.9394257166
 20
87.7447225647
 30
0.0
 10
121.231099619
 20
88.1364173967
 30
0.0
 10
122.6820984675
 20
88.5304009062
 30
0.0
 10
123.3663704922
 20
88.7452848068
 30
0.0
  0
SPLINE
  5
537
100
AcDbEntity
  8
0
100
AcDbSpline
 62
7
  6
CONTINUOUS
 70
0
 71
3
 72
11
 73
7
 74
0
 42
0.0000001
 43
0.0000001
 44
0.0000000001
 40
0.0
 40
0.0
 40
0.0
 40
0.0
 40
0.2383728845
 40
0.4876638948
 40
0.7439325888
 40
1.0
 40
1.0
 40
1.0
 40
1.0
 10
106.6918538918
 20
89.9777048855
 30
0.0
 10
106.7594847079
 20
89.9847179435
 30
0.0
 10
106.895952444
 20
90.027628472
 30
0.0
 10
107.0660129678
 20
90.1611403619
 30
0.0
 10
107.1864891402
 20
90.3463234604
 30
0.0
 10
107.2240957352
 20
90.4907262233
 30
0.0
 10
107.2304748928
 20
90.5634877641
 30
0.0
  0
SPLINE
  5
538
100
AcDbEntity
  8
0
100
AcDbSpline
 62
7
  6
CONTINUOUS
 70
0
 71
3
 72
14
 73
10
 74
0
 42
0.0000001
 43
0.0000001
 44
0.0000000001
 40
0.0
 40
0.0
 40
0.0
 40
0.0
 40
0.18867956
 40
0.3122875828
 40
0.4487157194
 40
0.5924147905
 40
0.7366018871
 40
0.8743727021
 40
1.0
 40
1.0
 40
1.0
 40
1.0
 10
107.2304736806
 20
90.5634877641
 30
0.0
 10
108.1538596072
 20
90.1226323713
 30
0.0
 10
109.7173906805
 20
89.4612048185
 30
0.0
 10
112.0454246976
 20
88.7434323208
 30
0.0
 10
114.1962211511
 20
88.3090483605
 30
0.0
 10
116.4973361193
 20
88.1335378171
 30
0.0
 10
118.8087411281
 20
88.2679986064
 30
0.0
 10
120.9867113406
 20
88.6725673986
 30
0.0
 10
122.3588434712
 20
89.0775464178
 30
0.0
 10
123.0036650594
 20
89.2974555705
 30
0.0
  0
SPLINE
  5
539
100
AcDbEntity
  8
0
100
AcDbSpline
 62
7
  6
CONTINUOUS
 70
0
 71
3
 72
21
 73
17
 74
0
 42
0.0000001
 43
0.0000001
 44
0.0000000001
 40
0.0
 40
0.0
 40
0.0
 40
0.0
 40
0.0009294113
 40
0.0037164143
 40
0.0083648782
 40
0.0148787429
 40
0.0335187615
 40
0.0596705609
 40
0.0933927563
 40
0.1347710143
 40
0.1839004823
 40
0.2408876457
 40
0.3790161339
 40
0.5505985366
 40
0.7571344149
 40
1.0
 40
1.0
 40
1.0
 40
1.0
 10
105.7761007418
 20
90.3252642514
 30
0.0
 10
105.7763272147
 20
90.3254678178
 30
0.0
 10
105.777697932
 20
90.3245937373
 30
0.0
 10
105.7802132078
 20
90.3246620101
 30
0.0
 10
105.7847853038
 20
90.3233872127
 30
0.0
 10
105.7942808489
 20
90.3215847316
 30
0.0
 10
105.8107518732
 20
90.3178588523
 30
0.0
 10
105.8358335787
 20
90.3123134015
 30
0.0
 10
105.8681369616
 20
90.3046912587
 30
0.0
 10
105.9076183265
 20
90.2948099823
 30
0.0
 10
105.9543010903
 20
90.2823000668
 30
0.0
 10
106.0312397994
 20
90.2602795
 30
0.0
 10
106.1456572432
 20
90.2234799214
 30
0.0
 10
106.3040791886
 20
90.1640138041
 30
0.0
 10
106.4906509497
 20
90.0826006541
 30
0.0
 10
106.6219872797
 20
90.0157914522
 30
0.0
 10
106.6918538918
 20
89.9777055262
 30
0.0
  0
SPLINE
  5
53A
100
AcDbEntity
  8
0
100
AcDbSpline
 62
7
  6
CONTINUOUS
 70
0
 71
3
 72
28
 73
24
 74
0
 42
0.0000001
 43
0.0000001
 44
0.0000000001
 40
0.0
 40
0.0
 40
0.0
 40
0.0
 40
0.0005140511
 40
0.0015081247
 40
0.0030693209
 40
0.005215197
 40
0.0112765968
 40
0.0197006445
 40
0.0304783742
 40
0.0435863088
 40
0.0589914418
 40
0.0766598345
 40
0.0965524288
 40
0.118617998
 40
0.1690540449
 40
0.2274882762
 40
0.293358563
 40
0.3660291897
 40
0.4448044296
 40
0.5289240379
 40
0.6175814525
 40
0.8050381018
 40
1.0
 40
1.0
 40
1.0
 40
1.0
 10
88.8063203203
 20
87.1989980645
 30
0.0
 10
88.8095272472
 20
87.1990049977
 30
0.0
 10
88.8170488854
 20
87.1908158703
 30
0.0
 10
88.8232128508
 20
87.1734658775
 30
0.0
 10
88.8310904657
 20
87.1447858304
 30
0.0
 10
88.842215831
 20
87.085053267
 30
0.0
 10
88.8556404471
 20
86.9819657766
 30
0.0
 10
88.8706734885
 20
86.8251443407
 30
0.0
 10
88.8859426115
 20
86.6241181893
 30
0.0
 10
88.9013106468
 20
86.3794893136
 30
0.0
 10
88.9167539619
 20
86.0917913882
 30
0.0
 10
88.9322379836
 20
85.7617218514
 30
0.0
 10
88.9477499327
 20
85.3900603525
 30
0.0
 10
88.9694413543
 20
84.8140614687
 30
0.0
 10
88.9960758214
 20
83.9976409599
 30
0.0
 10
89.0269194914
 20
82.9079473422
 30
0.0
 10
89.0578389028
 20
81.6794950561
 30
0.0
 10
89.0888202867
 20
80.3241100758
 30
0.0
 10
89.1198375835
 20
78.8548493425
 30
0.0
 10
89.1508868545
 20
77.2858342563
 30
0.0
 10
89.1930947353
 20
75.0388937807
 30
0.0
 10
89.2450172665
 20
72.1005198182
 30
0.0
 10
89.2856195856
 20
69.7151272941
 30
0.0
 10
89.3063199858
 20
68.499023471
 30
0.0
  0
SPLINE
  5
53B
100
AcDbEntity
  8
0
100
AcDbSpline
 62
7
  6
CONTINUOUS
 70
0
 71
3
 72
22
 73
18
 74
0
 42
0.0000001
 43
0.0000001
 44
0.0000000001
 40
0.0
 40
0.0
 40
0.0
 40
0.0
 40
0.0009607062
 40
0.0038415488
 40
0.0086432285
 40
0.015366543
 40
0.0240123885
 40
0.0345817595
 40
0.0614954136
 40
0.096117648
 40
0.1384664024
 40
0.1885713016
 40
0.2464741679
 40
0.3859121805
 40
0.5575348194
 40
0.7620782969
 40
1.0
 40
1.0
 40
1.0
 40
1.0
 10
106.1563199858
 20
90.8835620387
 30
0.0
 10
106.1564504627
 20
90.8838981797
 30
0.0
 10
106.15844137
 20
90.8828534205
 30
0.0
 10
106.1611302064
 20
90.8833835465
 30
0.0
 10
106.1668114332
 20
90.8822995714
 30
0.0
 10
106.1741981062
 20
90.8816636919
 30
0.0
 10
106.1839190582
 20
90.8804390991
 30
0.0
 10
106.201079499
 20
90.8783799503
 30
0.0
 10
106.2279388348
 20
90.8749069304
 30
0.0
 10
106.2665414089
 20
90.869473535
 30
0.0
 10
106.3136553239
 20
90.862016345
 30
0.0
 10
106.3692219305
 20
90.8521549886
 30
0.0
 10
106.4603315193
 20
90.8341141336
 30
0.0
 10
106.5951428612
 20
90.8021624468
 30
0.0
 10
106.780814395
 20
90.7472364998
 30
0.0
 10
106.997662078
 20
90.6687154435
 30
0.0
 10
107.1498876235
 20
90.6019580322
 30
0.0
 10
107.2304736806
 20
90.5634877641
 30
0.0
  0
SPLINE
  5
53C
100
AcDbEntity
  8
0
100
AcDbSpline
 62
7
  6
CONTINUOUS
 70
0
 71
3
 72
31
 73
27
 74
0
 42
0.0000001
 43
0.0000001
 44
0.0000000001
 40
0.0
 40
0.0
 40
0.0
 40
0.0
 40
0.1217323417
 40
0.2742655363
 40
0.3576904436
 40
0.443279158
 40
0.5289847567
 40
0.612749122
 40
0.6925538153
 40
0.7664654057
 40
0.8326811044
 40
0.8623870507
 40
0.8895773275
 40
0.914082508
 40
0.9357522513
 40
0.9544504707
 40
0.9700619794
 40
0.9766784684
 40
0.9824870727
 40
0.9874798971
 40
0.9916494144
 40
0.9949883346
 40
0.9974916527
 40
0.9991590237
 40
0.9996810905
 40
1.0
 40
1.0
 40
1.0
 40
1.0
 10
93.7563199858
 20
84.6998640357
 30
0.0
 10
93.7808989115
 20
83.2515737412
 30
0.0
 10
93.8247325209
 20
79.9883559064
 30
0.0
 10
93.8722758729
 20
75.7324482982
 30
0.0
 10
93.9121617254
 20
71.9065550032
 30
0.0
 10
93.9430260369
 20
68.8757963041
 30
0.0
 10
93.9739374764
 20
65.840998515
 30
0.0
 10
94.0048789506
 20
62.8750290178
 30
0.0
 10
94.0358262452
 20
60.049404857
 30
0.0
 10
94.0667583838
 20
57.4326063205
 30
0.0
 10
94.0933390897
 20
55.4119263146
 30
0.0
 10
94.1150144821
 20
53.9471718082
 30
0.0
 10
94.1306695585
 20
52.9786988208
 30
0.0
 10
94.1463108376
 20
52.1058624456
 30
0.0
 10
94.1619201794
 20
51.3340907267
 30
0.0
 10
94.1774914572
 20
50.6681691183
 30
0.0
 10
94.1910247533
 20
50.1813714936
 30
0.0
 10
94.20211621
 20
49.8479455869
 30
0.0
 10
94.2099591108
 20
49.6408379693
 30
0.0
 10
94.2177655576
 20
49.4628632616
 30
0.0
 10
94.2255599275
 20
49.3143244396
 30
0.0
 10
94.2331969067
 20
49.1954022622
 30
0.0
 10
94.2408872026
 20
49.1064428711
 30
0.0
 10
94.2473367357
 20
49.0508204398
 30
0.0
 10
94.253347704
 20
49.0216744307
 30
0.0
 10
94.256254652
 20
49.0119520567
 30
0.0
 10
94.2581474959
 20
49.0086631303
 30
0.0
  0
SPLINE
  5
53D
100
AcDbEntity
  8
0
100
AcDbSpline
 62
7
  6
CONTINUOUS
 70
0
 71
3
 72
9
 73
5
 74
0
 42
0.0000001
 43
0.0000001
 44
0.0000000001
 40
0.0
 40
0.0
 40
0.0
 40
0.0
 40
0.1808038882
 40
1.0
 40
1.0
 40
1.0
 40
1.0
 10
92.6657023146
 20
87.1908976509
 30
0.0
 10
92.6669813879
 20
87.1886812581
 30
0.0
 10
92.6729984134
 20
87.1758274365
 30
0.0
 10
92.6765224229
 20
87.1620050874
 30
0.0
 10
92.6791958334
 20
87.1507231035
 30
0.0
  0
SPLINE
  5
53E
100
AcDbEntity
  8
0
100
AcDbSpline
 62
7
  6
CONTINUOUS
 70
0
 71
3
 72
41
 73
37
 74
0
 42
0.0000001
 43
0.0000001
 44
0.0000000001
 40
0.0
 40
0.0
 40
0.0
 40
0.0
 40
0.0023325262
 40
0.0057948062
 40
0.0103867927
 40
0.0160997663
 40
0.0308341794
 40
0.049871612
 40
0.0730357049
 40
0.1001171548
 40
0.1308663352
 40
0.165001075
 40
0.2421460776
 40
0.3287233081
 40
0.421556836
 40
0.5172410133
 40
0.6122656523
 40
0.7031448528
 40
0.7459787744
 40
0.7865449554
 40
0.8244700222
 40
0.859406973
 40
0.8910325153
 40
0.9190592778
 40
0.9432270401
 40
0.9537949252
 40
0.9633174142
 40
0.9717735695
 40
0.9791457176
 40
0.9854164332
 40
0.9905708581
 40
0.9946007738
 40
0.9975008927
 40
0.9992733063
 40
0.9997503242
 40
1.0
 40
1.0
 40
1.0
 40
1.0
 10
92.6791958334
 20
87.1507231035
 30
0.0
 10
92.6858965008
 20
87.1224458062
 30
0.0
 10
92.6971563244
 20
87.0510056294
 30
0.0
 10
92.7118327712
 20
86.9224641113
 30
0.0
 10
92.7266096302
 20
86.7515449379
 30
0.0
 10
92.748494187
 20
86.4403571105
 30
0.0
 10
92.7745130277
 20
85.9490792793
 30
0.0
 10
92.8042708706
 20
85.2403531122
 30
0.0
 10
92.8342085994
 20
84.3776851199
 30
0.0
 10
92.8643205267
 20
83.369039973
 30
0.0
 10
92.8945211592
 20
82.2236625287
 30
0.0
 10
92.9366059951
 20
80.4546590586
 30
0.0
 10
92.9879676633
 20
77.9901393511
 30
0.0
 10
93.0477080463
 20
74.7943329785
 30
0.0
 10
93.1075934825
 20
71.3675168717
 30
0.0
 10
93.1675502361
 20
67.8354427933
 30
0.0
 10
93.2274957171
 20
64.3277204921
 30
0.0
 10
93.2783108864
 20
61.4783864075
 30
0.0
 10
93.3196080236
 20
59.3074767344
 30
0.0
 10
93.3499486487
 20
57.7962210499
 30
0.0
 10
93.380261959
 20
56.3833721371
 30
0.0
 10
93.4105346097
 20
55.0819389857
 30
0.0
 10
93.4407526939
 20
53.9038610817
 30
0.0
 10
93.4708905894
 20
52.8600007763
 30
0.0
 10
93.4969250699
 20
52.0784888156
 30
0.0
 10
93.5181221519
 20
51.5274936175
 30
0.0
 10
93.533281213
 20
51.1721627967
 30
0.0
 10
93.5484144285
 20
50.8566803762
 30
0.0
 10
93.5634946843
 20
50.5817773157
 30
0.0
 10
93.5785339384
 20
50.3480281634
 30
0.0
 10
93.5933941454
 20
50.1561478126
 30
0.0
 10
93.6082504659
 20
50.0060373277
 30
0.0
 10
93.6222109692
 20
49.8991164706
 30
0.0
 10
93.6355222042
 20
49.8351170195
 30
0.0
 10
93.6458872907
 20
49.8067872514
 30
0.0
 10
93.6532098657
 20
49.7990615134
 30
0.0
 10
93.6563205137
 20
49.7990631955
 30
0.0
  0
SPLINE
  5
53F
100
AcDbEntity
  8
0
100
AcDbSpline
 62
7
  6
CONTINUOUS
 70
0
 71
3
 72
26
 73
22
 74
0
 42
0.0000001
 43
0.0000001
 44
0.0000000001
 40
0.0
 40
0.0
 40
0.0
 40
0.0
 40
0.0010799399
 40
0.0027113832
 40
0.0076708712
 40
0.0149072718
 40
0.0244164306
 40
0.0361836252
 40
0.0501800067
 40
0.0663737854
 40
0.0847319954
 40
0.1277629572
 40
0.1788748051
 40
0.2375948479
 40
0.3033829275
 40
0.3756247087
 40
0.453655988
 40
0.5367514387
 40
0.6241426168
 40
0.8085226013
 40
1.0
 40
1.0
 40
1.0
 40
1.0
 10
88.6657022808
 20
87.1908963041
 30
0.0
 10
88.6690722526
 20
87.1850676581
 30
0.0
 10
88.6748032481
 20
87.1689892166
 30
0.0
 10
88.6862133434
 20
87.1226045968
 30
0.0
 10
88.6989421957
 20
87.0371494197
 30
0.0
 10
88.7137541533
 20
86.9027060477
 30
0.0
 10
88.7286029491
 20
86.725523242
 30
0.0
 10
88.7436730643
 20
86.5061444313
 30
0.0
 10
88.758793868
 20
86.2449961819
 30
0.0
 10
88.7739792699
 20
85.942708298
 30
0.0
 10
88.7954113959
 20
85.4594999854
 30
0.0
 10
88.821594603
 20
84.7586091612
 30
0.0
 10
88.8517814388
 20
83.8060812908
 30
0.0
 10
88.8820686774
 20
82.7116184533
 30
0.0
 10
88.9124321492
 20
81.4853818215
 30
0.0
 10
88.9428475582
 20
80.138719771
 30
0.0
 10
88.9732951082
 20
78.6841327214
 30
0.0
 10
89.0037711261
 20
77.1350800682
 30
0.0
 10
89.0451673229
 20
74.9230980614
 30
0.0
 10
89.0961241803
 20
72.0354849989
 30
0.0
 10
89.1360031937
 20
69.6925911458
 30
0.0
 10
89.1563199858
 20
68.499023471
 30
0.0
  0
SPLINE
  5
540
100
AcDbEntity
  8
0
100
AcDbSpline
 62
7
  6
CONTINUOUS
 70
0
 71
3
 72
43
 73
39
 74
0
 42
0.0000001
 43
0.0000001
 44
0.0000000001
 40
0.0
 40
0.0
 40
0.0
 40
0.0
 40
0.0002510503
 40
0.0007319886
 40
0.0025204798
 40
0.0054462569
 40
0.0095118127
 40
0.0147125715
 40
0.0210393562
 40
0.0284764356
 40
0.0370069485
 40
0.0466133611
 40
0.057272914
 40
0.0816476572
 40
0.1099094241
 40
0.1417935766
 40
0.177006553
 40
0.2152209676
 40
0.2560821569
 40
0.2992120086
 40
0.3906568867
 40
0.4861693904
 40
0.5822124231
 40
0.6752290486
 40
0.7617743919
 40
0.8016061609
 40
0.8386438501
 40
0.8725444696
 40
0.9029920754
 40
0.9297071673
 40
0.9524392178
 40
0.9709818782
 40
0.9786258642
 40
0.9851628097
 40
0.9905777718
 40
0.9948578613
 40
0.9979979698
 40
1.0
 40
1.0
 40
1.0
 40
1.0
 10
86.8063200828
 20
87.1989888725
 30
0.0
 10
86.8094493751
 20
87.1989936107
 30
0.0
 10
86.8168142614
 20
87.1911787701
 30
0.0
 10
86.8272124403
 20
87.1625889838
 30
0.0
 10
86.8405933445
 20
87.097966154
 30
0.0
 10
86.8546174083
 20
86.990041446
 30
0.0
 10
86.8695472775
 20
86.8385104083
 30
0.0
 10
86.8844754751
 20
86.6448177045
 30
0.0
 10
86.8995859981
 20
86.4088679123
 30
0.0
 10
86.9147388894
 20
86.1313960273
 30
0.0
 10
86.9299443111
 20
85.812977436
 30
0.0
 10
86.9451738529
 20
85.4543578328
 30
0.0
 10
86.9664718755
 20
84.8983254697
 30
0.0
 10
86.9926282479
 20
84.1097808563
 30
0.0
 10
87.0229092101
 20
83.0566792971
 30
0.0
 10
87.0532695275
 20
81.8684341686
 30
0.0
 10
87.0836864926
 20
80.5560964357
 30
0.0
 10
87.1141421168
 20
79.131834996
 30
0.0
 10
87.144627157
 20
77.6088708602
 30
0.0
 10
87.1861091012
 20
75.4224871032
 30
0.0
 10
87.237149673
 20
72.5549448938
 30
0.0
 10
87.2973720113
 20
69.0279101434
 30
0.0
 10
87.3575984983
 20
65.4812809765
 30
0.0
 10
87.4177647168
 20
62.0464412827
 30
0.0
 10
87.4690624194
 20
59.3122175574
 30
0.0
 10
87.5108569744
 20
57.2757098868
 30
0.0
 10
87.5413011127
 20
55.895315957
 30
0.0
 10
87.571695168
 20
54.631923247
 30
0.0
 10
87.6020314055
 20
53.4972394985
 30
0.0
 10
87.6322497382
 20
52.5018205773
 30
0.0
 10
87.6623468017
 20
51.6548720548
 30
0.0
 10
87.6885548274
 20
51.0456581756
 30
0.0
 10
87.7102063168
 20
50.6383391716
 30
0.0
 10
87.7253032907
 20
50.3945351945
 30
0.0
 10
87.7403482697
 20
50.1927798685
 30
0.0
 10
87.7550755759
 20
50.0334048708
 30
0.0
 10
87.7697936723
 20
49.9169698952
 30
0.0
 10
87.7809795567
 20
49.8536253356
 30
0.0
 10
87.7880875175
 20
49.8297040871
 30
0.0
  0
SPLINE
  5
541
100
AcDbEntity
  8
0
100
AcDbSpline
 62
7
  6
CONTINUOUS
 70
0
 71
3
 72
9
 73
5
 74
0
 42
0.0000001
 43
0.0000001
 44
0.0000000001
 40
0.0
 40
0.0
 40
0.0
 40
0.0
 40
0.3024731059
 40
1.0
 40
1.0
 40
1.0
 40
1.0
 10
87.7880875175
 20
49.8297040871
 30
0.0
 10
87.7887841219
 20
49.8273597232
 30
0.0
 10
87.7912208182
 20
49.8196613937
 30
0.0
 10
87.7941174149
 20
49.8120292215
 30
0.0
 10
87.7969385209
 20
49.8071455839
 30
0.0
  0
SPLINE
  5
542
100
AcDbEntity
  8
0
100
AcDbSpline
 62
7
  6
CONTINUOUS
 70
0
 71
3
 72
42
 73
38
 74
0
 42
0.0000001
 43
0.0000001
 44
0.0000000001
 40
0.0
 40
0.0
 40
0.0
 40
0.0
 40
0.0002506575
 40
0.0007307584
 40
0.0025133169
 40
0.0054276548
 40
0.0094787951
 40
0.0146624012
 40
0.0209662199
 40
0.0283763071
 40
0.0368779793
 40
0.0464514278
 40
0.0570732804
 40
0.0813661923
 40
0.1095327241
 40
0.1413146779
 40
0.1764161897
 40
0.2145156648
 40
0.2552585671
 40
0.2982701468
 40
0.3894888166
 40
0.4848064446
 40
0.5807061626
 40
0.6736495742
 40
0.7602076903
 40
0.8000826003
 40
0.8371875855
 40
0.8711823091
 40
0.901750426
 40
0.9286114185
 40
0.9515171066
 40
0.9702560712
 40
0.9846595059
 40
0.9901922569
 40
0.9945966457
 40
0.997866452
 40
1.0
 40
1.0
 40
1.0
 40
1.0
 10
92.8063203104
 20
87.1990190647
 30
0.0
 10
92.8094441427
 20
87.1990241214
 30
0.0
 10
92.8167934691
 20
87.1912203848
 30
0.0
 10
92.8271619688
 20
87.1627210706
 30
0.0
 10
92.8405292609
 20
87.0983423292
 30
0.0
 10
92.854529089
 20
86.9908313986
 30
0.0
 10
92.8694306086
 20
86.8398646444
 30
0.0
 10
92.8843251287
 20
86.6468858322
 30
0.0
 10
92.8994112201
 20
86.4118154866
 30
0.0
 10
92.9145372003
 20
86.135375786
 30
0.0
 10
92.9297111518
 20
85.8181212027
 30
0.0
 10
92.9449118124
 20
85.4608064199
 30
0.0
 10
92.9661736545
 20
84.9067750483
 30
0.0
 10
92.992276399
 20
84.1210491292
 30
0.0
 10
93.0225052326
 20
83.0716180906
 30
0.0
 10
93.0528048239
 20
81.8874369093
 30
0.0
 10
93.0831675747
 20
80.5794312249
 30
0.0
 10
93.1135643931
 20
79.1597223976
 30
0.0
 10
93.1439930743
 20
77.6414135482
 30
0.0
 10
93.1854009673
 20
75.4611914116
 30
0.0
 10
93.2363521193
 20
72.6008881031
 30
0.0
 10
93.2964644508
 20
69.0815230691
 30
0.0
 10
93.3565822925
 20
65.5406602032
 30
0.0
 10
93.4166414676
 20
62.1089784388
 30
0.0
 10
93.4678381868
 20
59.3754621128
 30
0.0
 10
93.5095421056
 20
57.3377844849
 30
0.0
 10
93.5399318992
 20
55.9550888091
 30
0.0
 10
93.5702739784
 20
54.6884089473
 30
0.0
 10
93.6005509177
 20
53.5494331752
 30
0.0
 10
93.6307415578
 20
52.5487092443
 30
0.0
 10
93.6607365068
 20
51.6954703216
 30
0.0
 10
93.690566388
 20
50.9976070851
 30
0.0
 10
93.7166200179
 20
50.5162769491
 30
0.0
 10
93.7386286269
 20
50.2137397508
 30
0.0
 10
93.753387787
 20
50.0497602159
 30
0.0
 10
93.7680791832
 20
49.9284740845
 30
0.0
 10
93.7793061085
 20
49.8618953033
 30
0.0
 10
93.7862397795
 20
49.8362257654
 30
0.0
  0
SPLINE
  5
543
100
AcDbEntity
  8
0
100
AcDbSpline
 62
7
  6
CONTINUOUS
 70
0
 71
3
 72
9
 73
5
 74
0
 42
0.0000001
 43
0.0000001
 44
0.0000000001
 40
0.0
 40
0.0
 40
0.0
 40
0.0
 40
0.3104125858
 40
1.0
 40
1.0
 40
1.0
 40
1.0
 10
93.7862397795
 20
49.8362257654
 30
0.0
 10
93.7870761203
 20
49.8331295004
 30
0.0
 10
93.7899532692
 20
49.823227181
 30
0.0
 10
93.7933716814
 20
49.8133396422
 30
0.0
 10
93.7969385844
 20
49.8071718459
 30
0.0
  0
SPLINE
  5
544
100
AcDbEntity
  8
0
100
AcDbSpline
 62
7
  6
CONTINUOUS
 70
0
 71
3
 72
21
 73
17
 74
0
 42
0.0000001
 43
0.0000001
 44
0.0000000001
 40
0.0
 40
0.0
 40
0.0
 40
0.0
 40
0.2188803056
 40
0.4155528101
 40
0.5874168025
 40
0.7321491556
 40
0.7936450293
 40
0.8475522277
 40
0.8936389691
 40
0.9316730198
 40
0.9614341042
 40
0.9827968314
 40
0.9903032264
 40
0.9956793638
 40
0.9989150284
 40
1.0
 40
1.0
 40
1.0
 40
1.0
 10
124.9462694795
 20
90.3450427035
 30
0.0
 10
125.1548334454
 20
90.4202198848
 30
0.0
 10
125.549338189
 20
90.5670398438
 30
0.0
 10
126.1029862654
 20
90.7850062962
 30
0.0
 10
126.5837181068
 20
90.9829713006
 30
0.0
 10
126.9358790836
 20
91.1334680947
 30
0.0
 10
127.1773378416
 20
91.2389321287
 30
0.0
 10
127.3269443076
 20
91.3050620302
 30
0.0
 10
127.4545927435
 20
91.3620828167
 30
0.0
 10
127.5597403589
 20
91.4095148254
 30
0.0
 10
127.642005636
 20
91.4467518313
 30
0.0
 10
127.6960066404
 20
91.4714897958
 30
0.0
 10
127.7276069436
 20
91.4857528494
 30
0.0
 10
127.7423558948
 20
91.4928228916
 30
0.0
 10
127.7514449905
 20
91.4964467671
 30
0.0
 10
127.7552508894
 20
91.4987690852
 30
0.0
 10
127.7563199858
 20
91.499023471
 30
0.0
  0
SPLINE
  5
545
100
AcDbEntity
  8
0
100
AcDbSpline
 62
7
  6
CONTINUOUS
 70
0
 71
3
 72
10
 73
6
 74
0
 42
0.0000001
 43
0.0000001
 44
0.0000000001
 40
0.0
 40
0.0
 40
0.0
 40
0.0
 40
0.4667053239
 40
0.7319044927
 40
1.0
 40
1.0
 40
1.0
 40
1.0
 10
124.9462694795
 20
90.3450425221
 30
0.0
 10
124.8325999253
 20
90.3751111544
 30
0.0
 10
124.6749269247
 20
90.4997500421
 30
0.0
 10
124.5483330679
 20
90.7177475649
 30
0.0
 10
124.5090651772
 20
90.8482818449
 30
0.0
 10
124.4981636913
 20
90.9149388574
 30
0.0
  0
SPLINE
  5
546
100
AcDbEntity
  8
0
100
AcDbSpline
 62
7
  6
CONTINUOUS
 70
0
 71
3
 72
22
 73
18
 74
0
 42
0.0000001
 43
0.0000001
 44
0.0000000001
 40
0.0
 40
0.0
 40
0.0
 40
0.0
 40
0.2193113289
 40
0.416160352
 40
0.5880215496
 40
0.7326387382
 40
0.7940540226
 40
0.8478750456
 40
0.8938763636
 40
0.931831964
 40
0.9615277334
 40
0.9732374726
 40
0.9828415992
 40
0.9903300181
 40
0.9956926291
 40
0.9989193265
 40
1.0
 40
1.0
 40
1.0
 40
1.0
 10
124.4981641015
 20
90.9149388574
 30
0.0
 10
124.6963533606
 20
90.992420522
 30
0.0
 10
125.070822735
 20
91.1436044006
 30
0.0
 10
125.5955292058
 20
91.3677655864
 30
0.0
 10
126.0502950768
 20
91.5709648493
 30
0.0
 10
126.3829531503
 20
91.7252090545
 30
0.0
 10
126.6107999781
 20
91.8331814716
 30
0.0
 10
126.7518661947
 20
91.900830268
 30
0.0
 10
126.8721684589
 20
91.9591351249
 30
0.0
 10
126.9712236985
 20
92.0075954986
 30
0.0
 10
127.0403414311
 20
92.041555521
 30
0.0
 10
127.0846954259
 20
92.0634978517
 30
0.0
 10
127.1098036007
 20
92.075815942
 30
0.0
 10
127.1291681288
 20
92.0856917238
 30
0.0
 10
127.1434885052
 20
92.0921940199
 30
0.0
 10
127.1512674606
 20
92.0971586635
 30
0.0
 10
127.155648091
 20
92.0982184494
 30
0.0
 10
127.1563199858
 20
92.099023471
 30
0.0
  0
SPLINE
  5
547
100
AcDbEntity
  8
0
100
AcDbSpline
 62
7
  6
CONTINUOUS
 70
0
 71
3
 72
9
 73
5
 74
0
 42
0.0000001
 43
0.0000001
 44
0.0000000001
 40
0.0
 40
0.0
 40
0.0
 40
0.0
 40
0.5452457546
 40
1.0
 40
1.0
 40
1.0
 40
1.0
 10
124.4512947327
 20
89.788046725
 30
0.0
 10
124.5174399777
 20
89.9072679392
 30
0.0
 10
124.6634629176
 20
90.1131909002
 30
0.0
 10
124.851767313
 20
90.2817967375
 30
0.0
 10
124.9462694795
 20
90.3450427035
 30
0.0
  0
SPLINE
  5
548
100
AcDbEntity
  8
0
100
AcDbSpline
 62
7
  6
CONTINUOUS
 70
0
 71
3
 72
12
 73
8
 74
0
 42
0.0000001
 43
0.0000001
 44
0.0000000001
 40
0.0
 40
0.0
 40
0.0
 40
0.0
 40
0.0836289266
 40
0.1853291533
 40
0.4368026749
 40
0.7240096772
 40
1.0
 40
1.0
 40
1.0
 40
1.0
 10
124.451294752
 20
89.7880467069
 30
0.0
 10
124.4265775534
 20
89.7782119421
 30
0.0
 10
124.3672701964
 20
89.768019673
 30
0.0
 10
124.2280469657
 20
89.7795515414
 30
0.0
 10
124.0338229076
 20
89.8510469329
 30
0.0
 10
123.8139111726
 20
89.9900946452
 30
0.0
 10
123.6829776285
 20
90.115348051
 30
0.0
 10
123.6286138663
 20
90.1842817603
 30
0.0
  0
SPLINE
  5
549
100
AcDbEntity
  8
0
100
AcDbSpline
 62
7
  6
CONTINUOUS
 70
0
 71
3
 72
9
 73
5
 74
0
 42
0.0000001
 43
0.0000001
 44
0.0000000001
 40
0.0
 40
0.0
 40
0.0
 40
0.0
 40
0.2759374666
 40
1.0
 40
1.0
 40
1.0
 40
1.0
 10
123.6286138706
 20
90.1842817603
 30
0.0
 10
123.6872868049
 20
90.2717717195
 30
0.0
 10
123.9214817093
 20
90.5730001175
 30
0.0
 10
124.2407225164
 20
90.8142837857
 30
0.0
 10
124.4981641015
 20
90.9149388574
 30
0.0
  0
LINE
  5
54A
100
AcDbEntity
  8
0
100
AcDbLine
 62
7
  6
CONTINUOUS
 10
123.861345239
 20
88.9611996724
 11
124.4512947327
 21
89.788046725
  0
SPLINE
  5
54B
100
AcDbEntity
  8
0
100
AcDbSpline
 62
7
  6
CONTINUOUS
 70
0
 71
3
 72
12
 73
8
 74
0
 42
0.0000001
 43
0.0000001
 44
0.0000000001
 40
0.0
 40
0.0
 40
0.0
 40
0.0
 40
0.080527887
 40
0.1804845566
 40
0.4307198382
 40
0.7193682748
 40
1.0
 40
1.0
 40
1.0
 40
1.0
 10
123.861345239
 20
88.9611996724
 30
0.0
 10
123.8379131491
 20
88.9540656042
 30
0.0
 10
123.7822403435
 20
88.94893612
 30
0.0
 10
123.6519039872
 20
88.966546181
 30
0.0
 10
123.4688843788
 20
89.0389268139
 30
0.0
 10
123.2570760331
 20
89.1716701859
 30
0.0
 10
123.1270897047
 20
89.2882116049
 30
0.0
 10
123.0705535387
 20
89.3521637011
 30
0.0
  0
LINE
  5
54C
100
AcDbEntity
  8
0
100
AcDbLine
 62
7
  6
CONTINUOUS
 10
123.0705535387
 20
89.3521637011
 11
123.6286138706
 21
90.1842817603
  0
SPLINE
  5
54D
100
AcDbEntity
  8
0
100
AcDbSpline
 62
7
  6
CONTINUOUS
 70
0
 71
3
 72
9
 73
5
 74
0
 42
0.0000001
 43
0.0000001
 44
0.0000000001
 40
0.0
 40
0.0
 40
0.0
 40
0.0
 40
0.5010013345
 40
1.0
 40
1.0
 40
1.0
 40
1.0
 10
123.3663704922
 20
88.7452848068
 30
0.0
 10
123.4579863938
 20
88.7495510493
 30
0.0
 10
123.6407887147
 20
88.7918077354
 30
0.0
 10
123.7964951708
 20
88.8968643882
 30
0.0
 10
123.861345239
 20
88.9611996724
 30
0.0
  0
SPLINE
  5
54E
100
AcDbEntity
  8
0
100
AcDbSpline
 62
7
  6
CONTINUOUS
 70
0
 71
3
 72
10
 73
6
 74
0
 42
0.0000001
 43
0.0000001
 44
0.0000000001
 40
0.0
 40
0.0
 40
0.0
 40
0.0
 40
0.2118897939
 40
0.4576367429
 40
1.0
 40
1.0
 40
1.0
 40
1.0
 10
123.3663704922
 20
88.745284803
 30
0.0
 10
123.3230630897
 20
88.7658330495
 30
0.0
 10
123.2382970604
 20
88.8288116311
 30
0.0
 10
123.0957969676
 20
89.0060056546
 30
0.0
 10
123.0282738883
 20
89.1772521053
 30
0.0
 10
123.0036650594
 20
89.2974555705
 30
0.0
  0
SPLINE
  5
54F
100
AcDbEntity
  8
0
100
AcDbSpline
 62
7
  6
CONTINUOUS
 70
0
 71
3
 72
9
 73
5
 74
0
 42
0.0000001
 43
0.0000001
 44
0.0000000001
 40
0.0
 40
0.0
 40
0.0
 40
0.0
 40
0.239788914
 40
1.0
 40
1.0
 40
1.0
 40
1.0
 10
123.0036650594
 20
89.2974555705
 30
0.0
 10
123.0102697109
 20
89.2997083584
 30
0.0
 10
123.0367915573
 20
89.3120762093
 30
0.0
 10
123.0582295567
 20
89.3337906563
 30
0.0
 10
123.0705535387
 20
89.3521637011
 30
0.0
  0
SPLINE
  5
550
100
AcDbEntity
  8
0
100
AcDbSpline
 62
7
  6
CONTINUOUS
 70
0
 71
3
 72
9
 73
5
 74
0
 42
0.0000001
 43
0.0000001
 44
0.0000000001
 40
0.0
 40
0.0
 40
0.0
 40
0.0
 40
0.1928583491
 40
1.0
 40
1.0
 40
1.0
 40
1.0
 10
86.6657020406
 20
87.1908861509
 30
0.0
 10
86.6666426489
 20
87.1892598302
 30
0.0
 10
86.6709738476
 20
87.1805146307
 30
0.0
 10
86.6738323262
 20
87.1711346348
 30
0.0
 10
86.675927829
 20
87.1635561989
 30
0.0
  0
SPLINE
  5
551
100
AcDbEntity
  8
0
100
AcDbSpline
 62
7
  6
CONTINUOUS
 70
0
 71
3
 72
42
 73
38
 74
0
 42
0.0000001
 43
0.0000001
 44
0.0000000001
 40
0.0
 40
0.0
 40
0.0
 40
0.0
 40
0.0021001494
 40
0.0053367463
 40
0.0097091711
 40
0.0152119527
 40
0.0295584563
 40
0.0482473722
 40
0.0711084982
 40
0.0979324232
 40
0.1284695256
 40
0.1624404121
 40
0.1995281336
 40
0.2393920662
 40
0.3259469058
 40
0.4189090378
 40
0.5148454009
 40
0.6102128
 40
0.7014892312
 40
0.744531173
 40
0.7853041385
 40
0.8234330686
 40
0.858562994
 40
0.8903709894
 40
0.9185619877
 40
0.9428755941
 40
0.9535071704
 40
0.9630892473
 40
0.9715980353
 40
0.9790149656
 40
0.9853248396
 40
0.9905128739
 40
0.9945674336
 40
0.9974847817
 40
0.9992690891
 40
0.9997493543
 40
1.0
 40
1.0
 40
1.0
 40
1.0
 10
86.675927829
 20
87.1635561989
 30
0.0
 10
86.6829035466
 20
87.1383283492
 30
0.0
 10
86.6941213503
 20
87.0725754286
 30
0.0
 10
86.7088195756
 20
86.9525279588
 30
0.0
 10
86.7235736057
 20
86.7897271176
 30
0.0
 10
86.7456001085
 20
86.4886635874
 30
0.0
 10
86.7716645712
 20
86.0090185604
 30
0.0
 10
86.8015019287
 20
85.3130131615
 30
0.0
 10
86.831509787
 20
84.4613756304
 30
0.0
 10
86.8617115444
 20
83.462008671
 30
0.0
 10
86.8920028594
 20
82.3241246672
 30
0.0
 10
86.9223581894
 20
81.0582834706
 30
0.0
 10
86.9527620811
 20
79.6761710649
 30
0.0
 10
86.9944890765
 20
77.6387891739
 30
0.0
 10
87.0457117541
 20
74.9050866941
 30
0.0
 10
87.1057983194
 20
71.4725917231
 30
0.0
 10
87.1659439874
 20
67.9302491868
 30
0.0
 10
87.2260844439
 20
64.4089188722
 30
0.0
 10
87.2770587082
 20
61.5467600798
 30
0.0
 10
87.3184852379
 20
59.3649606052
 30
0.0
 10
87.34892865
 20
57.8454588933
 30
0.0
 10
87.3793402983
 20
56.4245862052
 30
0.0
 10
87.409716975
 20
55.1154721014
 30
0.0
 10
87.4400323325
 20
53.9302506437
 30
0.0
 10
87.4702740167
 20
52.8798818965
 30
0.0
 10
87.4963909627
 20
52.0934343651
 30
0.0
 10
87.5176620911
 20
51.5388897805
 30
0.0
 10
87.5328694276
 20
51.1812404364
 30
0.0
 10
87.5480521667
 20
50.8636892255
 30
0.0
 10
87.5631850865
 20
50.5869867871
 30
0.0
 10
87.5782772233
 20
50.3516892304
 30
0.0
 10
87.5931792638
 20
50.1585276258
 30
0.0
 10
87.6080903296
 20
50.0074192184
 30
0.0
 10
87.6220946513
 20
49.8997994889
 30
0.0
 10
87.635467737
 20
49.8353585016
 30
0.0
 10
87.6458388601
 20
49.8068304647
 30
0.0
 10
87.653196682
 20
49.7990306729
 30
0.0
 10
87.6563205132
 20
49.7990377594
 30
0.0
  0
ELLIPSE
  5
552
100
AcDbEntity
  8
0
100
AcDbEllipse
 62
7
  6
CONTINUOUS
 10
109.9887009625
 20
156.599023471
 30
0.0
 11
3.0
 21
0.0
 31
0.0
 40
1.0
 41
-0.0
 42
1.5707963268
  0
ELLIPSE
  5
553
100
AcDbEntity
  8
0
100
AcDbEllipse
 62
7
  6
CONTINUOUS
 10
130.8129443129
 20
156.599023471
 30
0.0
 11
0.0
 21
3.0
 31
0.0
 40
0.5773502692
 41
0.1060960822
 42
1.5707963256
  0
ENDSEC
  0
SECTION
  2
OBJECTS
  0
DICTIONARY
  5
554
100
AcDbDictionary
  3
ACAD_GROUP
350
555
  3
ACAD_MLINESTYLE
350
556
  0
DICTIONARY
  5
555
102
{ACAD_REACTORS
330
554
102
}
100
AcDbDictionary
  0
DICTIONARY
  5
556
102
{ACAD_REACTORS
330
554
102
}
100
AcDbDictionary
  3
STANDARD
350
557
  0
MLINESTYLE
  5
557
102
{ACAD_REACTORS
330
556
102
}
100
AcDbMlineStyle
  2
STANDARD
 70
0
  3

 62
256
 51
90.0
 52
90.0
 71
2
 49
0.5
 62
256
  6
BYLAYER
 49
-0.5
 62
256
  6
BYLAYER
  0
ENDSEC
  0
EOF
