999
DXF file: C:\Users\64ciro\Desktop\FILE 3D-2D\ARMATEC\h36nll050_3080.dxf
999
Pro/ENGINEER 2017260 by Parametric Technology Corporation
  0
SECTION
  2
HEADER
  9
$ACADVER
  1
AC1014
  9
$DWGCODEPAGE
  3
ANSI_1252
  9
$EXTMAX
 10
297.0
 20
210.0
 30
0.0
  9
$EXTMIN
 10
0.0
 20
0.0
 30
0.0
  9
$LIMMIN
 10
0.0
 20
0.0
  9
$LIMMAX
 10
297.0
 20
210.0
  9
$VIEWCTR
 10
148.5
 20
105.0
  9
$VIEWSIZE
 40
210.0
  9
$CLAYER
  8
0
  9
$LTSCALE
 40
16.335
  9
$CELTYPE
  6
BYLAYER
  9
$DIMSCALE
 40
1.0
  9
$DIMASZ
 40
2.5
  9
$DIMEXO
 40
0.0625
  9
$DIMDLI
 40
11.286
  9
$DIMEXE
 40
0.125
  9
$DIMCEN
 40
2.673
  9
$DIMLFAC
 40
1.0
  9
$DIMBLK
  1
_ARROW_FILLED
  9
$DIMALT
 70
0
  9
$DIMALTF
 40
25.4
  9
$DIMTXT
 40
2.0
  9
$DIMTOL
 70
1
  9
$DIMLIM
 70
0
  9
$DIMTFAC
 40
1.0
  9
$DIMTP
 40
0.01
  9
$DIMTM
 40
0.01
  9
$DIMGAP
 40
0.625
  9
$AUNITS
 70
0
  9
$PDMODE
 70
3
  9
$PDSIZE
 40
0.3125
  9
$HANDSEED
  5
51F
  9
$TILEMODE
 70
1
  9
$MEASUREMENT
 70
1
  0
ENDSEC
  0
SECTION
  2
CLASSES
  0
ENDSEC
  0
SECTION
  2
TABLES
  0
TABLE
  2
VPORT
  5
8
100
AcDbSymbolTable
 70
2
  0
VPORT
  5
1F4
100
AcDbSymbolTableRecord
100
AcDbViewportTableRecord
  2
*ACTIVE
 70
0
 10
0.0
 20
0.0
 11
1.0
 21
1.0
 12
148.5
 22
105.0
 13
0.0
 23
0.0
 14
1.0
 24
1.0
 15
0.0
 25
0.0
 16
0.0
 26
0.0
 36
1.0
 17
0.0
 27
0.0
 37
0.0
 40
210.0
 41
1.4142857143
 42
50.0
 43
0.0
 44
0.0
 50
0.0
 51
0.0
 71
0
 72
100
 73
1
 74
1
 75
0
 76
0
 77
0
 78
0
  0
ENDTAB
  0
TABLE
  2
LTYPE
  5
5
100
AcDbSymbolTable
 70
6
  0
LTYPE
  5
14
100
AcDbSymbolTableRecord
100
AcDbLinetypeTableRecord
  2
BYBLOCK
 70
0
  3

 72
65
 73
0
 40
0.0
  0
LTYPE
  5
15
100
AcDbSymbolTableRecord
100
AcDbLinetypeTableRecord
  2
BYLAYER
 70
0
  3

 72
65
 73
0
 40
0.0
  0
LTYPE
  5
16
100
AcDbSymbolTableRecord
100
AcDbLinetypeTableRecord
  2
CONTINUOUS
 70
64
  3
Solid line
 72
65
 73
0
 40
0.0
  0
LTYPE
  5
1F5
100
AcDbSymbolTableRecord
100
AcDbLinetypeTableRecord
  2
CENTER
 70
64
  3
____ _ ____ _ ____ _ ____ _ ____ _ ____ _ ____
 72
65
 73
4
 40
0.6
 49
0.375
 74
0
 49
-0.075
 74
0
 49
0.075
 74
0
 49
-0.075
 74
0
  0
LTYPE
  5
1F6
100
AcDbSymbolTableRecord
100
AcDbLinetypeTableRecord
  2
HIDDEN
 70
64
  3
- - - - - - - - - - - - - - - - - - - -
 72
65
 73
2
 40
0.2
 49
0.1
 74
0
 49
-0.1
 74
0
  0
LTYPE
  5
1F7
100
AcDbSymbolTableRecord
100
AcDbLinetypeTableRecord
  2
PHANTOM
 70
64
  3
_____ _ _ _____ _ _ _____ _ _ _____
 72
65
 73
6
 40
0.8
 49
0.45
 74
0
 49
-0.05
 74
0
 49
0.1
 74
0
 49
-0.05
 74
0
 49
0.1
 74
0
 49
-0.05
 74
0
  0
LTYPE
  5
1F8
100
AcDbSymbolTableRecord
100
AcDbLinetypeTableRecord
  2
DOT
 70
64
  3
. . . . . . . . . . . . . . . . . . . .
 72
65
 73
2
 40
0.2
 49
0.1
 74
0
 49
-0.1
 74
0
  0
LTYPE
  5
1F9
100
AcDbSymbolTableRecord
100
AcDbLinetypeTableRecord
  2
DASHED
 70
64
  3
- - - - - - - - - - - - - - - - - - - -
 72
65
 73
2
 40
0.2
 49
0.1
 74
0
 49
-0.1
 74
0
  0
ENDTAB
  0
TABLE
  2
LAYER
  5
2
100
AcDbSymbolTable
 70
36
  0
LAYER
  5
10
100
AcDbSymbolTableRecord
100
AcDbLayerTableRecord
  2
0
 70
0
 62
7
  6
CONTINUOUS
  0
LAYER
  5
1FA
100
AcDbSymbolTableRecord
100
AcDbLayerTableRecord
  2
DEFAULT_1
 70
0
 62
7
  6
CENTER
  0
LAYER
  5
1FB
100
AcDbSymbolTableRecord
100
AcDbLayerTableRecord
  2
DEFAULT_2
 70
0
 62
8
  6
HIDDEN
  0
LAYER
  5
1FC
100
AcDbSymbolTableRecord
100
AcDbLayerTableRecord
  2
DEFAULT_3
 70
0
 62
7
  6
PHANTOM
  0
LAYER
  5
1FD
100
AcDbSymbolTableRecord
100
AcDbLayerTableRecord
  2
ASSI
 70
0
 62
7
  6
CONTINUOUS
  0
LAYER
  5
1FE
100
AcDbSymbolTableRecord
100
AcDbLayerTableRecord
  2
COSMETICA
 70
0
 62
7
  6
CONTINUOUS
  0
LAYER
  5
1FF
100
AcDbSymbolTableRecord
100
AcDbLayerTableRecord
  2
CSYS
 70
0
 62
7
  6
CONTINUOUS
  0
LAYER
  5
200
100
AcDbSymbolTableRecord
100
AcDbLayerTableRecord
  2
DETTAGLI
 70
0
 62
7
  6
CONTINUOUS
  0
LAYER
  5
201
100
AcDbSymbolTableRecord
100
AcDbLayerTableRecord
  2
FILETTI
 70
0
 62
7
  6
CONTINUOUS
  0
LAYER
  5
202
100
AcDbSymbolTableRecord
100
AcDbLayerTableRecord
  2
GEOM
 70
0
 62
7
  6
CONTINUOUS
  0
LAYER
  5
203
100
AcDbSymbolTableRecord
100
AcDbLayerTableRecord
  2
GEOMETRIA_SOLIDA
 70
0
 62
7
  6
CONTINUOUS
  0
LAYER
  5
204
100
AcDbSymbolTableRecord
100
AcDbLayerTableRecord
  2
NOGEOM
 70
0
 62
7
  6
CONTINUOUS
  0
LAYER
  5
205
100
AcDbSymbolTableRecord
100
AcDbLayerTableRecord
  2
PIANI
 70
0
 62
7
  6
CONTINUOUS
  0
LAYER
  5
206
100
AcDbSymbolTableRecord
100
AcDbLayerTableRecord
  2
QUOTE
 70
0
 62
7
  6
CONTINUOUS
  0
LAYER
  5
207
100
AcDbSymbolTableRecord
100
AcDbLayerTableRecord
  2
RACCORDI
 70
0
 62
7
  6
CONTINUOUS
  0
LAYER
  5
208
100
AcDbSymbolTableRecord
100
AcDbLayerTableRecord
  2
TABELLE
 70
0
 62
7
  6
CONTINUOUS
  0
ENDTAB
  0
TABLE
  2
STYLE
  5
3
100
AcDbSymbolTable
 70
1
  0
STYLE
  5
11
100
AcDbSymbolTableRecord
100
AcDbTextStyleTableRecord
  2
STANDARD
 70
0
 40
0.0
 41
0.8
 50
0.0
 71
0
 42
0.2
  3
txt
  4

  0
STYLE
  5
209
100
AcDbSymbolTableRecord
100
AcDbTextStyleTableRecord
  2
TEXTSTYLE_1
 70
0
 40
0.0
 41
0.8
 50
0.0
 71
0
 42
0.2
  3
gdt
  4

  0
ENDTAB
  0
TABLE
  2
VIEW
  5
6
100
AcDbSymbolTable
 70
0
  0
ENDTAB
  0
TABLE
  2
UCS
  5
7
100
AcDbSymbolTable
 70
0
  0
ENDTAB
  0
TABLE
  2
APPID
  5
9
100
AcDbSymbolTable
 70
1
  0
APPID
  5
20A
100
AcDbSymbolTableRecord
100
AcDbRegAppTableRecord
  2
ACAD
 70
0
  0
ENDTAB
  0
TABLE
  2
BLOCK_RECORD
  5
1
100
AcDbSymbolTable
 70
0
  0
BLOCK_RECORD
  5
1F
100
AcDbSymbolTableRecord
100
AcDbBlockTableRecord
  2
*MODEL_SPACE
  0
BLOCK_RECORD
  5
1B
100
AcDbSymbolTableRecord
100
AcDbBlockTableRecord
  2
*PAPER_SPACE
  0
ENDTAB
  0
TABLE
  2
DIMSTYLE
  5
A
100
AcDbSymbolTable
 70
1
  0
DIMSTYLE
105
20B
100
AcDbSymbolTableRecord
100
AcDbDimStyleTableRecord
  2
STANDARD
 70
0
  3

  4

  5
_ARROW_FILLED
  6
_ARROW_FILLED
  7
_ARROW_FILLED
 40
1.0
 41
2.5
 42
0.0625
 43
0.38
 44
0.125
 45
0.0
 46
0.0
 47
0.01
 48
0.01
140
2.0
141
0.09
142
0.0
143
25.4
144
1.0
145
0.0
146
1.0
147
0.625
 71
1.0
 72
0.0
 73
0
 74
0
 75
0
 76
0
 77
1
 78
8
 79
2
170
0
171
1
172
0
173
0
174
0
175
0
176
0
177
0
178
0
270
2
179
2
271
2
272
2
273
2
274
2
275
0
280
0
281
0
282
0
283
1
284
8
285
0
286
0
287
3
288
0
340
11
  0
ENDTAB
  0
ENDSEC
  0
SECTION
  2
BLOCKS
  0
BLOCK
  5
20
100
AcDbEntity
  8
0
100
AcDbBlockBegin
  2
*MODEL_SPACE
 70
0
 10
0.0
 20
0.0
 30
0.0
  3
*MODEL_SPACE
  1

  0
ENDBLK
  5
21
100
AcDbEntity
  8
0
100
AcDbBlockEnd
  0
BLOCK
  5
1C
100
AcDbEntity
  8
0
100
AcDbBlockBegin
  2
*PAPER_SPACE
 70
0
 10
0.0
 20
0.0
 30
0.0
  3
*PAPER_SPACE
  1

  0
ENDBLK
  5
1D
100
AcDbEntity
  8
0
100
AcDbBlockEnd
  0
ENDSEC
  0
SECTION
  2
ENTITIES
  0
LINE
  5
20C
100
AcDbEntity
  8
0
100
AcDbLine
 62
7
  6
CONTINUOUS
 10
0.0
 20
0.0
 11
0.0
 21
210.0
  0
LINE
  5
20D
100
AcDbEntity
  8
0
100
AcDbLine
 62
7
  6
CONTINUOUS
 10
0.0
 20
0.0
 11
297.0
 21
0.0
  0
LINE
  5
20E
100
AcDbEntity
  8
0
100
AcDbLine
 62
7
  6
CONTINUOUS
 10
0.0
 20
210.0
 11
297.0
 21
210.0
  0
LINE
  5
20F
100
AcDbEntity
  8
0
100
AcDbLine
 62
7
  6
CONTINUOUS
 10
297.0
 20
0.0
 11
297.0
 21
210.0
  0
LINE
  5
210
100
AcDbEntity
  8
0
100
AcDbLine
 62
7
  6
CONTINUOUS
 10
73.0416235019
 20
24.5059974023
 11
73.0466371913
 21
24.5016558688
  0
LINE
  5
211
100
AcDbEntity
  8
0
100
AcDbLine
 62
7
  6
CONTINUOUS
 10
70.3636233211
 20
25.6846699346
 11
71.4557405863
 21
24.5925526695
  0
LINE
  5
212
100
AcDbEntity
  8
0
100
AcDbLine
 62
7
  6
CONTINUOUS
 10
70.3636294684
 20
25.6846637885
 11
70.346637387
 21
25.7102521082
  0
LINE
  5
213
100
AcDbEntity
  8
0
100
AcDbLine
 62
7
  6
CONTINUOUS
 10
75.04162452
 20
24.5059973986
 11
75.0466382051
 21
24.5016558688
  0
LINE
  5
214
100
AcDbEntity
  8
0
100
AcDbLine
 62
7
  6
CONTINUOUS
 10
77.0416233607
 20
24.50599739
 11
77.046637036
 21
24.5016558688
  0
LINE
  5
215
100
AcDbEntity
  8
0
100
AcDbLine
 62
7
  6
CONTINUOUS
 10
79.0416233056
 20
24.5059974016
 11
79.0466369942
 21
24.5016558688
  0
LINE
  5
216
100
AcDbEntity
  8
0
100
AcDbLine
 62
7
  6
CONTINUOUS
 10
81.0466381135
 20
24.5016558688
 11
81.041624427
 21
24.5059974001
  0
LINE
  5
217
100
AcDbEntity
  8
0
100
AcDbLine
 62
7
  6
CONTINUOUS
 10
72.3197498931
 20
25.7561583245
 11
73.0416235019
 21
24.5059974023
  0
LINE
  5
218
100
AcDbEntity
  8
0
100
AcDbLine
 62
7
  6
CONTINUOUS
 10
74.3197509837
 20
25.7561581999
 11
75.04162452
 21
24.5059973986
  0
LINE
  5
219
100
AcDbEntity
  8
0
100
AcDbLine
 62
7
  6
CONTINUOUS
 10
76.3197498262
 20
25.7561581888
 11
77.0416233607
 21
24.50599739
  0
LINE
  5
21A
100
AcDbEntity
  8
0
100
AcDbLine
 62
7
  6
CONTINUOUS
 10
78.3197496918
 20
25.7561583322
 11
79.0416233056
 21
24.5059974016
  0
LINE
  5
21B
100
AcDbEntity
  8
0
100
AcDbLine
 62
7
  6
CONTINUOUS
 10
80.3197508762
 20
25.7561582256
 11
81.041624427
 21
24.5059974001
  0
LINE
  5
21C
100
AcDbEntity
  8
0
100
AcDbLine
 62
7
  6
CONTINUOUS
 10
87.2001907776
 20
25.6481024782
 11
86.9930839964
 21
25.8552092594
  0
LINE
  5
21D
100
AcDbEntity
  8
0
100
AcDbLine
 62
7
  6
CONTINUOUS
 10
99.1144043399
 20
17.7338889158
 11
92.078870434
 21
24.7694228218
  0
LINE
  5
21E
100
AcDbEntity
  8
0
100
AcDbLine
 62
7
  6
CONTINUOUS
 10
82.3197502212
 20
25.7561581194
 11
82.3990414119
 21
25.6188399951
  0
LINE
  5
21F
100
AcDbEntity
  8
0
100
AcDbLine
 62
7
  6
CONTINUOUS
 10
76.696637387
 20
43.6119883779
 11
75.9749495505
 21
44.1794765026
  0
LINE
  5
220
100
AcDbEntity
  8
0
100
AcDbLine
 62
7
  6
CONTINUOUS
 10
70.346637387
 20
25.7102521082
 11
70.346637387
 21
93.3016558688
  0
LINE
  5
221
100
AcDbEntity
  8
0
100
AcDbLine
 62
7
  6
CONTINUOUS
 10
100.346637387
 20
175.6755565476
 11
100.6202672071
 21
176.0016558688
  0
LINE
  5
222
100
AcDbEntity
  8
0
100
AcDbLine
 62
7
  6
CONTINUOUS
 10
113.5731346951
 20
185.2550738814
 11
114.346637387
 21
185.7016558688
  0
LINE
  5
223
100
AcDbEntity
  8
0
100
AcDbLine
 62
7
  6
CONTINUOUS
 10
113.5731346951
 20
181.9097744198
 11
112.646637387
 21
181.3748609496
  0
LINE
  5
224
100
AcDbEntity
  8
0
100
AcDbLine
 62
7
  6
CONTINUOUS
 10
144.3721406259
 20
15.0016558688
 11
143.246637387
 21
15.0016558688
  0
LINE
  5
225
100
AcDbEntity
  8
0
100
AcDbLine
 62
7
  6
CONTINUOUS
 10
143.046637387
 20
15.0016558688
 11
132.8436936618
 21
15.0016558688
  0
LINE
  5
226
100
AcDbEntity
  8
0
100
AcDbLine
 62
7
  6
CONTINUOUS
 10
129.8495811121
 20
17.0016558688
 11
100.8821712929
 21
17.0016558688
  0
LINE
  5
227
100
AcDbEntity
  8
0
100
AcDbLine
 62
7
  6
CONTINUOUS
 10
131.9951655244
 20
15.3531277314
 11
130.6981092496
 21
16.6501840062
  0
LINE
  5
228
100
AcDbEntity
  8
0
100
AcDbLine
 62
7
  6
CONTINUOUS
 10
71.1301481287
 20
93.2471534124
 11
70.8250111513
 21
93.7755967402
  0
LINE
  5
229
100
AcDbEntity
  8
0
100
AcDbLine
 62
7
  6
CONTINUOUS
 10
82.5022998197
 20
25.7516558688
 11
82.5022998197
 21
93.2516558688
  0
LINE
  5
22A
100
AcDbEntity
  8
0
100
AcDbLine
 62
7
  6
CONTINUOUS
 10
82.9353125216
 20
26.0016558688
 11
82.9353125216
 21
93.0016558688
  0
LINE
  5
22B
100
AcDbEntity
  8
0
100
AcDbLine
 62
7
  6
CONTINUOUS
 10
86.6395306058
 20
26.0016558688
 11
86.6395306058
 21
93.0016558688
  0
LINE
  5
22C
100
AcDbEntity
  8
0
100
AcDbLine
 62
7
  6
CONTINUOUS
 10
86.9930839964
 20
25.8552092594
 11
86.9930839964
 21
93.1481024782
  0
LINE
  5
22D
100
AcDbEntity
  8
0
100
AcDbLine
 62
7
  6
CONTINUOUS
 10
87.2001907776
 20
93.3552092594
 11
87.2001907776
 21
25.6481024782
  0
LINE
  5
22E
100
AcDbEntity
  8
0
100
AcDbLine
 62
7
  6
CONTINUOUS
 10
87.5537441682
 20
93.5016558688
 11
87.5537441682
 21
25.5016558688
  0
LINE
  5
22F
100
AcDbEntity
  8
0
100
AcDbLine
 62
7
  6
CONTINUOUS
 10
108.3542245792
 20
168.9438572845
 11
108.346637387
 21
168.9359534532
  0
LINE
  5
230
100
AcDbEntity
  8
0
100
AcDbLine
 62
7
  6
CONTINUOUS
 10
112.846637387
 20
176.0016558688
 11
112.446637387
 21
175.6016558688
  0
LINE
  5
231
100
AcDbEntity
  8
0
100
AcDbLine
 62
7
  6
CONTINUOUS
 10
105.596637387
 20
168.2016558688
 11
105.896637387
 21
168.5016558688
  0
LINE
  5
232
100
AcDbEntity
  8
0
100
AcDbLine
 62
7
  6
CONTINUOUS
 10
109.346637387
 20
170.5016558688
 11
108.6538965465
 21
169.8089150283
  0
LINE
  5
233
100
AcDbEntity
  8
0
100
AcDbLine
 62
7
  6
CONTINUOUS
 10
109.1548212502
 20
169.3609318667
 11
108.3542245792
 21
168.9438572845
  0
LINE
  5
234
100
AcDbEntity
  8
0
100
AcDbLine
 62
7
  6
CONTINUOUS
 10
82.4110371373
 20
25.5980655367
 11
82.4136246851
 21
25.5980660303
  0
LINE
  5
235
100
AcDbEntity
  8
0
100
AcDbLine
 62
7
  6
CONTINUOUS
 10
146.2578623967
 20
23.5016558688
 11
153.746637387
 21
23.5016558688
  0
LINE
  5
236
100
AcDbEntity
  8
0
100
AcDbLine
 62
7
  6
CONTINUOUS
 10
146.2578623967
 20
24.0874423064
 11
152.2128074385
 21
24.0874423064
  0
LINE
  5
237
100
AcDbEntity
  8
0
100
AcDbLine
 62
7
  6
CONTINUOUS
 10
73.0466371913
 20
24.5016558688
 11
73.4032624522
 21
24.5016558688
  0
LINE
  5
238
100
AcDbEntity
  8
0
100
AcDbLine
 62
7
  6
CONTINUOUS
 10
75.0466382051
 20
24.5016558688
 11
75.4032612843
 21
24.5016558688
  0
LINE
  5
239
100
AcDbEntity
  8
0
100
AcDbLine
 62
7
  6
CONTINUOUS
 10
77.046637036
 20
24.5016558688
 11
77.4032610863
 21
24.5016558688
  0
LINE
  5
23A
100
AcDbEntity
  8
0
100
AcDbLine
 62
7
  6
CONTINUOUS
 10
79.0466369942
 20
24.5016558688
 11
79.4032623323
 21
24.5016558688
  0
LINE
  5
23B
100
AcDbEntity
  8
0
100
AcDbLine
 62
7
  6
CONTINUOUS
 10
81.0466381138
 20
24.5016558688
 11
81.7441994761
 21
24.5016558688
  0
LINE
  5
23C
100
AcDbEntity
  8
0
100
AcDbLine
 62
7
  6
CONTINUOUS
 10
159.9971920794
 20
24.5016558688
 11
160.3460821931
 21
24.5016558688
  0
LINE
  5
23D
100
AcDbEntity
  8
0
100
AcDbLine
 62
7
  6
CONTINUOUS
 10
161.9971930558
 20
24.5016558688
 11
162.3460826721
 21
24.5016558688
  0
LINE
  5
23E
100
AcDbEntity
  8
0
100
AcDbLine
 62
7
  6
CONTINUOUS
 10
163.9971933911
 20
24.5016558688
 11
164.3460811698
 21
24.5016558688
  0
LINE
  5
23F
100
AcDbEntity
  8
0
100
AcDbLine
 62
7
  6
CONTINUOUS
 10
165.997192062
 20
24.5016558688
 11
166.3460820273
 21
24.5016558688
  0
LINE
  5
240
100
AcDbEntity
  8
0
100
AcDbLine
 62
7
  6
CONTINUOUS
 10
167.9971929071
 20
24.5016558688
 11
168.3460827547
 21
24.5016558688
  0
LINE
  5
241
100
AcDbEntity
  8
0
100
AcDbLine
 62
7
  6
CONTINUOUS
 10
90.311103481
 20
25.5016558688
 11
87.5537441682
 21
25.5016558688
  0
LINE
  5
242
100
AcDbEntity
  8
0
100
AcDbLine
 62
7
  6
CONTINUOUS
 10
82.3249495505
 20
25.7516558688
 11
82.1249495505
 21
25.7516558688
  0
LINE
  5
243
100
AcDbEntity
  8
0
100
AcDbLine
 62
7
  6
CONTINUOUS
 10
72.1249492426
 20
25.7516560565
 11
72.3249492426
 21
25.7516560565
  0
LINE
  5
244
100
AcDbEntity
  8
0
100
AcDbLine
 62
7
  6
CONTINUOUS
 10
74.1249503288
 20
25.7516559356
 11
74.3249503288
 21
25.7516559356
  0
LINE
  5
245
100
AcDbEntity
  8
0
100
AcDbLine
 62
7
  6
CONTINUOUS
 10
76.1249491596
 20
25.7516559346
 11
76.3249491596
 21
25.7516559346
  0
LINE
  5
246
100
AcDbEntity
  8
0
100
AcDbLine
 62
7
  6
CONTINUOUS
 10
78.1249490403
 20
25.751656065
 11
78.3249490403
 21
25.751656065
  0
LINE
  5
247
100
AcDbEntity
  8
0
100
AcDbLine
 62
7
  6
CONTINUOUS
 10
80.1249502233
 20
25.7516559596
 11
80.3249502233
 21
25.7516559596
  0
LINE
  5
248
100
AcDbEntity
  8
0
100
AcDbLine
 62
7
  6
CONTINUOUS
 10
159.096636625
 20
25.8016560424
 11
159.246636625
 21
25.8016560424
  0
LINE
  5
249
100
AcDbEntity
  8
0
100
AcDbLine
 62
7
  6
CONTINUOUS
 10
161.0966376246
 20
25.8016560046
 11
161.2466376246
 21
25.8016560046
  0
LINE
  5
24A
100
AcDbEntity
  8
0
100
AcDbLine
 62
7
  6
CONTINUOUS
 10
163.0966380317
 20
25.8016558847
 11
163.2466380317
 21
25.8016558847
  0
LINE
  5
24B
100
AcDbEntity
  8
0
100
AcDbLine
 62
7
  6
CONTINUOUS
 10
165.0966366157
 20
25.8016560291
 11
165.2466366157
 21
25.8016560291
  0
LINE
  5
24C
100
AcDbEntity
  8
0
100
AcDbLine
 62
7
  6
CONTINUOUS
 10
167.0966374673
 20
25.8016560189
 11
167.2466374673
 21
25.8016560189
  0
LINE
  5
24D
100
AcDbEntity
  8
0
100
AcDbLine
 62
7
  6
CONTINUOUS
 10
169.0966381212
 20
25.8016558957
 11
169.2466381212
 21
25.8016558957
  0
LINE
  5
24E
100
AcDbEntity
  8
0
100
AcDbLine
 62
7
  6
CONTINUOUS
 10
157.8324238246
 20
26.0016558688
 11
153.746637387
 21
26.0016558688
  0
LINE
  5
24F
100
AcDbEntity
  8
0
100
AcDbLine
 62
7
  6
CONTINUOUS
 10
86.6395306058
 20
26.0016558688
 11
82.9353125216
 21
26.0016558688
  0
LINE
  5
250
100
AcDbEntity
  8
0
100
AcDbLine
 62
7
  6
CONTINUOUS
 10
73.1301492387
 20
93.2471534653
 11
72.4082756614
 21
94.4973143349
  0
LINE
  5
251
100
AcDbEntity
  8
0
100
AcDbLine
 62
7
  6
CONTINUOUS
 10
75.1301495029
 20
93.2471535992
 11
74.4082759997
 21
94.4973143455
  0
LINE
  5
252
100
AcDbEntity
  8
0
100
AcDbLine
 62
7
  6
CONTINUOUS
 10
77.1301480829
 20
93.2471534301
 11
76.4082744812
 21
94.4973143408
  0
LINE
  5
253
100
AcDbEntity
  8
0
100
AcDbLine
 62
7
  6
CONTINUOUS
 10
79.1301490162
 20
93.2471534431
 11
78.4082754259
 21
94.4973143345
  0
LINE
  5
254
100
AcDbEntity
  8
0
100
AcDbLine
 62
7
  6
CONTINUOUS
 10
81.1301496564
 20
93.2471535809
 11
80.4082761439
 21
94.4973143426
  0
LINE
  5
255
100
AcDbEntity
  8
0
100
AcDbLine
 62
7
  6
CONTINUOUS
 10
82.5022998197
 20
93.2516558688
 11
81.9136250762
 21
94.2712704337
  0
LINE
  5
256
100
AcDbEntity
  8
0
100
AcDbLine
 62
7
  6
CONTINUOUS
 10
90.311103481
 20
25.5016558688
 11
90.311103481
 21
93.5016558688
  0
LINE
  5
257
100
AcDbEntity
  8
0
100
AcDbLine
 62
7
  6
CONTINUOUS
 10
92.078870434
 20
24.7694228218
 11
92.078870434
 21
94.2338889158
  0
LINE
  5
258
100
AcDbEntity
  8
0
100
AcDbLine
 62
7
  6
CONTINUOUS
 10
121.5097563476
 20
180.2016558688
 11
121.4215074036
 21
180.0016558688
  0
LINE
  5
259
100
AcDbEntity
  8
0
100
AcDbLine
 62
7
  6
CONTINUOUS
 10
123.461134153
 20
180.2016558688
 11
123.3534877814
 21
180.0016558688
  0
LINE
  5
25A
100
AcDbEntity
  8
0
100
AcDbLine
 62
7
  6
CONTINUOUS
 10
126.004033001
 20
180.2016558688
 11
125.8900706079
 21
180.0016558688
  0
LINE
  5
25B
100
AcDbEntity
  8
0
100
AcDbLine
 62
7
  6
CONTINUOUS
 10
72.0416230487
 20
94.4973143384
 11
71.3197494378
 21
93.2471534125
  0
LINE
  5
25C
100
AcDbEntity
  8
0
100
AcDbLine
 62
7
  6
CONTINUOUS
 10
74.0416241177
 20
94.4973143356
 11
73.31975054
 21
93.2471534653
  0
LINE
  5
25D
100
AcDbEntity
  8
0
100
AcDbLine
 62
7
  6
CONTINUOUS
 10
76.0416243327
 20
94.4973143458
 11
75.3197508293
 21
93.2471535991
  0
LINE
  5
25E
100
AcDbEntity
  8
0
100
AcDbLine
 62
7
  6
CONTINUOUS
 10
78.0416229981
 20
94.4973143402
 11
77.3197493967
 21
93.2471534302
  0
LINE
  5
25F
100
AcDbEntity
  8
0
100
AcDbLine
 62
7
  6
CONTINUOUS
 10
125.0097563476
 20
180.2016558688
 11
124.8932497252
 21
180.0016558688
  0
LINE
  5
260
100
AcDbEntity
  8
0
100
AcDbLine
 62
7
  6
CONTINUOUS
 10
153.7963848553
 20
195.5371897747
 11
138.5537441682
 21
180.2945490876
  0
LINE
  5
261
100
AcDbEntity
  8
0
100
AcDbLine
 62
7
  6
CONTINUOUS
 10
169.5362062915
 20
25.2956664624
 11
169.5394581854
 21
25.2944766672
  0
LINE
  5
262
100
AcDbEntity
  8
0
100
AcDbLine
 62
7
  6
CONTINUOUS
 10
72.4082756614
 20
94.4973143349
 11
72.4032619715
 21
94.5016558688
  0
LINE
  5
263
100
AcDbEntity
  8
0
100
AcDbLine
 62
7
  6
CONTINUOUS
 10
108.2125397979
 20
56.2425189501
 11
105.466637387
 21
61.6316558688
  0
LINE
  5
264
100
AcDbEntity
  8
0
100
AcDbLine
 62
7
  6
CONTINUOUS
 10
108.9420518523
 20
57.6742669721
 11
106.9256614959
 21
61.6316558688
  0
LINE
  5
265
100
AcDbEntity
  8
0
100
AcDbLine
 62
7
  6
CONTINUOUS
 10
99.1144043399
 20
101.2694228218
 11
99.1144043399
 21
17.7338889158
  0
LINE
  5
266
100
AcDbEntity
  8
0
100
AcDbLine
 62
7
  6
CONTINUOUS
 10
100.346637387
 20
159.0016558688
 11
100.346637387
 21
176.0016558688
  0
LINE
  5
267
100
AcDbEntity
  8
0
100
AcDbLine
 62
7
  6
CONTINUOUS
 10
100.846637387
 20
162.4016558688
 11
100.846637387
 21
159.1903310034
  0
LINE
  5
268
100
AcDbEntity
  8
0
100
AcDbLine
 62
7
  6
CONTINUOUS
 10
100.8821712929
 20
102.0016558688
 11
100.8821712929
 21
17.0016558688
  0
LINE
  5
269
100
AcDbEntity
  8
0
100
AcDbLine
 62
7
  6
CONTINUOUS
 10
101.346637387
 20
159.1903310034
 11
101.346637387
 21
162.9016558688
  0
LINE
  5
26A
100
AcDbEntity
  8
0
100
AcDbLine
 62
7
  6
CONTINUOUS
 10
102.346637387
 20
51.7516558688
 11
102.346637387
 21
67.3516558688
  0
LINE
  5
26B
100
AcDbEntity
  8
0
100
AcDbLine
 62
7
  6
CONTINUOUS
 10
103.646637387
 20
53.0516558688
 11
103.646637387
 21
66.0516558688
  0
LINE
  5
26C
100
AcDbEntity
  8
0
100
AcDbLine
 62
7
  6
CONTINUOUS
 10
104.346637387
 20
162.9016558688
 11
104.346637387
 21
175.5016558688
  0
LINE
  5
26D
100
AcDbEntity
  8
0
100
AcDbLine
 62
7
  6
CONTINUOUS
 10
119.346637387
 20
180.2016558688
 11
119.286424292
 21
180.0016558688
  0
LINE
  5
26E
100
AcDbEntity
  8
0
100
AcDbLine
 62
7
  6
CONTINUOUS
 10
113.984137387
 20
151.2934173767
 11
113.6924707247
 21
150.6976727668
  0
LINE
  5
26F
100
AcDbEntity
  8
0
100
AcDbLine
 62
7
  6
CONTINUOUS
 10
126.346637387
 20
180.2016558688
 11
126.2463746561
 21
180.0016558688
  0
LINE
  5
270
100
AcDbEntity
  8
0
100
AcDbLine
 62
7
  6
CONTINUOUS
 10
80.0416239072
 20
94.4973143351
 11
79.3197503165
 21
93.2471534431
  0
LINE
  5
271
100
AcDbEntity
  8
0
100
AcDbLine
 62
7
  6
CONTINUOUS
 10
81.9111019453
 20
94.2712708913
 11
81.319750976
 21
93.2471535808
  0
LINE
  5
272
100
AcDbEntity
  8
0
100
AcDbLine
 62
7
  6
CONTINUOUS
 10
114.859137387
 20
150.9955450717
 11
114.5674706855
 21
150.5487361971
  0
LINE
  5
273
100
AcDbEntity
  8
0
100
AcDbLine
 62
7
  6
CONTINUOUS
 10
114.5674706855
 20
151.8891619865
 11
113.984137387
 21
151.2934173767
  0
LINE
  5
274
100
AcDbEntity
  8
0
100
AcDbLine
 62
7
  6
CONTINUOUS
 10
119.0883041927
 20
146.3785236154
 11
118.5049705812
 21
145.7827789534
  0
LINE
  5
275
100
AcDbEntity
  8
0
100
AcDbLine
 62
7
  6
CONTINUOUS
 10
141.3821712929
 20
177.4661219629
 11
156.3319187612
 21
192.4158694312
  0
LINE
  5
276
100
AcDbEntity
  8
0
100
AcDbLine
 62
7
  6
CONTINUOUS
 10
133.096637387
 20
164.2516558688
 11
132.9637946745
 21
164.1188131563
  0
LINE
  5
277
100
AcDbEntity
  8
0
100
AcDbLine
 62
7
  6
CONTINUOUS
 10
115.296637387
 20
151.2934173767
 11
114.859137387
 21
150.9955450717
  0
LINE
  5
278
100
AcDbEntity
  8
0
100
AcDbLine
 62
7
  6
CONTINUOUS
 10
115.1508040884
 20
152.1870342914
 11
114.5674706855
 21
151.8891619865
  0
LINE
  5
279
100
AcDbEntity
  8
0
100
AcDbLine
 62
7
  6
CONTINUOUS
 10
146.2578623967
 20
44.0041811858
 11
152.2128074385
 21
44.0041811858
  0
LINE
  5
27A
100
AcDbEntity
  8
0
100
AcDbLine
 62
7
  6
CONTINUOUS
 10
75.9749495505
 20
44.1794765026
 11
75.7749495505
 21
44.1794765026
  0
LINE
  5
27B
100
AcDbEntity
  8
0
100
AcDbLine
 62
7
  6
CONTINUOUS
 10
146.2578623967
 20
45.4183947481
 11
152.2128074385
 21
45.4183947481
  0
LINE
  5
27C
100
AcDbEntity
  8
0
100
AcDbLine
 62
7
  6
CONTINUOUS
 10
74.4082759997
 20
94.4973143455
 11
74.403262322
 21
94.5016558688
  0
LINE
  5
27D
100
AcDbEntity
  8
0
100
AcDbLine
 62
7
  6
CONTINUOUS
 10
76.4082744812
 20
94.4973143408
 11
76.403260798
 21
94.5016558688
  0
LINE
  5
27E
100
AcDbEntity
  8
0
100
AcDbLine
 62
7
  6
CONTINUOUS
 10
78.4082754259
 20
94.4973143345
 11
78.4032617355
 21
94.5016558688
  0
LINE
  5
27F
100
AcDbEntity
  8
0
100
AcDbLine
 62
7
  6
CONTINUOUS
 10
159.99719176
 20
24.5016558688
 11
159.9921783943
 21
24.5059973984
  0
LINE
  5
280
100
AcDbEntity
  8
0
100
AcDbLine
 62
7
  6
CONTINUOUS
 10
80.4082761439
 20
94.4973143426
 11
80.4032624629
 21
94.5016558688
  0
LINE
  5
281
100
AcDbEntity
  8
0
100
AcDbLine
 62
7
  6
CONTINUOUS
 10
161.9921793666
 20
24.5059974022
 11
161.9971930558
 21
24.5016558688
  0
LINE
  5
282
100
AcDbEntity
  8
0
100
AcDbLine
 62
7
  6
CONTINUOUS
 10
163.9921797125
 20
24.5059973929
 11
163.9971933911
 21
24.5016558688
  0
LINE
  5
283
100
AcDbEntity
  8
0
100
AcDbLine
 62
7
  6
CONTINUOUS
 10
165.9921783787
 20
24.505997397
 11
165.997192062
 21
24.5016558688
  0
LINE
  5
284
100
AcDbEntity
  8
0
100
AcDbLine
 62
7
  6
CONTINUOUS
 10
158.8587203272
 20
25.3895729286
 11
158.5395306058
 21
25.70876265
  0
LINE
  5
285
100
AcDbEntity
  8
0
100
AcDbLine
 62
7
  6
CONTINUOUS
 10
105.596637387
 20
164.2516558688
 11
105.596637387
 21
168.2016558688
  0
LINE
  5
286
100
AcDbEntity
  8
0
100
AcDbLine
 62
7
  6
CONTINUOUS
 10
105.846637387
 20
163.8359704439
 11
105.846637387
 21
162.9016558688
  0
LINE
  5
287
100
AcDbEntity
  8
0
100
AcDbLine
 62
7
  6
CONTINUOUS
 10
106.3082325766
 20
162.4016558688
 11
106.3082325766
 21
156.3257526851
  0
LINE
  5
288
100
AcDbEntity
  8
0
100
AcDbLine
 62
7
  6
CONTINUOUS
 10
106.346637387
 20
155.3359704439
 11
106.346637387
 21
103.2016558688
  0
LINE
  5
289
100
AcDbEntity
  8
0
100
AcDbLine
 62
7
  6
CONTINUOUS
 10
108.346637387
 20
168.9359534532
 11
108.346637387
 21
168.6318572933
  0
LINE
  5
28A
100
AcDbEntity
  8
0
100
AcDbLine
 62
7
  6
CONTINUOUS
 10
109.1466403574
 20
169.5524087597
 11
109.1466403574
 21
169.3566697604
  0
LINE
  5
28B
100
AcDbEntity
  8
0
100
AcDbLine
 62
7
  6
CONTINUOUS
 10
110.346637387
 20
170.5016558688
 11
110.346637387
 21
174.0016558688
  0
LINE
  5
28C
100
AcDbEntity
  8
0
100
AcDbLine
 62
7
  6
CONTINUOUS
 10
111.0717201693
 20
170.5016558688
 11
111.0717201693
 21
173.4243055996
  0
LINE
  5
28D
100
AcDbEntity
  8
0
100
AcDbLine
 62
7
  6
CONTINUOUS
 10
111.146637387
 20
127.3359704439
 11
111.146637387
 21
133.3359704439
  0
LINE
  5
28E
100
AcDbEntity
  8
0
100
AcDbLine
 62
7
  6
CONTINUOUS
 10
111.821637387
 20
132.6976726476
 11
111.821637387
 21
130.7827789012
  0
LINE
  5
28F
100
AcDbEntity
  8
0
100
AcDbLine
 62
7
  6
CONTINUOUS
 10
111.821637387
 20
130.0168215457
 11
111.821637387
 21
127.3359704439
  0
LINE
  5
290
100
AcDbEntity
  8
0
100
AcDbLine
 62
7
  6
CONTINUOUS
 10
112.346637387
 20
180.8552457073
 11
112.346637387
 21
180.2016558688
  0
LINE
  5
291
100
AcDbEntity
  8
0
100
AcDbLine
 62
7
  6
CONTINUOUS
 10
112.346637387
 20
124.3359704439
 11
112.346637387
 21
118.2508641306
  0
LINE
  5
292
100
AcDbEntity
  8
0
100
AcDbLine
 62
7
  6
CONTINUOUS
 10
112.446637387
 20
175.6016558688
 11
112.446637387
 21
174.0016558688
  0
LINE
  5
293
100
AcDbEntity
  8
0
100
AcDbLine
 62
7
  6
CONTINUOUS
 10
113.2633040318
 20
123.1657578174
 11
113.2633040318
 21
119.4210767571
  0
LINE
  5
294
100
AcDbEntity
  8
0
100
AcDbLine
 62
7
  6
CONTINUOUS
 10
113.546637387
 20
149.9529915873
 11
113.546637387
 21
147.7189490918
  0
LINE
  5
295
100
AcDbEntity
  8
0
100
AcDbLine
 62
7
  6
CONTINUOUS
 10
113.5731346951
 20
181.9097744198
 11
113.5731346951
 21
185.2550738814
  0
LINE
  5
296
100
AcDbEntity
  8
0
100
AcDbLine
 62
7
  6
CONTINUOUS
 10
117.1835184263
 20
180.2016558688
 11
117.1572352578
 21
180.0016558688
  0
LINE
  5
297
100
AcDbEntity
  8
0
100
AcDbLine
 62
7
  6
CONTINUOUS
 10
113.6924707247
 20
150.6976727668
 11
113.546637387
 21
149.9529915873
  0
LINE
  5
298
100
AcDbEntity
  8
0
100
AcDbLine
 62
7
  6
CONTINUOUS
 10
119.234137387
 20
147.123204482
 11
119.0883041927
 21
146.3785236154
  0
LINE
  5
299
100
AcDbEntity
  8
0
100
AcDbLine
 62
7
  6
CONTINUOUS
 10
114.5674706855
 20
150.5487361971
 11
114.421637387
 21
149.9529915873
  0
LINE
  5
29A
100
AcDbEntity
  8
0
100
AcDbLine
 62
7
  6
CONTINUOUS
 10
114.6341372797
 20
131.5487362567
 11
114.521637387
 21
131.165757579
  0
LINE
  5
29B
100
AcDbEntity
  8
0
100
AcDbLine
 62
7
  6
CONTINUOUS
 10
115.3091372797
 20
131.4210766975
 11
115.196637387
 21
131.0380980197
  0
LINE
  5
29C
100
AcDbEntity
  8
0
100
AcDbLine
 62
7
  6
CONTINUOUS
 10
118.359137387
 20
147.123204482
 11
118.2133041927
 21
146.6763960246
  0
LINE
  5
29D
100
AcDbEntity
  8
0
100
AcDbLine
 62
7
  6
CONTINUOUS
 10
123.8674705812
 20
150.2508638922
 11
123.721637387
 21
149.8040554348
  0
LINE
  5
29E
100
AcDbEntity
  8
0
100
AcDbLine
 62
7
  6
CONTINUOUS
 10
124.7424705812
 20
150.1019277398
 11
124.596637387
 21
149.6551192824
  0
LINE
  5
29F
100
AcDbEntity
  8
0
100
AcDbLine
 62
7
  6
CONTINUOUS
 10
133.2278352335
 20
168.5509393688
 11
135.5372363102
 21
174.8959666796
  0
LINE
  5
2A0
100
AcDbEntity
  8
0
100
AcDbLine
 62
7
  6
CONTINUOUS
 10
115.196637387
 20
131.0380980197
 11
114.859137387
 21
130.5274597827
  0
LINE
  5
2A1
100
AcDbEntity
  8
0
100
AcDbLine
 62
7
  6
CONTINUOUS
 10
124.596637387
 20
149.6551192824
 11
124.159137387
 21
149.0593746726
  0
LINE
  5
2A2
100
AcDbEntity
  8
0
100
AcDbLine
 62
7
  6
CONTINUOUS
 10
114.521637387
 20
131.165757579
 11
114.2966372797
 21
130.9104384605
  0
LINE
  5
2A3
100
AcDbEntity
  8
0
100
AcDbLine
 62
7
  6
CONTINUOUS
 10
123.721637387
 20
149.8040554348
 11
123.4299705812
 21
149.5061831299
  0
LINE
  5
2A4
100
AcDbEntity
  8
0
100
AcDbLine
 62
7
  6
CONTINUOUS
 10
132.7294800994
 20
155.8844985813
 11
132.4637946745
 21
155.6188131563
  0
LINE
  5
2A5
100
AcDbEntity
  8
0
100
AcDbLine
 62
7
  6
CONTINUOUS
 10
70.346637387
 20
93.3016558688
 11
70.8217656987
 21
93.7767841805
  0
LINE
  5
2A6
100
AcDbEntity
  8
0
100
AcDbLine
 62
7
  6
CONTINUOUS
 10
118.2133041927
 20
146.6763960246
 11
117.7758041927
 21
146.3785236154
  0
LINE
  5
2A7
100
AcDbEntity
  8
0
100
AcDbLine
 62
7
  6
CONTINUOUS
 10
124.159137387
 20
149.0593746726
 11
123.5758041927
 21
148.7615023676
  0
LINE
  5
2A8
100
AcDbEntity
  8
0
100
AcDbLine
 62
7
  6
CONTINUOUS
 10
118.5049705812
 20
145.7827789534
 11
117.921637387
 21
145.4849066094
  0
LINE
  5
2A9
100
AcDbEntity
  8
0
100
AcDbLine
 62
7
  6
CONTINUOUS
 10
123.4299705812
 20
149.5061831299
 11
122.9924705812
 21
149.3572469775
  0
LINE
  5
2AA
100
AcDbEntity
  8
0
100
AcDbLine
 62
7
  6
CONTINUOUS
 10
128.346637387
 20
51.7516558688
 11
102.346637387
 21
51.7516558688
  0
LINE
  5
2AB
100
AcDbEntity
  8
0
100
AcDbLine
 62
7
  6
CONTINUOUS
 10
127.046637387
 20
53.0516558688
 11
103.646637387
 21
53.0516558688
  0
LINE
  5
2AC
100
AcDbEntity
  8
0
100
AcDbLine
 62
7
  6
CONTINUOUS
 10
115.2321406209
 20
180.2016558688
 11
115.2423601584
 21
180.0016558688
  0
LINE
  5
2AD
100
AcDbEntity
  8
0
100
AcDbLine
 62
7
  6
CONTINUOUS
 10
114.421637387
 20
149.9529915873
 11
114.421637387
 21
147.7189490918
  0
LINE
  5
2AE
100
AcDbEntity
  8
0
100
AcDbLine
 62
7
  6
CONTINUOUS
 10
114.6341372797
 20
131.9317152921
 11
114.6341372797
 21
131.5487362567
  0
LINE
  5
2AF
100
AcDbEntity
  8
0
100
AcDbLine
 62
7
  6
CONTINUOUS
 10
114.7292708953
 20
176.0016558688
 11
114.7292708953
 21
175.6755565476
  0
LINE
  5
2B0
100
AcDbEntity
  8
0
100
AcDbLine
 62
7
  6
CONTINUOUS
 10
115.3091372797
 20
131.9317152921
 11
115.3091372797
 21
131.4210766975
  0
LINE
  5
2B1
100
AcDbEntity
  8
0
100
AcDbLine
 62
7
  6
CONTINUOUS
 10
115.4046856048
 20
55.0016558688
 11
115.4046856048
 21
61.6316558688
  0
LINE
  5
2B2
100
AcDbEntity
  8
0
100
AcDbLine
 62
7
  6
CONTINUOUS
 10
115.4046856048
 20
62.9316558688
 11
115.4046856048
 21
64.2316558688
  0
LINE
  5
2B3
100
AcDbEntity
  8
0
100
AcDbLine
 62
7
  6
CONTINUOUS
 10
116.209137387
 20
133.3359704439
 11
116.209137387
 21
127.3359704439
  0
LINE
  5
2B4
100
AcDbEntity
  8
0
100
AcDbLine
 62
7
  6
CONTINUOUS
 10
116.459886041
 20
181.9097744198
 11
116.459886041
 21
185.2550738814
  0
LINE
  5
2B5
100
AcDbEntity
  8
0
100
AcDbLine
 62
7
  6
CONTINUOUS
 10
116.7046856048
 20
55.0016558688
 11
116.7046856048
 21
61.6316558688
  0
LINE
  5
2B6
100
AcDbEntity
  8
0
100
AcDbLine
 62
7
  6
CONTINUOUS
 10
116.7046856048
 20
62.9316558688
 11
116.7046856048
 21
64.2316558688
  0
LINE
  5
2B7
100
AcDbEntity
  8
0
100
AcDbLine
 62
7
  6
CONTINUOUS
 10
116.884137387
 20
132.5700130884
 11
116.884137387
 21
127.3359704439
  0
LINE
  5
2B8
100
AcDbEntity
  8
0
100
AcDbLine
 62
7
  6
CONTINUOUS
 10
118.0299705455
 20
117.0806511764
 11
118.0299705455
 21
116.6125661258
  0
LINE
  5
2B9
100
AcDbEntity
  8
0
100
AcDbLine
 62
7
  6
CONTINUOUS
 10
118.5246856048
 20
55.0016558688
 11
118.5246856048
 21
55.3416558688
  0
LINE
  5
2BA
100
AcDbEntity
  8
0
100
AcDbLine
 62
7
  6
CONTINUOUS
 10
118.5246856048
 20
59.130771102
 11
118.5246856048
 21
61.6316558688
  0
LINE
  5
2BB
100
AcDbEntity
  8
0
100
AcDbLine
 62
7
  6
CONTINUOUS
 10
118.5799705455
 20
124.3359704439
 11
118.5799705455
 21
123.1657578174
  0
LINE
  5
2BC
100
AcDbEntity
  8
0
100
AcDbLine
 62
7
  6
CONTINUOUS
 10
118.6215546046
 20
170.5016558688
 11
118.6215546046
 21
171.0369134537
  0
LINE
  5
2BD
100
AcDbEntity
  8
0
100
AcDbLine
 62
7
  6
CONTINUOUS
 10
118.946637387
 20
117.3146937016
 11
118.946637387
 21
116.3785236005
  0
LINE
  5
2BE
100
AcDbEntity
  8
0
100
AcDbLine
 62
7
  6
CONTINUOUS
 10
119.346637387
 20
152.3359704439
 11
119.346637387
 21
145.3359704439
  0
LINE
  5
2BF
100
AcDbEntity
  8
0
100
AcDbLine
 62
7
  6
CONTINUOUS
 10
119.8246856048
 20
60.3316558688
 11
119.8246856048
 21
61.6316558688
  0
LINE
  5
2C0
100
AcDbEntity
  8
0
100
AcDbLine
 62
7
  6
CONTINUOUS
 10
120.0341376016
 20
133.3359704439
 11
120.0341376016
 21
128.229587448
  0
LINE
  5
2C1
100
AcDbEntity
  8
0
100
AcDbLine
 62
7
  6
CONTINUOUS
 10
120.221637387
 20
151.5912896816
 11
120.221637387
 21
149.3572469775
  0
LINE
  5
2C2
100
AcDbEntity
  8
0
100
AcDbLine
 62
7
  6
CONTINUOUS
 10
120.221637387
 20
148.4636300627
 11
120.221637387
 21
145.3359704439
  0
LINE
  5
2C3
100
AcDbEntity
  8
0
100
AcDbLine
 62
7
  6
CONTINUOUS
 10
120.4133042285
 20
119.8891618077
 11
120.4133042285
 21
117.7827790801
  0
LINE
  5
2C4
100
AcDbEntity
  8
0
100
AcDbLine
 62
7
  6
CONTINUOUS
 10
120.7091376016
 20
133.3359704439
 11
120.7091376016
 21
127.3359704439
  0
LINE
  5
2C5
100
AcDbEntity
  8
0
100
AcDbLine
 62
7
  6
CONTINUOUS
 10
121.32997107
 20
119.6551192824
 11
121.32997107
 21
118.0168216053
  0
LINE
  5
2C6
100
AcDbEntity
  8
0
100
AcDbLine
 62
7
  6
CONTINUOUS
 10
121.609137387
 20
132.4423535291
 11
121.609137387
 21
131.4210766975
  0
LINE
  5
2C7
100
AcDbEntity
  8
0
100
AcDbLine
 62
7
  6
CONTINUOUS
 10
122.2333887329
 20
181.9097744198
 11
122.2333887329
 21
185.2550738814
  0
LINE
  5
2C8
100
AcDbEntity
  8
0
100
AcDbLine
 62
7
  6
CONTINUOUS
 10
122.284137387
 20
132.3146939699
 11
122.284137387
 21
127.3359704439
  0
LINE
  5
2C9
100
AcDbEntity
  8
0
100
AcDbLine
 62
7
  6
CONTINUOUS
 10
122.846637387
 20
159.0016558688
 11
122.846637387
 21
166.0016558688
  0
LINE
  5
2CA
100
AcDbEntity
  8
0
100
AcDbLine
 62
7
  6
CONTINUOUS
 10
123.971637387
 20
131.676395816
 11
123.8591378161
 21
130.7827789012
  0
LINE
  5
2CB
100
AcDbEntity
  8
0
100
AcDbLine
 62
7
  6
CONTINUOUS
 10
121.513303704
 20
121.0593744341
 11
121.32997107
 21
119.6551192824
  0
LINE
  5
2CC
100
AcDbEntity
  8
0
100
AcDbLine
 62
7
  6
CONTINUOUS
 10
124.5341378161
 20
131.5487362567
 11
124.4216369578
 21
130.7827789012
  0
LINE
  5
2CD
100
AcDbEntity
  8
0
100
AcDbLine
 62
7
  6
CONTINUOUS
 10
120.596637387
 20
121.0593744341
 11
120.4133042285
 21
119.8891618077
  0
LINE
  5
2CE
100
AcDbEntity
  8
0
100
AcDbLine
 62
7
  6
CONTINUOUS
 10
118.0299705455
 20
116.6125661258
 11
117.846637387
 21
115.9104385499
  0
LINE
  5
2CF
100
AcDbEntity
  8
0
100
AcDbLine
 62
7
  6
CONTINUOUS
 10
120.7799705455
 20
121.7615026657
 11
120.596637387
 21
121.0593744341
  0
LINE
  5
2D0
100
AcDbEntity
  8
0
100
AcDbLine
 62
7
  6
CONTINUOUS
 10
124.646637387
 20
131.9317152921
 11
124.5341378161
 21
131.5487362567
  0
LINE
  5
2D1
100
AcDbEntity
  8
0
100
AcDbLine
 62
7
  6
CONTINUOUS
 10
124.646637387
 20
129.8891619865
 11
124.5341378161
 21
129.5061831299
  0
LINE
  5
2D2
100
AcDbEntity
  8
0
100
AcDbLine
 62
7
  6
CONTINUOUS
 10
127.346637387
 20
129.1232044522
 11
127.2341378161
 21
128.7402257744
  0
LINE
  5
2D3
100
AcDbEntity
  8
0
100
AcDbLine
 62
7
  6
CONTINUOUS
 10
118.946637387
 20
116.3785236005
 11
118.5799705455
 21
115.2083108101
  0
LINE
  5
2D4
100
AcDbEntity
  8
0
100
AcDbLine
 62
7
  6
CONTINUOUS
 10
124.1966378161
 20
132.3146939699
 11
123.971637387
 21
131.676395816
  0
LINE
  5
2D5
100
AcDbEntity
  8
0
100
AcDbLine
 62
7
  6
CONTINUOUS
 10
127.9091378161
 20
128.9955448929
 11
127.684137387
 21
128.3572470073
  0
LINE
  5
2D6
100
AcDbEntity
  8
0
100
AcDbLine
 62
7
  6
CONTINUOUS
 10
130.346637387
 20
159.0016558688
 11
134.8922125574
 21
171.4905210081
  0
LINE
  5
2D7
100
AcDbEntity
  8
0
100
AcDbLine
 62
7
  6
CONTINUOUS
 10
121.146637387
 20
122.6976727668
 11
120.7799705455
 21
121.7615026657
  0
LINE
  5
2D8
100
AcDbEntity
  8
0
100
AcDbLine
 62
7
  6
CONTINUOUS
 10
117.846637387
 20
115.9104385499
 11
117.4799705455
 21
115.2083108101
  0
LINE
  5
2D9
100
AcDbEntity
  8
0
100
AcDbLine
 62
7
  6
CONTINUOUS
 10
122.246637387
 20
122.4636302415
 11
121.513303704
 21
121.0593744341
  0
LINE
  5
2DA
100
AcDbEntity
  8
0
100
AcDbLine
 62
7
  6
CONTINUOUS
 10
124.8716378161
 20
132.3146939699
 11
124.646637387
 21
131.9317152921
  0
LINE
  5
2DB
100
AcDbEntity
  8
0
100
AcDbLine
 62
7
  6
CONTINUOUS
 10
118.5799705455
 20
115.2083108101
 11
118.0299705455
 21
114.272140627
  0
LINE
  5
2DC
100
AcDbEntity
  8
0
100
AcDbLine
 62
7
  6
CONTINUOUS
 10
127.2341378161
 20
128.7402257744
 11
127.009137387
 21
128.3572470073
  0
LINE
  5
2DD
100
AcDbEntity
  8
0
100
AcDbLine
 62
7
  6
CONTINUOUS
 10
124.5341378161
 20
132.8253322069
 11
124.1966378161
 21
132.3146939699
  0
LINE
  5
2DE
100
AcDbEntity
  8
0
100
AcDbLine
 62
7
  6
CONTINUOUS
 10
127.684137387
 20
128.3572470073
 11
127.346637387
 21
127.8466087256
  0
LINE
  5
2DF
100
AcDbEntity
  8
0
100
AcDbLine
 62
7
  6
CONTINUOUS
 10
122.284137387
 20
133.3359704439
 11
121.609137387
 21
132.4423535291
  0
LINE
  5
2E0
100
AcDbEntity
  8
0
100
AcDbLine
 62
7
  6
CONTINUOUS
 10
122.284137387
 20
132.3146939699
 11
121.609137387
 21
131.4210766975
  0
LINE
  5
2E1
100
AcDbEntity
  8
0
100
AcDbLine
 62
7
  6
CONTINUOUS
 10
121.696637387
 20
123.3998003427
 11
121.146637387
 21
122.6976727668
  0
LINE
  5
2E2
100
AcDbEntity
  8
0
100
AcDbLine
 62
7
  6
CONTINUOUS
 10
124.8716378161
 20
130.144481105
 11
124.646637387
 21
129.8891619865
  0
LINE
  5
2E3
100
AcDbEntity
  8
0
100
AcDbLine
 62
7
  6
CONTINUOUS
 10
87.2001907776
 20
93.3552092594
 11
86.9930839964
 21
93.1481024782
  0
LINE
  5
2E4
100
AcDbEntity
  8
0
100
AcDbLine
 62
7
  6
CONTINUOUS
 10
99.1144043399
 20
101.2694228218
 11
92.078870434
 21
94.2338889158
  0
LINE
  5
2E5
100
AcDbEntity
  8
0
100
AcDbLine
 62
7
  6
CONTINUOUS
 10
114.3633040974
 20
118.9529917065
 11
113.6299706766
 21
118.2508641306
  0
LINE
  5
2E6
100
AcDbEntity
  8
0
100
AcDbLine
 62
7
  6
CONTINUOUS
 10
114.859137387
 20
130.5274597827
 11
114.4091374943
 21
130.144481105
  0
LINE
  5
2E7
100
AcDbEntity
  8
0
100
AcDbLine
 62
7
  6
CONTINUOUS
 10
125.2091378161
 20
132.5700130884
 11
124.8716378161
 21
132.3146939699
  0
LINE
  5
2E8
100
AcDbEntity
  8
0
100
AcDbLine
 62
7
  6
CONTINUOUS
 10
125.0966369578
 20
131.0380980197
 11
124.4216369578
 21
130.5274597827
  0
LINE
  5
2E9
100
AcDbEntity
  8
0
100
AcDbLine
 62
7
  6
CONTINUOUS
 10
125.2091378161
 20
130.3998002235
 11
124.8716378161
 21
130.144481105
  0
LINE
  5
2EA
100
AcDbEntity
  8
0
100
AcDbLine
 62
7
  6
CONTINUOUS
 10
125.0966369578
 20
133.2083108846
 11
124.5341378161
 21
132.8253322069
  0
LINE
  5
2EB
100
AcDbEntity
  8
0
100
AcDbLine
 62
7
  6
CONTINUOUS
 10
119.8246856048
 20
55.0016558688
 11
118.5246856048
 21
55.0016558688
  0
LINE
  5
2EC
100
AcDbEntity
  8
0
100
AcDbLine
 62
7
  6
CONTINUOUS
 10
116.7046856048
 20
55.0016558688
 11
115.4046856048
 21
55.0016558688
  0
LINE
  5
2ED
100
AcDbEntity
  8
0
100
AcDbLine
 62
7
  6
CONTINUOUS
 10
110.2065318747
 20
55.0016558688
 11
108.7475077658
 21
55.0016558688
  0
LINE
  5
2EE
100
AcDbEntity
  8
0
100
AcDbLine
 62
7
  6
CONTINUOUS
 10
123.4646856048
 20
59.5016558688
 11
122.6846856048
 21
59.5016558688
  0
LINE
  5
2EF
100
AcDbEntity
  8
0
100
AcDbLine
 62
7
  6
CONTINUOUS
 10
124.7646856048
 20
60.8516558688
 11
123.4646856048
 21
60.8516558688
  0
LINE
  5
2F0
100
AcDbEntity
  8
0
100
AcDbLine
 62
7
  6
CONTINUOUS
 10
119.8246856048
 20
61.6316558688
 11
118.5246856048
 21
61.6316558688
  0
LINE
  5
2F1
100
AcDbEntity
  8
0
100
AcDbLine
 62
7
  6
CONTINUOUS
 10
116.7046856048
 20
61.6316558688
 11
115.4046856048
 21
61.6316558688
  0
LINE
  5
2F2
100
AcDbEntity
  8
0
100
AcDbLine
 62
7
  6
CONTINUOUS
 10
113.5846856048
 20
61.6316558688
 11
112.1256614959
 21
61.6316558688
  0
LINE
  5
2F3
100
AcDbEntity
  8
0
100
AcDbLine
 62
7
  6
CONTINUOUS
 10
106.9256614959
 20
61.6316558688
 11
105.466637387
 21
61.6316558688
  0
LINE
  5
2F4
100
AcDbEntity
  8
0
100
AcDbLine
 62
7
  6
CONTINUOUS
 10
116.7046856048
 20
62.9316558688
 11
115.4046856048
 21
62.9316558688
  0
LINE
  5
2F5
100
AcDbEntity
  8
0
100
AcDbLine
 62
7
  6
CONTINUOUS
 10
70.8217656987
 20
93.7767841805
 11
70.8250111513
 21
93.7755967402
  0
LINE
  5
2F6
100
AcDbEntity
  8
0
100
AcDbLine
 62
7
  6
CONTINUOUS
 10
159.241429568
 20
25.8061649832
 11
159.9921783943
 21
24.5059973984
  0
LINE
  5
2F7
100
AcDbEntity
  8
0
100
AcDbLine
 62
7
  6
CONTINUOUS
 10
161.2414305624
 20
25.8061649499
 11
161.9921793666
 21
24.5059974022
  0
LINE
  5
2F8
100
AcDbEntity
  8
0
100
AcDbLine
 62
7
  6
CONTINUOUS
 10
112.7133040646
 20
115.2083108101
 11
112.346637387
 21
116.1444810752
  0
LINE
  5
2F9
100
AcDbEntity
  8
0
100
AcDbLine
 62
7
  6
CONTINUOUS
 10
113.8133040974
 20
115.2083108101
 11
113.446637387
 21
116.1444810752
  0
LINE
  5
2FA
100
AcDbEntity
  8
0
100
AcDbLine
 62
7
  6
CONTINUOUS
 10
118.0299705455
 20
117.0806511764
 11
117.846637387
 21
117.7827790801
  0
LINE
  5
2FB
100
AcDbEntity
  8
0
100
AcDbLine
 62
7
  6
CONTINUOUS
 10
113.6924707247
 20
146.9742683295
 11
113.546637387
 21
147.7189490918
  0
LINE
  5
2FC
100
AcDbEntity
  8
0
100
AcDbLine
 62
7
  6
CONTINUOUS
 10
120.596637387
 20
116.6125661258
 11
120.4133042285
 21
117.7827790801
  0
LINE
  5
2FD
100
AcDbEntity
  8
0
100
AcDbLine
 62
7
  6
CONTINUOUS
 10
122.959137387
 20
133.3359704439
 11
122.959137387
 21
127.3359704439
  0
LINE
  5
2FE
100
AcDbEntity
  8
0
100
AcDbLine
 62
7
  6
CONTINUOUS
 10
123.4646856048
 20
59.5016558688
 11
123.4646856048
 21
60.8516558688
  0
LINE
  5
2FF
100
AcDbEntity
  8
0
100
AcDbLine
 62
7
  6
CONTINUOUS
 10
123.8591378161
 20
130.7827789012
 11
123.8591378161
 21
129.8891619865
  0
LINE
  5
300
100
AcDbEntity
  8
0
100
AcDbLine
 62
7
  6
CONTINUOUS
 10
123.8674705812
 20
150.6976727668
 11
123.8674705812
 21
150.2508638922
  0
LINE
  5
301
100
AcDbEntity
  8
0
100
AcDbLine
 62
7
  6
CONTINUOUS
 10
124.4216369578
 20
130.7827789012
 11
124.4216369578
 21
130.5274597827
  0
LINE
  5
302
100
AcDbEntity
  8
0
100
AcDbLine
 62
7
  6
CONTINUOUS
 10
124.5341378161
 20
129.5061831299
 11
124.5341378161
 21
129.1232044522
  0
LINE
  5
303
100
AcDbEntity
  8
0
100
AcDbLine
 62
7
  6
CONTINUOUS
 10
124.7424705812
 20
150.6976727668
 11
124.7424705812
 21
150.1019277398
  0
LINE
  5
304
100
AcDbEntity
  8
0
100
AcDbLine
 62
7
  6
CONTINUOUS
 10
124.7646856048
 20
59.1239853074
 11
124.7646856048
 21
60.8516558688
  0
LINE
  5
305
100
AcDbEntity
  8
0
100
AcDbLine
 62
7
  6
CONTINUOUS
 10
125.1201400789
 20
181.9097744198
 11
125.1201400789
 21
185.2550738814
  0
LINE
  5
306
100
AcDbEntity
  8
0
100
AcDbLine
 62
7
  6
CONTINUOUS
 10
126.096637387
 20
119.6551192824
 11
126.096637387
 21
118.0168216053
  0
LINE
  5
307
100
AcDbEntity
  8
0
100
AcDbLine
 62
7
  6
CONTINUOUS
 10
126.346637387
 20
180.8552457073
 11
126.346637387
 21
180.2016558688
  0
LINE
  5
308
100
AcDbEntity
  8
0
100
AcDbLine
 62
7
  6
CONTINUOUS
 10
127.013303704
 20
119.8891618077
 11
127.013303704
 21
117.7827790801
  0
LINE
  5
309
100
AcDbEntity
  8
0
100
AcDbLine
 62
7
  6
CONTINUOUS
 10
127.046637387
 20
53.0516558688
 11
127.046637387
 21
66.0516558688
  0
LINE
  5
30A
100
AcDbEntity
  8
0
100
AcDbLine
 62
7
  6
CONTINUOUS
 10
127.346637387
 20
129.5061831299
 11
127.346637387
 21
129.1232044522
  0
LINE
  5
30B
100
AcDbEntity
  8
0
100
AcDbLine
 62
7
  6
CONTINUOUS
 10
127.9091378161
 20
129.633842868
 11
127.9091378161
 21
128.9955448929
  0
LINE
  5
30C
100
AcDbEntity
  8
0
100
AcDbLine
 62
7
  6
CONTINUOUS
 10
128.346637387
 20
51.7516558688
 11
128.346637387
 21
67.3516558688
  0
LINE
  5
30D
100
AcDbEntity
  8
0
100
AcDbLine
 62
7
  6
CONTINUOUS
 10
129.8495811121
 20
17.0016558688
 11
129.8495811121
 21
100.9729555335
  0
LINE
  5
30E
100
AcDbEntity
  8
0
100
AcDbLine
 62
7
  6
CONTINUOUS
 10
130.6981092496
 20
101.3159201202
 11
130.6981092496
 21
16.6501840062
  0
LINE
  5
30F
100
AcDbEntity
  8
0
100
AcDbLine
 62
7
  6
CONTINUOUS
 10
126.096637387
 20
118.0168216053
 11
125.913303704
 21
116.6125661258
  0
LINE
  5
310
100
AcDbEntity
  8
0
100
AcDbLine
 62
7
  6
CONTINUOUS
 10
127.013303704
 20
117.7827790801
 11
126.82997107
 21
116.6125661258
  0
LINE
  5
311
100
AcDbEntity
  8
0
100
AcDbLine
 62
7
  6
CONTINUOUS
 10
126.82997107
 20
116.6125661258
 11
126.646637387
 21
115.9104385499
  0
LINE
  5
312
100
AcDbEntity
  8
0
100
AcDbLine
 62
7
  6
CONTINUOUS
 10
126.646637387
 20
115.9104385499
 11
126.27997107
 21
114.9742682848
  0
LINE
  5
313
100
AcDbEntity
  8
0
100
AcDbLine
 62
7
  6
CONTINUOUS
 10
125.913303704
 20
116.6125661258
 11
125.17997107
 21
115.2083108101
  0
LINE
  5
314
100
AcDbEntity
  8
0
100
AcDbLine
 62
7
  6
CONTINUOUS
 10
71.4589271224
 20
24.5937185704
 11
72.130148592
 21
25.7561583246
  0
LINE
  5
315
100
AcDbEntity
  8
0
100
AcDbLine
 62
7
  6
CONTINUOUS
 10
73.408276138
 20
24.5059973992
 11
74.1301496739
 21
25.7561581999
  0
LINE
  5
316
100
AcDbEntity
  8
0
100
AcDbLine
 62
7
  6
CONTINUOUS
 10
75.4082749576
 20
24.5059973884
 11
76.1301484932
 21
25.7561581889
  0
LINE
  5
317
100
AcDbEntity
  8
0
100
AcDbLine
 62
7
  6
CONTINUOUS
 10
77.4082747751
 20
24.5059974018
 11
78.1301483888
 21
25.7561583323
  0
LINE
  5
318
100
AcDbEntity
  8
0
100
AcDbLine
 62
7
  6
CONTINUOUS
 10
126.27997107
 20
114.9742682848
 11
125.72997107
 21
114.272140627
  0
LINE
  5
319
100
AcDbEntity
  8
0
100
AcDbLine
 62
7
  6
CONTINUOUS
 10
122.796637387
 20
122.9317152921
 11
122.246637387
 21
122.4636302415
  0
LINE
  5
31A
100
AcDbEntity
  8
0
100
AcDbLine
 62
7
  6
CONTINUOUS
 10
117.4799705455
 20
115.2083108101
 11
116.9299705455
 21
114.7402257595
  0
LINE
  5
31B
100
AcDbEntity
  8
0
100
AcDbLine
 62
7
  6
CONTINUOUS
 10
114.1799706766
 20
120.123204333
 11
113.2633040318
 21
119.4210767571
  0
LINE
  5
31C
100
AcDbEntity
  8
0
100
AcDbLine
 62
7
  6
CONTINUOUS
 10
122.613303704
 20
124.1019279186
 11
121.696637387
 21
123.3998003427
  0
LINE
  5
31D
100
AcDbEntity
  8
0
100
AcDbLine
 62
7
  6
CONTINUOUS
 10
118.0299705455
 20
114.272140627
 11
117.1133042285
 21
113.5700129896
  0
LINE
  5
31E
100
AcDbEntity
  8
0
100
AcDbLine
 62
7
  6
CONTINUOUS
 10
127.009137387
 20
128.3572470073
 11
126.671637387
 21
128.1019278888
  0
LINE
  5
31F
100
AcDbEntity
  8
0
100
AcDbLine
 62
7
  6
CONTINUOUS
 10
127.346637387
 20
127.8466087256
 11
126.7841369578
 21
127.4636300143
  0
LINE
  5
320
100
AcDbEntity
  8
0
100
AcDbLine
 62
7
  6
CONTINUOUS
 10
114.2966372797
 20
130.9104384605
 11
113.9591372797
 21
130.7827789012
  0
LINE
  5
321
100
AcDbEntity
  8
0
100
AcDbLine
 62
7
  6
CONTINUOUS
 10
125.5466378161
 20
132.6976726476
 11
125.2091378161
 21
132.5700130884
  0
LINE
  5
322
100
AcDbEntity
  8
0
100
AcDbLine
 62
7
  6
CONTINUOUS
 10
125.5466378161
 20
130.5274597827
 11
125.2091378161
 21
130.3998002235
  0
LINE
  5
323
100
AcDbEntity
  8
0
100
AcDbLine
 62
7
  6
CONTINUOUS
 10
116.7046856048
 20
64.2316558688
 11
115.4046856048
 21
64.2316558688
  0
LINE
  5
324
100
AcDbEntity
  8
0
100
AcDbLine
 62
7
  6
CONTINUOUS
 10
127.046637387
 20
66.0516558688
 11
103.646637387
 21
66.0516558688
  0
LINE
  5
325
100
AcDbEntity
  8
0
100
AcDbLine
 62
7
  6
CONTINUOUS
 10
128.346637387
 20
67.3516558688
 11
102.346637387
 21
67.3516558688
  0
LINE
  5
326
100
AcDbEntity
  8
0
100
AcDbLine
 62
7
  6
CONTINUOUS
 10
113.2633040318
 20
114.272140627
 11
112.7133040646
 21
115.2083108101
  0
LINE
  5
327
100
AcDbEntity
  8
0
100
AcDbLine
 62
7
  6
CONTINUOUS
 10
118.5799705455
 20
118.4849066559
 11
118.0299705455
 21
119.4210767571
  0
LINE
  5
328
100
AcDbEntity
  8
0
100
AcDbLine
 62
7
  6
CONTINUOUS
 10
163.2414309807
 20
25.8061648202
 11
163.9921797125
 21
24.5059973929
  0
LINE
  5
329
100
AcDbEntity
  8
0
100
AcDbLine
 62
7
  6
CONTINUOUS
 10
165.2414295605
 20
25.8061649683
 11
165.9921783787
 21
24.505997397
  0
LINE
  5
32A
100
AcDbEntity
  8
0
100
AcDbLine
 62
7
  6
CONTINUOUS
 10
167.2414304048
 20
25.8061649644
 11
167.9921792175
 21
24.5059974024
  0
LINE
  5
32B
100
AcDbEntity
  8
0
100
AcDbLine
 62
7
  6
CONTINUOUS
 10
169.2414310679
 20
25.8061648333
 11
169.5362062915
 21
25.2956664624
  0
LINE
  5
32C
100
AcDbEntity
  8
0
100
AcDbLine
 62
7
  6
CONTINUOUS
 10
117.846637387
 20
117.7827790801
 11
117.4799705455
 21
118.4849066559
  0
LINE
  5
32D
100
AcDbEntity
  8
0
100
AcDbLine
 62
7
  6
CONTINUOUS
 10
122.246637387
 20
115.2083108101
 11
121.513303704
 21
116.6125661258
  0
LINE
  5
32E
100
AcDbEntity
  8
0
100
AcDbLine
 62
7
  6
CONTINUOUS
 10
121.146637387
 20
114.9742682848
 11
120.7799705455
 21
115.9104385499
  0
LINE
  5
32F
100
AcDbEntity
  8
0
100
AcDbLine
 62
7
  6
CONTINUOUS
 10
118.946637387
 20
117.3146937016
 11
118.5799705455
 21
118.4849066559
  0
LINE
  5
330
100
AcDbEntity
  8
0
100
AcDbLine
 62
7
  6
CONTINUOUS
 10
114.6341372797
 20
131.9317152921
 11
114.521637387
 21
132.3146939699
  0
LINE
  5
331
100
AcDbEntity
  8
0
100
AcDbLine
 62
7
  6
CONTINUOUS
 10
115.3091372797
 20
131.9317152921
 11
115.196637387
 21
132.3146939699
  0
LINE
  5
332
100
AcDbEntity
  8
0
100
AcDbLine
 62
7
  6
CONTINUOUS
 10
120.7799705455
 20
115.9104385499
 11
120.596637387
 21
116.6125661258
  0
LINE
  5
333
100
AcDbEntity
  8
0
100
AcDbLine
 62
7
  6
CONTINUOUS
 10
126.82997107
 20
121.0593744341
 11
126.646637387
 21
121.7615026657
  0
LINE
  5
334
100
AcDbEntity
  8
0
100
AcDbLine
 62
7
  6
CONTINUOUS
 10
114.5674706855
 20
147.123204482
 11
114.421637387
 21
147.7189490918
  0
LINE
  5
335
100
AcDbEntity
  8
0
100
AcDbLine
 62
7
  6
CONTINUOUS
 10
113.6835184263
 20
180.2016558688
 11
113.7292403103
 21
180.0016558688
  0
LINE
  5
336
100
AcDbEntity
  8
0
100
AcDbLine
 62
7
  6
CONTINUOUS
 10
119.234137387
 20
150.5487361971
 11
119.0883041927
 21
151.2934173767
  0
LINE
  5
337
100
AcDbEntity
  8
0
100
AcDbLine
 62
7
  6
CONTINUOUS
 10
127.013303704
 20
119.8891618077
 11
126.82997107
 21
121.0593744341
  0
LINE
  5
338
100
AcDbEntity
  8
0
100
AcDbLine
 62
7
  6
CONTINUOUS
 10
121.513303704
 20
116.6125661258
 11
121.32997107
 21
118.0168216053
  0
LINE
  5
339
100
AcDbEntity
  8
0
100
AcDbLine
 62
7
  6
CONTINUOUS
 10
126.096637387
 20
119.6551192824
 11
125.913303704
 21
121.0593744341
  0
LINE
  5
33A
100
AcDbEntity
  8
0
100
AcDbLine
 62
7
  6
CONTINUOUS
 10
123.971637387
 20
128.9955448929
 11
123.8591378161
 21
129.8891619865
  0
LINE
  5
33B
100
AcDbEntity
  8
0
100
AcDbLine
 62
7
  6
CONTINUOUS
 10
131.9951655244
 20
15.3531277314
 11
131.9951655244
 21
102.9645567436
  0
LINE
  5
33C
100
AcDbEntity
  8
0
100
AcDbLine
 62
7
  6
CONTINUOUS
 10
132.346637387
 20
155.3359704439
 11
132.346637387
 21
105.2016558688
  0
LINE
  5
33D
100
AcDbEntity
  8
0
100
AcDbLine
 62
7
  6
CONTINUOUS
 10
132.8436936618
 20
103.793749642
 11
132.8436936618
 21
15.0016558688
  0
LINE
  5
33E
100
AcDbEntity
  8
0
100
AcDbLine
 62
7
  6
CONTINUOUS
 10
132.846637387
 20
163.8359704439
 11
132.846637387
 21
156.1673412938
  0
LINE
  5
33F
100
AcDbEntity
  8
0
100
AcDbLine
 62
7
  6
CONTINUOUS
 10
133.096637387
 20
164.2516558688
 11
133.096637387
 21
166.5572187723
  0
LINE
  5
340
100
AcDbEntity
  8
0
100
AcDbLine
 62
7
  6
CONTINUOUS
 10
133.2278352335
 20
176.0016558688
 11
133.2278352335
 21
168.5509393688
  0
LINE
  5
341
100
AcDbEntity
  8
0
100
AcDbLine
 62
7
  6
CONTINUOUS
 10
135.5372363102
 20
174.8959666796
 11
135.5372363102
 21
175.0016558688
  0
LINE
  5
342
100
AcDbEntity
  8
0
100
AcDbLine
 62
7
  6
CONTINUOUS
 10
137.846637387
 20
176.0016558688
 11
137.846637387
 21
180.0016558688
  0
LINE
  5
343
100
AcDbEntity
  8
0
100
AcDbLine
 62
7
  6
CONTINUOUS
 10
108.2125397979
 20
56.2425189501
 11
108.9420518523
 21
57.6742669721
  0
LINE
  5
344
100
AcDbEntity
  8
0
100
AcDbLine
 62
7
  6
CONTINUOUS
 10
108.7475077658
 20
55.0016558688
 11
112.1256614959
 21
61.6316558688
  0
LINE
  5
345
100
AcDbEntity
  8
0
100
AcDbLine
 62
7
  6
CONTINUOUS
 10
110.2065318747
 20
55.0016558688
 11
113.5846856048
 21
61.6316558688
  0
LINE
  5
346
100
AcDbEntity
  8
0
100
AcDbLine
 62
7
  6
CONTINUOUS
 10
82.1249495505
 20
25.7516558688
 11
81.403261714
 21
24.5016558688
  0
LINE
  5
347
100
AcDbEntity
  8
0
100
AcDbLine
 62
7
  6
CONTINUOUS
 10
82.5022998197
 20
25.7516558688
 11
81.896082037
 21
24.7016558688
  0
LINE
  5
348
100
AcDbEntity
  8
0
100
AcDbLine
 62
7
  6
CONTINUOUS
 10
79.40827602
 20
24.5059974008
 11
80.1301495704
 21
25.7561582256
  0
LINE
  5
349
100
AcDbEntity
  8
0
100
AcDbLine
 62
7
  6
CONTINUOUS
 10
125.17997107
 20
115.2083108101
 11
124.62997107
 21
114.7402257595
  0
LINE
  5
34A
100
AcDbEntity
  8
0
100
AcDbLine
 62
7
  6
CONTINUOUS
 10
125.72997107
 20
114.272140627
 11
124.813303704
 21
113.5700129896
  0
LINE
  5
34B
100
AcDbEntity
  8
0
100
AcDbLine
 62
7
  6
CONTINUOUS
 10
126.671637387
 20
128.1019278888
 11
126.334137387
 21
127.9742683295
  0
LINE
  5
34C
100
AcDbEntity
  8
0
100
AcDbLine
 62
7
  6
CONTINUOUS
 10
115.096637387
 20
119.1870342318
 11
114.3633040974
 21
118.9529917065
  0
LINE
  5
34D
100
AcDbEntity
  8
0
100
AcDbLine
 62
7
  6
CONTINUOUS
 10
146.2578623967
 20
73.5849169895
 11
152.2128074385
 21
73.5849169895
  0
LINE
  5
34E
100
AcDbEntity
  8
0
100
AcDbLine
 62
7
  6
CONTINUOUS
 10
146.2578623967
 20
74.9991305519
 11
152.2128074385
 21
74.9991305519
  0
LINE
  5
34F
100
AcDbEntity
  8
0
100
AcDbLine
 62
7
  6
CONTINUOUS
 10
114.1799706766
 20
113.5700129896
 11
113.2633040318
 21
114.272140627
  0
LINE
  5
350
100
AcDbEntity
  8
0
100
AcDbLine
 62
7
  6
CONTINUOUS
 10
114.3633040974
 20
114.7402257595
 11
113.8133040974
 21
115.2083108101
  0
LINE
  5
351
100
AcDbEntity
  8
0
100
AcDbLine
 62
7
  6
CONTINUOUS
 10
121.696637387
 20
114.272140627
 11
121.146637387
 21
114.9742682848
  0
LINE
  5
352
100
AcDbEntity
  8
0
100
AcDbLine
 62
7
  6
CONTINUOUS
 10
115.196637387
 20
132.3146939699
 11
114.859137387
 21
132.8253322069
  0
LINE
  5
353
100
AcDbEntity
  8
0
100
AcDbLine
 62
7
  6
CONTINUOUS
 10
117.221637387
 20
133.3359704439
 11
120.0341376016
 21
128.229587448
  0
LINE
  5
354
100
AcDbEntity
  8
0
100
AcDbLine
 62
7
  6
CONTINUOUS
 10
119.6966376016
 20
127.3359704439
 11
116.884137387
 21
132.5700130884
  0
LINE
  5
355
100
AcDbEntity
  8
0
100
AcDbLine
 62
7
  6
CONTINUOUS
 10
125.913303704
 20
121.0593744341
 11
125.17997107
 21
122.4636302415
  0
LINE
  5
356
100
AcDbEntity
  8
0
100
AcDbLine
 62
7
  6
CONTINUOUS
 10
113.984137387
 20
146.3785236154
 11
113.6924707247
 21
146.9742683295
  0
LINE
  5
357
100
AcDbEntity
  8
0
100
AcDbLine
 62
7
  6
CONTINUOUS
 10
108.6563528996
 20
169.8035705212
 11
108.6538965465
 21
169.8089150283
  0
LINE
  5
358
100
AcDbEntity
  8
0
100
AcDbLine
 62
7
  6
CONTINUOUS
 10
126.646637387
 20
121.7615026657
 11
126.27997107
 21
122.6976727668
  0
LINE
  5
359
100
AcDbEntity
  8
0
100
AcDbLine
 62
7
  6
CONTINUOUS
 10
123.8674705812
 20
145.3359704439
 11
122.7008039841
 21
148.4636300627
  0
LINE
  5
35A
100
AcDbEntity
  8
0
100
AcDbLine
 62
7
  6
CONTINUOUS
 10
124.1966378161
 20
128.3572470073
 11
123.971637387
 21
128.9955448929
  0
LINE
  5
35B
100
AcDbEntity
  8
0
100
AcDbLine
 62
7
  6
CONTINUOUS
 10
127.9091378161
 20
129.633842868
 11
127.684137387
 21
130.2721406642
  0
LINE
  5
35C
100
AcDbEntity
  8
0
100
AcDbLine
 62
7
  6
CONTINUOUS
 10
118.359137387
 20
150.5487361971
 11
118.2133041927
 21
150.9955450717
  0
LINE
  5
35D
100
AcDbEntity
  8
0
100
AcDbLine
 62
7
  6
CONTINUOUS
 10
123.8674705812
 20
150.6976727668
 11
123.721637387
 21
151.1444812242
  0
LINE
  5
35E
100
AcDbEntity
  8
0
100
AcDbLine
 62
7
  6
CONTINUOUS
 10
124.7424705812
 20
150.6976727668
 11
124.596637387
 21
151.1444812242
  0
LINE
  5
35F
100
AcDbEntity
  8
0
100
AcDbLine
 62
7
  6
CONTINUOUS
 10
124.646637387
 20
128.7402257744
 11
124.5341378161
 21
129.1232044522
  0
LINE
  5
360
100
AcDbEntity
  8
0
100
AcDbLine
 62
7
  6
CONTINUOUS
 10
127.346637387
 20
129.5061831299
 11
127.2341378161
 21
129.8891619865
  0
LINE
  5
361
100
AcDbEntity
  8
0
100
AcDbLine
 62
7
  6
CONTINUOUS
 10
127.684137387
 20
131.9317152921
 11
127.5716378161
 21
132.3146939699
  0
LINE
  5
362
100
AcDbEntity
  8
0
100
AcDbLine
 62
7
  6
CONTINUOUS
 10
146.4885254704
 20
95.5218362729
 11
145.8664326731
 21
102.6323894829
  0
LINE
  5
363
100
AcDbEntity
  8
0
100
AcDbLine
 62
7
  6
CONTINUOUS
 10
143.046637387
 20
15.0016558688
 11
143.046637387
 21
104.0016558688
  0
LINE
  5
364
100
AcDbEntity
  8
0
100
AcDbLine
 62
7
  6
CONTINUOUS
 10
143.246637387
 20
15.0016558688
 11
143.246637387
 21
104.0016558688
  0
LINE
  5
365
100
AcDbEntity
  8
0
100
AcDbLine
 62
7
  6
CONTINUOUS
 10
144.3721406259
 20
104.0016558688
 11
144.3721406259
 21
15.0016558688
  0
LINE
  5
366
100
AcDbEntity
  8
0
100
AcDbLine
 62
7
  6
CONTINUOUS
 10
145.8664326731
 20
102.6323894829
 11
145.8664326731
 21
16.3709222547
  0
LINE
  5
367
100
AcDbEntity
  8
0
100
AcDbLine
 62
7
  6
CONTINUOUS
 10
116.9299705455
 20
114.7402257595
 11
116.196637387
 21
114.5061832342
  0
LINE
  5
368
100
AcDbEntity
  8
0
100
AcDbLine
 62
7
  6
CONTINUOUS
 10
122.613303704
 20
113.5700129896
 11
121.696637387
 21
114.272140627
  0
LINE
  5
369
100
AcDbEntity
  8
0
100
AcDbLine
 62
7
  6
CONTINUOUS
 10
118.0299705455
 20
119.4210767571
 11
117.1133042285
 21
120.123204333
  0
LINE
  5
36A
100
AcDbEntity
  8
0
100
AcDbLine
 62
7
  6
CONTINUOUS
 10
117.4799705455
 20
118.4849066559
 11
116.9299705455
 21
118.9529917065
  0
LINE
  5
36B
100
AcDbEntity
  8
0
100
AcDbLine
 62
7
  6
CONTINUOUS
 10
122.796637387
 20
114.7402257595
 11
122.246637387
 21
115.2083108101
  0
LINE
  5
36C
100
AcDbEntity
  8
0
100
AcDbLine
 62
7
  6
CONTINUOUS
 10
143.246637387
 20
103.8016558688
 11
143.046637387
 21
104.0016558688
  0
LINE
  5
36D
100
AcDbEntity
  8
0
100
AcDbLine
 62
7
  6
CONTINUOUS
 10
114.521637387
 20
132.3146939699
 11
114.2966372797
 21
132.5700130884
  0
LINE
  5
36E
100
AcDbEntity
  8
0
100
AcDbLine
 62
7
  6
CONTINUOUS
 10
126.27997107
 20
122.6976727668
 11
125.72997107
 21
123.3998003427
  0
LINE
  5
36F
100
AcDbEntity
  8
0
100
AcDbLine
 62
7
  6
CONTINUOUS
 10
124.5341378161
 20
127.8466087256
 11
124.1966378161
 21
128.3572470073
  0
LINE
  5
370
100
AcDbEntity
  8
0
100
AcDbLine
 62
7
  6
CONTINUOUS
 10
127.5716378161
 20
132.3146939699
 11
127.2341378161
 21
132.8253322069
  0
LINE
  5
371
100
AcDbEntity
  8
0
100
AcDbLine
 62
7
  6
CONTINUOUS
 10
114.859137387
 20
146.6763960246
 11
114.5674706855
 21
147.123204482
  0
LINE
  5
372
100
AcDbEntity
  8
0
100
AcDbLine
 62
7
  6
CONTINUOUS
 10
124.8716378161
 20
128.3572470073
 11
124.646637387
 21
128.7402257744
  0
LINE
  5
373
100
AcDbEntity
  8
0
100
AcDbLine
 62
7
  6
CONTINUOUS
 10
127.1216369578
 20
131.9317152921
 11
126.8966378161
 21
132.3146939699
  0
LINE
  5
374
100
AcDbEntity
  8
0
100
AcDbLine
 62
7
  6
CONTINUOUS
 10
112.6892417729
 20
180.2016558688
 11
112.7659904268
 21
180.0016558688
  0
LINE
  5
375
100
AcDbEntity
  8
0
100
AcDbLine
 62
7
  6
CONTINUOUS
 10
124.8883041927
 20
145.3359704439
 11
123.5758041927
 21
148.7615023676
  0
LINE
  5
376
100
AcDbEntity
  8
0
100
AcDbLine
 62
7
  6
CONTINUOUS
 10
153.746637387
 20
95.5016558688
 11
153.746637387
 21
23.5016558688
  0
LINE
  5
377
100
AcDbEntity
  8
GEOM
100
AcDbLine
 62
7
  6
CONTINUOUS
 10
157.8324238246
 20
26.0016558688
 11
157.8324238246
 21
93.0016558688
  0
LINE
  5
378
100
AcDbEntity
  8
0
100
AcDbLine
 62
7
  6
CONTINUOUS
 10
146.4885254704
 20
23.4814754648
 11
145.8664326731
 21
16.3709222547
  0
LINE
  5
379
100
AcDbEntity
  8
0
100
AcDbLine
 62
7
  6
CONTINUOUS
 10
157.8324238246
 20
93.0016558688
 11
153.746637387
 21
93.0016558688
  0
LINE
  5
37A
100
AcDbEntity
  8
0
100
AcDbLine
 62
7
  6
CONTINUOUS
 10
86.6395306058
 20
93.0016558688
 11
82.9353125216
 21
93.0016558688
  0
LINE
  5
37B
100
AcDbEntity
  8
0
100
AcDbLine
 62
7
  6
CONTINUOUS
 10
166.2466368689
 20
93.2016556842
 11
166.0966368689
 21
93.2016556842
  0
LINE
  5
37C
100
AcDbEntity
  8
0
100
AcDbLine
 62
7
  6
CONTINUOUS
 10
160.2466370015
 20
93.2016556885
 11
160.0966370015
 21
93.2016556885
  0
LINE
  5
37D
100
AcDbEntity
  8
0
100
AcDbLine
 62
7
  6
CONTINUOUS
 10
168.2466380164
 20
93.2016557816
 11
168.0966380164
 21
93.2016557816
  0
LINE
  5
37E
100
AcDbEntity
  8
0
100
AcDbLine
 62
7
  6
CONTINUOUS
 10
164.2466371027
 20
93.2016558227
 11
164.0966371027
 21
93.2016558227
  0
LINE
  5
37F
100
AcDbEntity
  8
0
100
AcDbLine
 62
7
  6
CONTINUOUS
 10
162.2466380996
 20
93.2016557981
 11
162.0966380996
 21
93.2016557981
  0
LINE
  5
380
100
AcDbEntity
  8
0
100
AcDbLine
 62
7
  6
CONTINUOUS
 10
79.3249496664
 20
93.2516557115
 11
79.1249496664
 21
93.2516557115
  0
LINE
  5
381
100
AcDbEntity
  8
0
100
AcDbLine
 62
7
  6
CONTINUOUS
 10
77.3249487398
 20
93.2516556927
 11
77.1249487398
 21
93.2516556927
  0
LINE
  5
382
100
AcDbEntity
  8
0
100
AcDbLine
 62
7
  6
CONTINUOUS
 10
71.3249487832
 20
93.251655677
 11
71.1249487832
 21
93.251655677
  0
LINE
  5
383
100
AcDbEntity
  8
0
100
AcDbLine
 62
7
  6
CONTINUOUS
 10
81.3249503163
 20
93.2516558409
 11
81.1249503163
 21
93.2516558409
  0
LINE
  5
384
100
AcDbEntity
  8
0
100
AcDbLine
 62
7
  6
CONTINUOUS
 10
75.3249501661
 20
93.2516558562
 11
75.1249501661
 21
93.2516558562
  0
LINE
  5
385
100
AcDbEntity
  8
0
100
AcDbLine
 62
7
  6
CONTINUOUS
 10
73.3249498894
 20
93.2516557332
 11
73.1249498894
 21
93.2516557332
  0
LINE
  5
386
100
AcDbEntity
  8
0
100
AcDbLine
 62
7
  6
CONTINUOUS
 10
90.311103481
 20
93.5016558688
 11
87.5537441682
 21
93.5016558688
  0
LINE
  5
387
100
AcDbEntity
  8
0
100
AcDbLine
 62
7
  6
CONTINUOUS
 10
72.0466367346
 20
94.5016558688
 11
72.4032619715
 21
94.5016558688
  0
LINE
  5
388
100
AcDbEntity
  8
0
100
AcDbLine
 62
7
  6
CONTINUOUS
 10
74.0466378068
 20
94.5016558688
 11
74.403262322
 21
94.5016558688
  0
LINE
  5
389
100
AcDbEntity
  8
0
100
AcDbLine
 62
7
  6
CONTINUOUS
 10
76.04663801
 20
94.5016558688
 11
76.403260798
 21
94.5016558688
  0
LINE
  5
38A
100
AcDbEntity
  8
0
100
AcDbLine
 62
7
  6
CONTINUOUS
 10
78.0466366819
 20
94.5016558688
 11
78.4032617355
 21
94.5016558688
  0
LINE
  5
38B
100
AcDbEntity
  8
0
100
AcDbLine
 62
7
  6
CONTINUOUS
 10
80.0466375969
 20
94.5016558688
 11
80.4032624629
 21
94.5016558688
  0
LINE
  5
38C
100
AcDbEntity
  8
0
100
AcDbLine
 62
7
  6
CONTINUOUS
 10
160.9971924595
 20
94.5016558688
 11
161.3460827071
 21
94.5016558688
  0
LINE
  5
38D
100
AcDbEntity
  8
0
100
AcDbLine
 62
7
  6
CONTINUOUS
 10
162.9971934918
 20
94.5016558688
 11
163.3460817256
 21
94.5016558688
  0
LINE
  5
38E
100
AcDbEntity
  8
0
100
AcDbLine
 62
7
  6
CONTINUOUS
 10
164.9971924809
 20
94.5016558688
 11
165.3460814081
 21
94.5016558688
  0
LINE
  5
38F
100
AcDbEntity
  8
0
100
AcDbLine
 62
7
  6
CONTINUOUS
 10
166.9971923295
 20
94.5016558688
 11
167.3460826139
 21
94.5016558688
  0
LINE
  5
390
100
AcDbEntity
  8
0
100
AcDbLine
 62
7
  6
CONTINUOUS
 10
146.2578623967
 20
94.9158694312
 11
152.2128074385
 21
94.9158694312
  0
LINE
  5
391
100
AcDbEntity
  8
0
100
AcDbLine
 62
7
  6
CONTINUOUS
 10
146.2578623967
 20
95.5016558688
 11
153.746637387
 21
95.5016558688
  0
LINE
  5
392
100
AcDbEntity
  8
0
100
AcDbLine
 62
7
  6
CONTINUOUS
 10
115.096637387
 20
114.5061832342
 11
114.3633040974
 21
114.7402257595
  0
LINE
  5
393
100
AcDbEntity
  8
0
100
AcDbLine
 62
7
  6
CONTINUOUS
 10
159.4926959539
 20
94.2477144355
 11
159.4958966416
 21
94.2465422745
  0
LINE
  5
394
100
AcDbEntity
  8
0
100
AcDbLine
 62
7
  6
CONTINUOUS
 10
125.72997107
 20
123.3998003427
 11
124.813303704
 21
124.1019279186
  0
LINE
  5
395
100
AcDbEntity
  8
0
100
AcDbLine
 62
7
  6
CONTINUOUS
 10
125.17997107
 20
122.4636302415
 11
124.62997107
 21
122.9317152921
  0
LINE
  5
396
100
AcDbEntity
  8
0
100
AcDbLine
 62
7
  6
CONTINUOUS
 10
114.859137387
 20
132.8253322069
 11
114.4091374943
 21
133.2083108846
  0
LINE
  5
397
100
AcDbEntity
  8
0
100
AcDbLine
 62
7
  6
CONTINUOUS
 10
161.3510963936
 20
94.4973143378
 11
161.3460827071
 21
94.5016558688
  0
LINE
  5
398
100
AcDbEntity
  8
0
100
AcDbLine
 62
7
  6
CONTINUOUS
 10
163.3510953982
 20
94.4973143499
 11
163.3460817256
 21
94.5016558688
  0
LINE
  5
399
100
AcDbEntity
  8
0
100
AcDbLine
 62
7
  6
CONTINUOUS
 10
165.3510950966
 20
94.4973143362
 11
165.3460814081
 21
94.5016558688
  0
LINE
  5
39A
100
AcDbEntity
  8
0
100
AcDbLine
 62
7
  6
CONTINUOUS
 10
167.3460826139
 20
94.5016558688
 11
167.3510963017
 21
94.4973143367
  0
LINE
  5
39B
100
AcDbEntity
  8
0
100
AcDbLine
 62
7
  6
CONTINUOUS
 10
114.5674706855
 20
145.7827789534
 11
113.984137387
 21
146.3785236154
  0
LINE
  5
39C
100
AcDbEntity
  8
0
100
AcDbLine
 62
7
  6
CONTINUOUS
 10
127.2341378161
 20
129.8891619865
 11
127.009137387
 21
130.144481105
  0
LINE
  5
39D
100
AcDbEntity
  8
0
100
AcDbLine
 62
7
  6
CONTINUOUS
 10
127.346637387
 20
130.655119342
 11
127.684137387
 21
130.2721406642
  0
LINE
  5
39E
100
AcDbEntity
  8
0
100
AcDbLine
 62
7
  6
CONTINUOUS
 10
160.1018440632
 20
93.1971467437
 11
159.4958966416
 21
94.2465422745
  0
LINE
  5
39F
100
AcDbEntity
  8
0
100
AcDbLine
 62
7
  6
CONTINUOUS
 10
162.1018451582
 20
93.197146856
 11
161.3510963936
 21
94.4973143378
  0
LINE
  5
3A0
100
AcDbEntity
  8
0
100
AcDbLine
 62
7
  6
CONTINUOUS
 10
164.1018441483
 20
93.1971468918
 11
163.3510953982
 21
94.4973143499
  0
LINE
  5
3A1
100
AcDbEntity
  8
0
100
AcDbLine
 62
7
  6
CONTINUOUS
 10
112.346637387
 20
180.2016558688
 11
112.4469001178
 21
180.0016558688
  0
LINE
  5
3A2
100
AcDbEntity
  8
0
100
AcDbLine
 62
7
  6
CONTINUOUS
 10
158.432423657
 20
76.1261911726
 11
158.4324236794
 21
87.6225382305
  0
LINE
  5
3A3
100
AcDbEntity
  8
0
100
AcDbLine
 62
7
  6
CONTINUOUS
 10
158.5395306058
 20
25.70876265
 11
158.5395306058
 21
59.8704649632
  0
LINE
  5
3A4
100
AcDbEntity
  8
0
100
AcDbLine
 62
7
  6
CONTINUOUS
 10
158.5395306058
 20
84.1891916105
 11
158.5395306058
 21
93.2945490876
  0
LINE
  5
3A5
100
AcDbEntity
  8
0
100
AcDbLine
 62
7
  6
CONTINUOUS
 10
159.746637387
 20
70.25913352
 11
159.746637387
 21
34.7960823125
  0
LINE
  5
3A6
100
AcDbEntity
  8
0
100
AcDbLine
 62
7
  6
CONTINUOUS
 10
161.346637387
 20
192.3016558688
 11
161.346637387
 21
197.7016558688
  0
LINE
  5
3A7
100
AcDbEntity
  8
0
100
AcDbLine
 62
7
  6
CONTINUOUS
 10
162.146637387
 20
191.5016558688
 11
162.146637387
 21
198.5016558688
  0
LINE
  5
3A8
100
AcDbEntity
  8
0
100
AcDbLine
 62
7
  6
CONTINUOUS
 10
75.7749495505
 20
44.1794765026
 11
75.053261714
 21
43.6119883779
  0
LINE
  5
3A9
100
AcDbEntity
  8
0
100
AcDbLine
 62
7
  6
CONTINUOUS
 10
105.146637387
 20
102.0016558688
 11
100.8821712929
 21
102.0016558688
  0
LINE
  5
3AA
100
AcDbEntity
  8
0
100
AcDbLine
 62
7
  6
CONTINUOUS
 10
144.3721406259
 20
104.0016558688
 11
143.246637387
 21
104.0016558688
  0
LINE
  5
3AB
100
AcDbEntity
  8
0
100
AcDbLine
 62
7
  6
CONTINUOUS
 10
143.046637387
 20
104.0016558688
 11
133.546637387
 21
104.0016558688
  0
LINE
  5
3AC
100
AcDbEntity
  8
0
100
AcDbLine
 62
7
  6
CONTINUOUS
 10
123.713303704
 20
113.3359704439
 11
122.613303704
 21
113.5700129896
  0
LINE
  5
3AD
100
AcDbEntity
  8
0
100
AcDbLine
 62
7
  6
CONTINUOUS
 10
115.096637387
 20
113.3359704439
 11
114.1799706766
 21
113.5700129896
  0
LINE
  5
3AE
100
AcDbEntity
  8
0
100
AcDbLine
 62
7
  6
CONTINUOUS
 10
123.713303704
 20
114.5061832342
 11
122.796637387
 21
114.7402257595
  0
LINE
  5
3AF
100
AcDbEntity
  8
0
100
AcDbLine
 62
7
  6
CONTINUOUS
 10
117.1133042285
 20
120.123204333
 11
116.196637387
 21
120.3572468583
  0
LINE
  5
3B0
100
AcDbEntity
  8
0
100
AcDbLine
 62
7
  6
CONTINUOUS
 10
116.9299705455
 20
118.9529917065
 11
116.196637387
 21
119.1870342318
  0
LINE
  5
3B1
100
AcDbEntity
  8
0
100
AcDbLine
 62
7
  6
CONTINUOUS
 10
125.0966369578
 20
127.4636300143
 11
124.5341378161
 21
127.8466087256
  0
LINE
  5
3B2
100
AcDbEntity
  8
0
100
AcDbLine
 62
7
  6
CONTINUOUS
 10
127.346637387
 20
130.655119342
 11
126.7841369578
 21
131.0380980197
  0
LINE
  5
3B3
100
AcDbEntity
  8
0
100
AcDbLine
 62
7
  6
CONTINUOUS
 10
127.2341378161
 20
132.8253322069
 11
126.671637387
 21
133.2083108846
  0
LINE
  5
3B4
100
AcDbEntity
  8
0
100
AcDbLine
 62
7
  6
CONTINUOUS
 10
125.2091378161
 20
128.1019278888
 11
124.8716378161
 21
128.3572470073
  0
LINE
  5
3B5
100
AcDbEntity
  8
0
100
AcDbLine
 62
7
  6
CONTINUOUS
 10
127.009137387
 20
130.144481105
 11
126.671637387
 21
130.3998002235
  0
LINE
  5
3B6
100
AcDbEntity
  8
0
100
AcDbLine
 62
7
  6
CONTINUOUS
 10
126.8966378161
 20
132.3146939699
 11
126.5591378161
 21
132.5700130884
  0
LINE
  5
3B7
100
AcDbEntity
  8
0
100
AcDbLine
 62
7
  6
CONTINUOUS
 10
105.9637946745
 20
155.8844985813
 11
106.2294800994
 21
155.6188131563
  0
LINE
  5
3B8
100
AcDbEntity
  8
0
100
AcDbLine
 62
7
  6
CONTINUOUS
 10
168.9054835457
 20
94.3428097101
 11
170.246637387
 21
93.0016558688
  0
LINE
  5
3B9
100
AcDbEntity
  8
0
100
AcDbLine
 62
7
  6
CONTINUOUS
 10
105.596637387
 20
164.2516558688
 11
105.7294800994
 21
164.1188131563
  0
LINE
  5
3BA
100
AcDbEntity
  8
0
100
AcDbLine
 62
7
  6
CONTINUOUS
 10
119.0883041927
 20
151.2934173767
 11
118.5049705812
 21
151.8891619865
  0
LINE
  5
3BB
100
AcDbEntity
  8
0
100
AcDbLine
 62
7
  6
CONTINUOUS
 10
123.721637387
 20
151.1444812242
 11
123.4299705812
 21
151.4423535291
  0
LINE
  5
3BC
100
AcDbEntity
  8
0
100
AcDbLine
 62
7
  6
CONTINUOUS
 10
124.596637387
 20
151.1444812242
 11
124.159137387
 21
151.740225834
  0
LINE
  5
3BD
100
AcDbEntity
  8
0
100
AcDbLine
 62
7
  6
CONTINUOUS
 10
166.1018439298
 20
93.19714674
 11
165.3510950966
 21
94.4973143362
  0
LINE
  5
3BE
100
AcDbEntity
  8
0
100
AcDbLine
 62
7
  6
CONTINUOUS
 10
168.1018450762
 20
93.1971468384
 11
167.3510963017
 21
94.4973143367
  0
LINE
  5
3BF
100
AcDbEntity
  8
0
100
AcDbLine
 62
7
  6
CONTINUOUS
 10
170.246637387
 20
93.0016558688
 11
170.246637387
 21
26.0016558688
  0
LINE
  5
3C0
100
AcDbEntity
  8
0
100
AcDbLine
 62
7
  6
CONTINUOUS
 10
160.9921787705
 20
94.4973143357
 11
160.2414299398
 21
93.1971467437
  0
LINE
  5
3C1
100
AcDbEntity
  8
0
100
AcDbLine
 62
7
  6
CONTINUOUS
 10
162.992179806
 20
94.4973143385
 11
162.241431041
 21
93.1971468559
  0
LINE
  5
3C2
100
AcDbEntity
  8
0
100
AcDbLine
 62
7
  6
CONTINUOUS
 10
164.9921788063
 20
94.4973143482
 11
164.2414300572
 21
93.1971468919
  0
LINE
  5
3C3
100
AcDbEntity
  8
0
100
AcDbLine
 62
7
  6
CONTINUOUS
 10
166.9921786412
 20
94.4973143363
 11
166.2414298079
 21
93.19714674
  0
LINE
  5
3C4
100
AcDbEntity
  8
0
100
AcDbLine
 62
7
  6
CONTINUOUS
 10
168.9022907989
 20
94.3416415386
 11
168.2414309564
 21
93.1971468383
  0
LINE
  5
3C5
100
AcDbEntity
  8
0
100
AcDbLine
 62
7
  6
CONTINUOUS
 10
159.4926951583
 20
94.2477136401
 11
158.5395306058
 21
93.2945490876
  0
LINE
  5
3C6
100
AcDbEntity
  8
0
100
AcDbLine
 62
7
  6
CONTINUOUS
 10
116.196637387
 20
113.3359704439
 11
115.096637387
 21
113.3359704439
  0
LINE
  5
3C7
100
AcDbEntity
  8
0
100
AcDbLine
 62
7
  6
CONTINUOUS
 10
116.196637387
 20
114.5061832342
 11
115.096637387
 21
114.5061832342
  0
LINE
  5
3C8
100
AcDbEntity
  8
0
100
AcDbLine
 62
7
  6
CONTINUOUS
 10
113.446637387
 20
116.1444810752
 11
112.346637387
 21
116.1444810752
  0
LINE
  5
3C9
100
AcDbEntity
  8
0
100
AcDbLine
 62
7
  6
CONTINUOUS
 10
124.813303704
 20
124.1019279186
 11
123.713303704
 21
124.3359704439
  0
LINE
  5
3CA
100
AcDbEntity
  8
0
100
AcDbLine
 62
7
  6
CONTINUOUS
 10
124.62997107
 20
122.9317152921
 11
123.713303704
 21
123.1657578174
  0
LINE
  5
3CB
100
AcDbEntity
  8
0
100
AcDbLine
 62
7
  6
CONTINUOUS
 10
125.5466378161
 20
127.9742683295
 11
125.2091378161
 21
128.1019278888
  0
LINE
  5
3CC
100
AcDbEntity
  8
0
100
AcDbLine
 62
7
  6
CONTINUOUS
 10
114.2966372797
 20
132.5700130884
 11
113.9591372797
 21
132.6976726476
  0
LINE
  5
3CD
100
AcDbEntity
  8
0
100
AcDbLine
 62
7
  6
CONTINUOUS
 10
126.671637387
 20
130.3998002235
 11
126.334137387
 21
130.5274597827
  0
LINE
  5
3CE
100
AcDbEntity
  8
0
100
AcDbLine
 62
7
  6
CONTINUOUS
 10
115.296637387
 20
146.3785236154
 11
114.859137387
 21
146.6763960246
  0
LINE
  5
3CF
100
AcDbEntity
  8
0
100
AcDbLine
 62
7
  6
CONTINUOUS
 10
118.2133041927
 20
150.9955450717
 11
117.7758041927
 21
151.2934173767
  0
LINE
  5
3D0
100
AcDbEntity
  8
0
100
AcDbLine
 62
7
  6
CONTINUOUS
 10
108.354224587
 20
168.6239534545
 11
108.346637387
 21
168.6318572933
  0
LINE
  5
3D1
100
AcDbEntity
  8
0
100
AcDbLine
 62
7
  6
CONTINUOUS
 10
122.846637387
 20
166.0016558688
 11
114.4556410752
 21
176.0016558688
  0
LINE
  5
3D2
100
AcDbEntity
  8
0
100
AcDbLine
 62
7
  6
CONTINUOUS
 10
124.62997107
 20
114.7402257595
 11
123.713303704
 21
114.5061832342
  0
LINE
  5
3D3
100
AcDbEntity
  8
0
100
AcDbLine
 62
7
  6
CONTINUOUS
 10
117.1133042285
 20
113.5700129896
 11
116.196637387
 21
113.3359704439
  0
LINE
  5
3D4
100
AcDbEntity
  8
0
100
AcDbLine
 62
7
  6
CONTINUOUS
 10
124.813303704
 20
113.5700129896
 11
123.713303704
 21
113.3359704439
  0
LINE
  5
3D5
100
AcDbEntity
  8
0
100
AcDbLine
 62
7
  6
CONTINUOUS
 10
113.6299706766
 20
118.2508641306
 11
112.346637387
 21
118.2508641306
  0
LINE
  5
3D6
100
AcDbEntity
  8
0
100
AcDbLine
 62
7
  6
CONTINUOUS
 10
116.196637387
 20
119.1870342318
 11
115.096637387
 21
119.1870342318
  0
LINE
  5
3D7
100
AcDbEntity
  8
0
100
AcDbLine
 62
7
  6
CONTINUOUS
 10
116.196637387
 20
120.3572468583
 11
115.096637387
 21
120.3572468583
  0
LINE
  5
3D8
100
AcDbEntity
  8
0
100
AcDbLine
 62
7
  6
CONTINUOUS
 10
118.5799705455
 20
123.1657578174
 11
113.2633040318
 21
123.1657578174
  0
LINE
  5
3D9
100
AcDbEntity
  8
0
100
AcDbLine
 62
7
  6
CONTINUOUS
 10
118.5799705455
 20
124.3359704439
 11
112.346637387
 21
124.3359704439
  0
LINE
  5
3DA
100
AcDbEntity
  8
0
100
AcDbLine
 62
7
  6
CONTINUOUS
 10
125.659137387
 20
127.3359704439
 11
125.0966369578
 21
127.4636300143
  0
LINE
  5
3DB
100
AcDbEntity
  8
0
100
AcDbLine
 62
7
  6
CONTINUOUS
 10
114.4091374943
 20
133.2083108846
 11
113.846637387
 21
133.3359704439
  0
LINE
  5
3DC
100
AcDbEntity
  8
0
100
AcDbLine
 62
7
  6
CONTINUOUS
 10
126.2216378161
 20
131.165757579
 11
126.7841369578
 21
131.0380980197
  0
LINE
  5
3DD
100
AcDbEntity
  8
0
100
AcDbLine
 62
7
  6
CONTINUOUS
 10
126.671637387
 20
133.2083108846
 11
126.1091369578
 21
133.3359704439
  0
LINE
  5
3DE
100
AcDbEntity
  8
0
100
AcDbLine
 62
7
  6
CONTINUOUS
 10
126.5591378161
 20
132.5700130884
 11
126.2216378161
 21
132.6976726476
  0
LINE
  5
3DF
100
AcDbEntity
  8
0
100
AcDbLine
 62
7
  6
CONTINUOUS
 10
115.1508040884
 20
145.4849066094
 11
114.5674706855
 21
145.7827789534
  0
LINE
  5
3E0
100
AcDbEntity
  8
0
100
AcDbLine
 62
7
  6
CONTINUOUS
 10
118.5049705812
 20
151.8891619865
 11
117.921637387
 21
152.1870342914
  0
LINE
  5
3E1
100
AcDbEntity
  8
0
100
AcDbLine
 62
7
  6
CONTINUOUS
 10
101.096637387
 20
158.7573183015
 11
106.6217500627
 21
155.5673930109
  0
LINE
  5
3E2
100
AcDbEntity
  8
0
100
AcDbLine
 62
7
  6
CONTINUOUS
 10
101.346637387
 20
159.1903310034
 11
106.3082325766
 21
156.3257526851
  0
LINE
  5
3E3
100
AcDbEntity
  8
0
100
AcDbLine
 62
7
  6
CONTINUOUS
 10
124.159137387
 20
151.740225834
 11
123.5758041927
 21
152.1870342914
  0
LINE
  5
3E4
100
AcDbEntity
  8
0
100
AcDbLine
 62
7
  6
CONTINUOUS
 10
115.096637387
 20
120.3572468583
 11
114.1799706766
 21
120.123204333
  0
LINE
  5
3E5
100
AcDbEntity
  8
0
100
AcDbLine
 62
7
  6
CONTINUOUS
 10
123.713303704
 20
123.1657578174
 11
122.796637387
 21
122.9317152921
  0
LINE
  5
3E6
100
AcDbEntity
  8
0
100
AcDbLine
 62
7
  6
CONTINUOUS
 10
123.713303704
 20
124.3359704439
 11
122.613303704
 21
124.1019279186
  0
LINE
  5
3E7
100
AcDbEntity
  8
0
100
AcDbLine
 62
7
  6
CONTINUOUS
 10
126.2216378161
 20
127.3359704439
 11
125.659137387
 21
127.3359704439
  0
LINE
  5
3E8
100
AcDbEntity
  8
0
100
AcDbLine
 62
7
  6
CONTINUOUS
 10
122.959137387
 20
127.3359704439
 11
122.284137387
 21
127.3359704439
  0
LINE
  5
3E9
100
AcDbEntity
  8
0
100
AcDbLine
 62
7
  6
CONTINUOUS
 10
120.7091376016
 20
127.3359704439
 11
119.6966376016
 21
127.3359704439
  0
LINE
  5
3EA
100
AcDbEntity
  8
0
100
AcDbLine
 62
7
  6
CONTINUOUS
 10
116.884137387
 20
127.3359704439
 11
116.209137387
 21
127.3359704439
  0
LINE
  5
3EB
100
AcDbEntity
  8
0
100
AcDbLine
 62
7
  6
CONTINUOUS
 10
111.821637387
 20
127.3359704439
 11
111.146637387
 21
127.3359704439
  0
LINE
  5
3EC
100
AcDbEntity
  8
0
100
AcDbLine
 62
7
  6
CONTINUOUS
 10
126.334137387
 20
127.9742683295
 11
125.5466378161
 21
127.9742683295
  0
LINE
  5
3ED
100
AcDbEntity
  8
0
100
AcDbLine
 62
7
  6
CONTINUOUS
 10
113.846637387
 20
130.0168215457
 11
111.821637387
 21
130.0168215457
  0
LINE
  5
3EE
100
AcDbEntity
  8
0
100
AcDbLine
 62
7
  6
CONTINUOUS
 10
126.334137387
 20
130.5274597827
 11
125.5466378161
 21
130.5274597827
  0
LINE
  5
3EF
100
AcDbEntity
  8
0
100
AcDbLine
 62
7
  6
CONTINUOUS
 10
113.9591372797
 20
130.7827789012
 11
111.821637387
 21
130.7827789012
  0
LINE
  5
3F0
100
AcDbEntity
  8
0
100
AcDbLine
 62
7
  6
CONTINUOUS
 10
126.2216378161
 20
131.165757579
 11
125.659137387
 21
131.165757579
  0
LINE
  5
3F1
100
AcDbEntity
  8
0
100
AcDbLine
 62
7
  6
CONTINUOUS
 10
127.684137387
 20
131.9317152921
 11
127.1216369578
 21
131.9317152921
  0
LINE
  5
3F2
100
AcDbEntity
  8
0
100
AcDbLine
 62
7
  6
CONTINUOUS
 10
126.2216378161
 20
132.6976726476
 11
125.5466378161
 21
132.6976726476
  0
LINE
  5
3F3
100
AcDbEntity
  8
0
100
AcDbLine
 62
7
  6
CONTINUOUS
 10
113.9591372797
 20
132.6976726476
 11
111.821637387
 21
132.6976726476
  0
LINE
  5
3F4
100
AcDbEntity
  8
0
100
AcDbLine
 62
7
  6
CONTINUOUS
 10
126.1091369578
 20
133.3359704439
 11
125.659137387
 21
133.3359704439
  0
LINE
  5
3F5
100
AcDbEntity
  8
0
100
AcDbLine
 62
7
  6
CONTINUOUS
 10
122.959137387
 20
133.3359704439
 11
122.284137387
 21
133.3359704439
  0
LINE
  5
3F6
100
AcDbEntity
  8
0
100
AcDbLine
 62
7
  6
CONTINUOUS
 10
120.7091376016
 20
133.3359704439
 11
120.0341376016
 21
133.3359704439
  0
LINE
  5
3F7
100
AcDbEntity
  8
0
100
AcDbLine
 62
7
  6
CONTINUOUS
 10
117.221637387
 20
133.3359704439
 11
116.209137387
 21
133.3359704439
  0
LINE
  5
3F8
100
AcDbEntity
  8
0
100
AcDbLine
 62
7
  6
CONTINUOUS
 10
113.846637387
 20
133.3359704439
 11
111.146637387
 21
133.3359704439
  0
LINE
  5
3F9
100
AcDbEntity
  8
0
100
AcDbLine
 62
7
  6
CONTINUOUS
 10
115.8799707898
 20
146.2295874629
 11
115.296637387
 21
146.3785236154
  0
LINE
  5
3FA
100
AcDbEntity
  8
0
100
AcDbLine
 62
7
  6
CONTINUOUS
 10
158.8619812857
 20
25.3907660375
 11
159.1018436821
 21
25.8061649833
  0
LINE
  5
3FB
100
AcDbEntity
  8
0
100
AcDbLine
 62
7
  6
CONTINUOUS
 10
160.3510958831
 20
24.5059974028
 11
161.1018446869
 21
25.8061649498
  0
LINE
  5
3FC
100
AcDbEntity
  8
0
100
AcDbLine
 62
7
  6
CONTINUOUS
 10
126.7841369578
 20
127.4636300143
 11
126.2216378161
 21
127.3359704439
  0
LINE
  5
3FD
100
AcDbEntity
  8
0
100
AcDbLine
 62
7
  6
CONTINUOUS
 10
125.659137387
 20
131.165757579
 11
125.0966369578
 21
131.0380980197
  0
LINE
  5
3FE
100
AcDbEntity
  8
0
100
AcDbLine
 62
7
  6
CONTINUOUS
 10
114.4091374943
 20
130.144481105
 11
113.846637387
 21
130.0168215457
  0
LINE
  5
3FF
100
AcDbEntity
  8
0
100
AcDbLine
 62
7
  6
CONTINUOUS
 10
125.659137387
 20
133.3359704439
 11
125.0966369578
 21
133.2083108846
  0
LINE
  5
400
100
AcDbEntity
  8
0
100
AcDbLine
 62
7
  6
CONTINUOUS
 10
115.8799707898
 20
145.3359704439
 11
115.1508040884
 21
145.4849066094
  0
LINE
  5
401
100
AcDbEntity
  8
0
100
AcDbLine
 62
7
  6
CONTINUOUS
 10
117.921637387
 20
152.1870342914
 11
117.1924705812
 21
152.3359704439
  0
LINE
  5
402
100
AcDbEntity
  8
0
100
AcDbLine
 62
7
  6
CONTINUOUS
 10
123.5758041927
 20
152.1870342914
 11
122.846637387
 21
152.3359704439
  0
LINE
  5
403
100
AcDbEntity
  8
0
100
AcDbLine
 62
7
  6
CONTINUOUS
 10
117.7758041927
 20
151.2934173767
 11
117.1924705812
 21
151.4423535291
  0
LINE
  5
404
100
AcDbEntity
  8
0
100
AcDbLine
 62
7
  6
CONTINUOUS
 10
123.4299705812
 20
151.4423535291
 11
122.9924705812
 21
151.5912896816
  0
LINE
  5
405
100
AcDbEntity
  8
0
100
AcDbLine
 62
7
  6
CONTINUOUS
 10
108.354224587
 20
168.6239534545
 11
108.5889903068
 21
168.5016558688
  0
LINE
  5
406
100
AcDbEntity
  8
0
100
AcDbLine
 62
7
  6
CONTINUOUS
 10
108.6563528996
 20
169.8035705212
 11
109.1448943546
 21
169.5490573984
  0
LINE
  5
407
100
AcDbEntity
  8
0
100
AcDbLine
 62
7
  6
CONTINUOUS
 10
126.004033001
 20
180.2016558688
 11
126.2442729293
 21
180.0016558688
  0
LINE
  5
408
100
AcDbEntity
  8
0
100
AcDbLine
 62
7
  6
CONTINUOUS
 10
162.3510963511
 20
24.5059973932
 11
163.1018450826
 21
25.8061648201
  0
LINE
  5
409
100
AcDbEntity
  8
0
100
AcDbLine
 62
7
  6
CONTINUOUS
 10
164.3510948524
 20
24.5059973964
 11
165.101843671
 21
25.8061649684
  0
LINE
  5
40A
100
AcDbEntity
  8
0
100
AcDbLine
 62
7
  6
CONTINUOUS
 10
166.3510957174
 20
24.505997403
 11
167.1018445298
 21
25.8061649643
  0
LINE
  5
40B
100
AcDbEntity
  8
0
100
AcDbLine
 62
7
  6
CONTINUOUS
 10
168.3510964362
 20
24.5059973952
 11
169.1018451744
 21
25.8061648332
  0
LINE
  5
40C
100
AcDbEntity
  8
0
100
AcDbLine
 62
7
  6
CONTINUOUS
 10
71.4557414837
 20
24.5925517725
 11
71.4589271224
 21
24.5937185704
  0
LINE
  5
40D
100
AcDbEntity
  8
0
100
AcDbLine
 62
7
  6
CONTINUOUS
 10
124.8883041927
 20
145.3359704439
 11
123.8674705812
 21
145.3359704439
  0
LINE
  5
40E
100
AcDbEntity
  8
0
100
AcDbLine
 62
7
  6
CONTINUOUS
 10
120.221637387
 20
145.3359704439
 11
119.346637387
 21
145.3359704439
  0
LINE
  5
40F
100
AcDbEntity
  8
0
100
AcDbLine
 62
7
  6
CONTINUOUS
 10
117.1924705812
 20
145.3359704439
 11
115.8799707898
 21
145.3359704439
  0
LINE
  5
410
100
AcDbEntity
  8
0
100
AcDbLine
 62
7
  6
CONTINUOUS
 10
117.1924705812
 20
146.2295874629
 11
115.8799707898
 21
146.2295874629
  0
LINE
  5
411
100
AcDbEntity
  8
0
100
AcDbLine
 62
7
  6
CONTINUOUS
 10
119.234137387
 20
147.123204482
 11
118.359137387
 21
147.123204482
  0
LINE
  5
412
100
AcDbEntity
  8
0
100
AcDbLine
 62
7
  6
CONTINUOUS
 10
122.7008039841
 20
148.4636300627
 11
120.221637387
 21
148.4636300627
  0
LINE
  5
413
100
AcDbEntity
  8
0
100
AcDbLine
 62
7
  6
CONTINUOUS
 10
122.9924705812
 20
149.3572469775
 11
120.221637387
 21
149.3572469775
  0
LINE
  5
414
100
AcDbEntity
  8
0
100
AcDbLine
 62
7
  6
CONTINUOUS
 10
119.234137387
 20
150.5487361971
 11
118.359137387
 21
150.5487361971
  0
LINE
  5
415
100
AcDbEntity
  8
0
100
AcDbLine
 62
7
  6
CONTINUOUS
 10
117.1924705812
 20
151.4423535291
 11
115.8799707898
 21
151.4423535291
  0
LINE
  5
416
100
AcDbEntity
  8
0
100
AcDbLine
 62
7
  6
CONTINUOUS
 10
122.9924705812
 20
151.5912896816
 11
120.221637387
 21
151.5912896816
  0
LINE
  5
417
100
AcDbEntity
  8
0
100
AcDbLine
 62
7
  6
CONTINUOUS
 10
112.346637387
 20
180.2016558688
 11
112.7307812164
 21
180.0016558688
  0
LINE
  5
418
100
AcDbEntity
  8
0
100
AcDbLine
 62
7
  6
CONTINUOUS
 10
125.1201400789
 20
181.9097744198
 11
126.046637387
 21
181.3748609496
  0
LINE
  5
419
100
AcDbEntity
  8
0
100
AcDbLine
 62
7
  6
CONTINUOUS
 10
143.246637387
 20
15.2016558688
 11
143.046637387
 21
15.0016558688
  0
LINE
  5
41A
100
AcDbEntity
  8
0
100
AcDbLine
 62
7
  6
CONTINUOUS
 10
117.7758041927
 20
146.3785236154
 11
117.1924705812
 21
146.2295874629
  0
LINE
  5
41B
100
AcDbEntity
  8
0
100
AcDbLine
 62
7
  6
CONTINUOUS
 10
117.921637387
 20
145.4849066094
 11
117.1924705812
 21
145.3359704439
  0
LINE
  5
41C
100
AcDbEntity
  8
0
100
AcDbLine
 62
7
  6
CONTINUOUS
 10
122.846637387
 20
152.3359704439
 11
119.346637387
 21
152.3359704439
  0
LINE
  5
41D
100
AcDbEntity
  8
0
100
AcDbLine
 62
7
  6
CONTINUOUS
 10
117.1924705812
 20
152.3359704439
 11
115.8799707898
 21
152.3359704439
  0
LINE
  5
41E
100
AcDbEntity
  8
0
100
AcDbLine
 62
7
  6
CONTINUOUS
 10
132.346637387
 20
155.3359704439
 11
106.346637387
 21
155.3359704439
  0
LINE
  5
41F
100
AcDbEntity
  8
0
100
AcDbLine
 62
7
  6
CONTINUOUS
 10
106.5326877582
 20
155.6188131563
 11
106.2294800994
 21
155.6188131563
  0
LINE
  5
420
100
AcDbEntity
  8
0
100
AcDbLine
 62
7
  6
CONTINUOUS
 10
106.629476866
 20
155.6188131563
 11
132.4637946745
 21
155.6188131563
  0
LINE
  5
421
100
AcDbEntity
  8
0
100
AcDbLine
 62
7
  6
CONTINUOUS
 10
106.0725071034
 20
155.8844985813
 11
105.9637946745
 21
155.8844985813
  0
LINE
  5
422
100
AcDbEntity
  8
0
100
AcDbLine
 62
7
  6
CONTINUOUS
 10
106.3943958876
 20
155.8844985813
 11
132.7294800994
 21
155.8844985813
  0
LINE
  5
423
100
AcDbEntity
  8
0
100
AcDbLine
 62
7
  6
CONTINUOUS
 10
106.3028912284
 20
156.1673412938
 11
132.846637387
 21
156.1673412938
  0
LINE
  5
424
100
AcDbEntity
  8
0
100
AcDbLine
 62
7
  6
CONTINUOUS
 10
100.346637387
 20
159.0016558688
 11
100.8844110409
 21
159.0016558688
  0
LINE
  5
425
100
AcDbEntity
  8
0
100
AcDbLine
 62
7
  6
CONTINUOUS
 10
122.846637387
 20
159.0016558688
 11
130.346637387
 21
159.0016558688
  0
LINE
  5
426
100
AcDbEntity
  8
0
100
AcDbLine
 62
7
  6
CONTINUOUS
 10
125.1201400789
 20
185.2550738814
 11
124.346637387
 21
185.7016558688
  0
LINE
  5
427
100
AcDbEntity
  8
0
100
AcDbLine
 62
7
  6
CONTINUOUS
 10
169.5394581854
 20
25.2944766672
 11
170.246637387
 21
26.0016558688
  0
LINE
  5
428
100
AcDbEntity
  8
0
100
AcDbLine
 62
7
  6
CONTINUOUS
 10
160.3460822389
 20
24.5016558688
 11
160.3510958831
 21
24.5059974028
  0
LINE
  5
429
100
AcDbEntity
  8
0
100
AcDbLine
 62
7
  6
CONTINUOUS
 10
115.8799707898
 20
151.4423535291
 11
115.296637387
 21
151.2934173767
  0
LINE
  5
42A
100
AcDbEntity
  8
0
100
AcDbLine
 62
7
  6
CONTINUOUS
 10
115.8799707898
 20
152.3359704439
 11
115.1508040884
 21
152.1870342914
  0
LINE
  5
42B
100
AcDbEntity
  8
0
100
AcDbLine
 62
7
  6
CONTINUOUS
 10
106.3082325766
 20
162.4016558688
 11
100.846637387
 21
162.4016558688
  0
LINE
  5
42C
100
AcDbEntity
  8
0
100
AcDbLine
 62
7
  6
CONTINUOUS
 10
106.1841401934
 20
162.9016558688
 11
101.346637387
 21
162.9016558688
  0
LINE
  5
42D
100
AcDbEntity
  8
0
100
AcDbLine
 62
7
  6
CONTINUOUS
 10
132.846637387
 20
163.8359704439
 11
132.1061839954
 21
163.8359704439
  0
LINE
  5
42E
100
AcDbEntity
  8
0
100
AcDbLine
 62
7
  6
CONTINUOUS
 10
122.846637387
 20
163.8359704439
 11
105.846637387
 21
163.8359704439
  0
LINE
  5
42F
100
AcDbEntity
  8
0
100
AcDbLine
 62
7
  6
CONTINUOUS
 10
122.846637387
 20
164.1188131292
 11
105.7294800994
 21
164.1188131563
  0
LINE
  5
430
100
AcDbEntity
  8
0
100
AcDbLine
 62
7
  6
CONTINUOUS
 10
132.9637946745
 20
164.1188131563
 11
132.209130091
 21
164.118812517
  0
LINE
  5
431
100
AcDbEntity
  8
0
100
AcDbLine
 62
7
  6
CONTINUOUS
 10
105.596637387
 20
164.2516558688
 11
122.846637387
 21
164.2516558688
  0
LINE
  5
432
100
AcDbEntity
  8
0
100
AcDbLine
 62
7
  6
CONTINUOUS
 10
132.2574811169
 20
164.2516558688
 11
133.096637387
 21
164.2516558688
  0
LINE
  5
433
100
AcDbEntity
  8
0
100
AcDbLine
 62
7
  6
CONTINUOUS
 10
100.346637387
 20
166.0016558688
 11
104.346637387
 21
166.0016558688
  0
LINE
  5
434
100
AcDbEntity
  8
0
100
AcDbLine
 62
7
  6
CONTINUOUS
 10
121.0006181984
 20
168.2016558688
 11
105.596637387
 21
168.2016558688
  0
LINE
  5
435
100
AcDbEntity
  8
0
100
AcDbLine
 62
7
  6
CONTINUOUS
 10
120.748888309
 20
168.5016558688
 11
105.896637387
 21
168.5016558688
  0
LINE
  5
436
100
AcDbEntity
  8
0
100
AcDbLine
 62
7
  6
CONTINUOUS
 10
112.6892417729
 20
180.2016558688
 11
113.6601666855
 21
180.0016558688
  0
LINE
  5
437
100
AcDbEntity
  8
0
100
AcDbLine
 62
7
  6
CONTINUOUS
 10
125.0097563476
 20
180.2016558688
 11
125.8508636755
 21
180.0016558688
  0
LINE
  5
438
100
AcDbEntity
  8
0
100
AcDbLine
 62
7
  6
CONTINUOUS
 10
168.3460828308
 20
24.5016558688
 11
168.3510964362
 21
24.5059973952
  0
LINE
  5
439
100
AcDbEntity
  8
0
100
AcDbLine
 62
7
  6
CONTINUOUS
 10
109.346637387
 20
170.5016558688
 11
119.0706890467
 21
170.5016558688
  0
LINE
  5
43A
100
AcDbEntity
  8
0
100
AcDbLine
 62
7
  6
CONTINUOUS
 10
110.346637387
 20
173.4243055996
 11
111.0717201693
 21
173.4243055996
  0
LINE
  5
43B
100
AcDbEntity
  8
0
100
AcDbLine
 62
7
  6
CONTINUOUS
 10
110.346637387
 20
174.0016558688
 11
116.1338403376
 21
174.0016558688
  0
LINE
  5
43C
100
AcDbEntity
  8
0
100
AcDbLine
 62
7
  6
CONTINUOUS
 10
112.446637387
 20
175.6016558688
 11
114.7912809277
 21
175.6016558688
  0
LINE
  5
43D
100
AcDbEntity
  8
0
100
AcDbLine
 62
7
  6
CONTINUOUS
 10
100.6202672071
 20
176.0016558688
 11
114.4556410752
 21
176.0016558688
  0
LINE
  5
43E
100
AcDbEntity
  8
0
100
AcDbLine
 62
7
  6
CONTINUOUS
 10
114.7292708953
 20
176.0016558688
 11
133.2278352335
 21
176.0016558688
  0
LINE
  5
43F
100
AcDbEntity
  8
0
100
AcDbLine
 62
7
  6
CONTINUOUS
 10
136.1145865794
 20
176.0016558688
 11
137.846637387
 21
176.0016558688
  0
LINE
  5
440
100
AcDbEntity
  8
0
100
AcDbLine
 62
7
  6
CONTINUOUS
 10
117.1835184263
 20
180.2016558688
 11
119.1660164436
 21
180.0016558688
  0
LINE
  5
441
100
AcDbEntity
  8
0
100
AcDbLine
 62
7
  6
CONTINUOUS
 10
119.346637387
 20
180.2016558688
 11
121.3063432654
 21
180.0016558688
  0
LINE
  5
442
100
AcDbEntity
  8
0
100
AcDbLine
 62
7
  6
CONTINUOUS
 10
115.2321406209
 20
180.2016558688
 11
117.0433700583
 21
180.0016558688
  0
LINE
  5
443
100
AcDbEntity
  8
0
100
AcDbLine
 62
7
  6
CONTINUOUS
 10
121.5097563476
 20
180.2016558688
 11
123.2548404218
 21
180.0016558688
  0
LINE
  5
444
100
AcDbEntity
  8
0
100
AcDbLine
 62
7
  6
CONTINUOUS
 10
113.6835184263
 20
180.2016558688
 11
115.1461835268
 21
180.0016558688
  0
LINE
  5
445
100
AcDbEntity
  8
0
100
AcDbLine
 62
7
  6
CONTINUOUS
 10
123.461134153
 20
180.2016558688
 11
124.820775435
 21
180.0016558688
  0
LINE
  5
446
100
AcDbEntity
  8
0
100
AcDbLine
 62
7
  6
CONTINUOUS
 10
104.346637387
 20
180.0016558688
 11
137.846637387
 21
180.0016558688
  0
LINE
  5
447
100
AcDbEntity
  8
0
100
AcDbLine
 62
7
  6
CONTINUOUS
 10
126.346637387
 20
180.2016558688
 11
112.346637387
 21
180.2016558688
  0
LINE
  5
448
100
AcDbEntity
  8
0
100
AcDbLine
 62
7
  6
CONTINUOUS
 10
112.346637387
 20
180.8552457073
 11
126.346637387
 21
180.8552457073
  0
LINE
  5
449
100
AcDbEntity
  8
0
100
AcDbLine
 62
7
  6
CONTINUOUS
 10
112.646637387
 20
181.3748609496
 11
126.046637387
 21
181.3748609496
  0
LINE
  5
44A
100
AcDbEntity
  8
0
100
AcDbLine
 62
7
  6
CONTINUOUS
 10
114.3466962464
 20
185.7016558688
 11
124.3465785276
 21
185.7016558688
  0
LINE
  5
44B
100
AcDbEntity
  8
0
100
AcDbLine
 62
7
  6
CONTINUOUS
 10
248.346637387
 20
191.5016558688
 11
248.346637387
 21
198.5016558688
  0
LINE
  5
44C
100
AcDbEntity
  8
0
100
AcDbLine
 62
7
  6
CONTINUOUS
 10
162.146637387
 20
191.5016558688
 11
258.146637387
 21
191.5016558688
  0
LINE
  5
44D
100
AcDbEntity
  8
0
100
AcDbLine
 62
7
  6
CONTINUOUS
 10
157.7461323236
 20
193.0016558688
 11
161.346637387
 21
193.0016558688
  0
LINE
  5
44E
100
AcDbEntity
  8
0
100
AcDbLine
 62
7
  6
CONTINUOUS
 10
161.346637387
 20
194.7016558688
 11
261.346637387
 21
194.7016558688
  0
LINE
  5
44F
100
AcDbEntity
  8
0
100
AcDbLine
 62
7
  6
CONTINUOUS
 10
161.346637387
 20
195.3016558688
 11
261.346637387
 21
195.3016558688
  0
LINE
  5
450
100
AcDbEntity
  8
0
100
AcDbLine
 62
7
  6
CONTINUOUS
 10
261.346637387
 20
194.7016558688
 11
261.346637387
 21
195.3016558688
  0
LINE
  5
451
100
AcDbEntity
  8
0
100
AcDbLine
 62
7
  6
CONTINUOUS
 10
161.346637387
 20
197.0016558688
 11
157.3319187612
 21
197.0016558688
  0
LINE
  5
452
100
AcDbEntity
  8
0
100
AcDbLine
 62
7
  6
CONTINUOUS
 10
162.146637387
 20
198.5016558688
 11
258.146637387
 21
198.5016558688
  0
ARC
  5
453
100
AcDbEntity
  8
0
100
AcDbCircle
 62
7
  6
CONTINUOUS
 10
-270.7063214068
 20
389.9829521308
 40
492.5302915542
100
AcDbArc
 50
324.2387637811
 51
324.4758122923
  0
ARC
  5
454
100
AcDbEntity
  8
0
100
AcDbCircle
 62
7
  6
CONTINUOUS
 10
-251.128915974
 20
403.0508875292
 40
486.6578549128
100
AcDbArc
 50
321.6828005259
 51
321.9297699685
  0
ARC
  5
455
100
AcDbEntity
  8
0
100
AcDbCircle
 62
7
  6
CONTINUOUS
 10
100.8821712929
 20
19.5016558688
 40
2.5
100
AcDbArc
 50
225.0
 51
270.0
  0
ARC
  5
456
100
AcDbEntity
  8
0
100
AcDbCircle
 62
7
  6
CONTINUOUS
 10
90.311103481
 20
23.0016558688
 40
2.5
100
AcDbArc
 50
45.0
 51
90.0
  0
ARC
  5
457
100
AcDbEntity
  8
0
100
AcDbCircle
 62
7
  6
CONTINUOUS
 10
81.0300566332
 20
25.2016558688
 40
1.0
100
AcDbArc
 50
315.5729959992
 51
330.0000000002
  0
ARC
  5
458
100
AcDbEntity
  8
0
100
AcDbCircle
 62
7
  6
CONTINUOUS
 10
87.5537441682
 20
26.0016558688
 40
0.5
100
AcDbArc
 50
224.9999999993
 51
270.0
  0
ARC
  5
459
100
AcDbEntity
  8
0
100
AcDbCircle
 62
7
  6
CONTINUOUS
 10
82.9353125216
 20
25.5016558688
 40
0.5
100
AcDbArc
 50
90.0
 51
150.0000000002
  0
ARC
  5
45A
100
AcDbEntity
  8
0
100
AcDbCircle
 62
7
  6
CONTINUOUS
 10
86.6395306058
 20
25.5016558688
 40
0.5
100
AcDbArc
 50
44.9999999993
 51
90.0
  0
ARC
  5
45B
100
AcDbEntity
  8
0
100
AcDbCircle
 62
7
  6
CONTINUOUS
 10
100.8821712929
 20
99.5016558688
 40
2.5
100
AcDbArc
 50
90.0
 51
135.0
  0
ARC
  5
45C
100
AcDbEntity
  8
0
100
AcDbCircle
 62
7
  6
CONTINUOUS
 10
90.311103481
 20
96.0016558688
 40
2.5
100
AcDbArc
 50
270.0
 51
315.0
  0
ARC
  5
45D
100
AcDbEntity
  8
0
100
AcDbCircle
 62
7
  6
CONTINUOUS
 10
105.1466393667
 20
103.201655111
 40
1.1999998347
100
AcDbArc
 50
269.9999069671
 51
0.0000393044
  0
ARC
  5
45E
100
AcDbEntity
  8
0
100
AcDbCircle
 62
7
  6
CONTINUOUS
 10
87.5537441682
 20
93.0016558688
 40
0.5
100
AcDbArc
 50
90.0
 51
135.0000000007
  0
ARC
  5
45F
100
AcDbEntity
  8
0
100
AcDbCircle
 62
7
  6
CONTINUOUS
 10
82.9353125216
 20
93.5016558688
 40
0.5
100
AcDbArc
 50
209.9999999997
 51
270.0
  0
ARC
  5
460
100
AcDbEntity
  8
0
100
AcDbCircle
 62
7
  6
CONTINUOUS
 10
86.6395306058
 20
93.5016558688
 40
0.5
100
AcDbArc
 50
270.0
 51
315.0000000007
  0
ARC
  5
461
100
AcDbEntity
  8
0
100
AcDbCircle
 62
7
  6
CONTINUOUS
 10
124.0146856048
 20
55.0016558688
 40
4.19
100
AcDbArc
 50
79.6886209296
 51
180.0
  0
ARC
  5
462
100
AcDbEntity
  8
0
100
AcDbCircle
 62
7
  6
CONTINUOUS
 10
122.6846856048
 20
55.3416558688
 40
4.16
100
AcDbArc
 50
90.0
 51
180.0
  0
ARC
  5
463
100
AcDbEntity
  8
0
100
AcDbCircle
 62
7
  6
CONTINUOUS
 10
120.9271148692
 20
57.8341471667
 40
2.73
100
AcDbArc
 50
113.8172186262
 51
151.6436565457
  0
ARC
  5
464
100
AcDbEntity
  8
0
100
AcDbCircle
 62
7
  6
CONTINUOUS
 10
144.3721406259
 20
16.5016558688
 40
1.5
100
AcDbArc
 50
270.0
 51
355.0
  0
ARC
  5
465
100
AcDbEntity
  8
0
100
AcDbCircle
 62
7
  6
CONTINUOUS
 10
132.8436936618
 20
16.2016558688
 40
1.2
100
AcDbArc
 50
225.0
 51
270.0
  0
ARC
  5
466
100
AcDbEntity
  8
0
100
AcDbCircle
 62
7
  6
CONTINUOUS
 10
129.8495811121
 20
15.8016558688
 40
1.2
100
AcDbArc
 50
45.0
 51
90.0
  0
ARC
  5
467
100
AcDbEntity
  8
GEOM
100
AcDbCircle
 62
7
  6
CONTINUOUS
 10
157.8324238246
 20
25.0016558688
 40
1.0
100
AcDbArc
 50
44.9999999992
 51
90.0
  0
ARC
  5
468
100
AcDbEntity
  8
0
100
AcDbCircle
 62
7
  6
CONTINUOUS
 10
144.3721406259
 20
102.5016558688
 40
1.5
100
AcDbArc
 50
5.0
 51
90.0
  0
ARC
  5
469
100
AcDbEntity
  8
0
100
AcDbCircle
 62
7
  6
CONTINUOUS
 10
133.5466371363
 20
105.2016557401
 40
1.1999999789
100
AcDbArc
 50
179.9999936853
 51
270.0000077382
  0
ARC
  5
46A
100
AcDbEntity
  8
GEOM
100
AcDbCircle
 62
7
  6
CONTINUOUS
 10
157.8324238246
 20
94.0016558688
 40
1.0
100
AcDbArc
 50
270.0
 51
315.0000000007
  0
ARC
  5
46B
100
AcDbEntity
  8
0
100
AcDbCircle
 62
7
  6
CONTINUOUS
 10
65.2590591227
 20
187.1799000155
 40
54.5358782259
100
AcDbArc
 50
352.4365383188
 51
352.6484523501
  0
ARC
  5
46C
100
AcDbEntity
  8
0
100
AcDbCircle
 62
7
  6
CONTINUOUS
 10
118.3794079961
 20
141.4237503463
 40
40.6804289391
100
AcDbArc
 50
282.4816422916
 51
285.0783601065
  0
ARC
  5
46D
100
AcDbEntity
  8
0
100
AcDbCircle
 62
7
  6
CONTINUOUS
 10
114.8440963444
 20
162.1400472872
 40
11.8616088538
100
AcDbArc
 50
83.4379480014
 51
89.9877258619
  0
ARC
  5
46E
100
AcDbEntity
  8
0
100
AcDbCircle
 62
7
  6
CONTINUOUS
 10
157.3319187612
 20
192.0016558688
 40
5.0
100
AcDbArc
 50
90.0
 51
135.0
  0
ARC
  5
46F
100
AcDbEntity
  8
0
100
AcDbCircle
 62
7
  6
CONTINUOUS
 10
137.846637387
 20
181.0016558688
 40
5.0
100
AcDbArc
 50
270.0
 51
315.0
  0
ARC
  5
470
100
AcDbEntity
  8
0
100
AcDbCircle
 62
7
  6
CONTINUOUS
 10
104.346637387
 20
176.0016558688
 40
4.0
100
AcDbArc
 50
90.0
 51
180.0
  0
ARC
  5
471
100
AcDbEntity
  8
0
100
AcDbCircle
 62
7
  6
CONTINUOUS
 10
104.0403396105
 20
156.3229262252
 40
2.2678947274
100
AcDbArc
 50
356.0662339819
 51
0.0714073102
  0
ARC
  5
472
100
AcDbEntity
  8
0
100
AcDbCircle
 62
7
  6
CONTINUOUS
 10
157.7461323236
 20
191.0016558688
 40
2.0
100
AcDbArc
 50
90.0
 51
135.0
  0
ARC
  5
473
100
AcDbEntity
  8
0
100
AcDbCircle
 62
7
  6
CONTINUOUS
 10
137.846637387
 20
181.0016558688
 40
1.0
100
AcDbArc
 50
270.0
 51
315.0
  0
ARC
  5
474
100
AcDbEntity
  8
0
100
AcDbCircle
 62
7
  6
CONTINUOUS
 10
125.746637387
 20
180.8552457073
 40
0.6
100
AcDbArc
 50
0.0
 51
60.0
  0
ARC
  5
475
100
AcDbEntity
  8
0
100
AcDbCircle
 62
7
  6
CONTINUOUS
 10
112.946637387
 20
180.8552457073
 40
0.6
100
AcDbArc
 50
120.0
 51
180.0
  0
ARC
  5
476
100
AcDbEntity
  8
0
100
AcDbCircle
 62
7
  6
CONTINUOUS
 10
104.846637387
 20
175.5016558688
 40
0.5
100
AcDbArc
 50
90.0
 51
180.0
  0
ARC
  5
477
100
AcDbEntity
  8
0
100
AcDbCircle
 62
7
  6
CONTINUOUS
 10
101.346637387
 20
162.4016558688
 40
0.5
100
AcDbArc
 50
90.0
 51
180.0
  0
ARC
  5
478
100
AcDbEntity
  8
0
100
AcDbCircle
 62
7
  6
CONTINUOUS
 10
101.346637387
 20
159.1903310034
 40
0.5
100
AcDbArc
 50
180.0
 51
240.0
  0
ARC
  5
479
100
AcDbEntity
  8
0
100
AcDbCircle
 62
7
  6
CONTINUOUS
 10
132.446637387
 20
156.1673412938
 40
0.4
100
AcDbArc
 50
315.0
 51
360.0
  0
ARC
  5
47A
100
AcDbEntity
  8
0
100
AcDbCircle
 62
7
  6
CONTINUOUS
 10
106.246637387
 20
156.1673412938
 40
0.4
100
AcDbArc
 50
206.1639830604
 51
225.0
  0
ARC
  5
47B
100
AcDbEntity
  8
0
100
AcDbCircle
 62
7
  6
CONTINUOUS
 10
132.746637387
 20
155.3359704439
 40
0.4
100
AcDbArc
 50
134.9999999998
 51
180.0
  0
ARC
  5
47C
100
AcDbEntity
  8
0
100
AcDbCircle
 62
7
  6
CONTINUOUS
 10
105.946637387
 20
155.3359704439
 40
0.4
100
AcDbArc
 50
0.0
 51
45.0000000003
  0
ARC
  5
47D
100
AcDbEntity
  8
0
100
AcDbCircle
 62
7
  6
CONTINUOUS
 10
133.246637387
 20
163.8359704439
 40
0.4
100
AcDbArc
 50
134.9999999998
 51
180.0
  0
ARC
  5
47E
100
AcDbEntity
  8
0
100
AcDbCircle
 62
7
  6
CONTINUOUS
 10
105.446637387
 20
163.8359704439
 40
0.4
100
AcDbArc
 50
0.0
 51
45.0000000003
  0
ARC
  5
47F
100
AcDbEntity
  8
0
100
AcDbCircle
 62
7
  6
CONTINUOUS
 10
258.146637387
 20
194.7016558688
 40
3.2
100
AcDbArc
 50
270.0
 51
360.0
  0
ARC
  5
480
100
AcDbEntity
  8
0
100
AcDbCircle
 62
7
  6
CONTINUOUS
 10
258.146637387
 20
195.3016558688
 40
3.2
100
AcDbArc
 50
0.0
 51
90.0
  0
ARC
  5
481
100
AcDbEntity
  8
0
100
AcDbCircle
 62
7
  6
CONTINUOUS
 10
162.146637387
 20
197.7016558688
 40
0.8
100
AcDbArc
 50
90.0
 51
180.0
  0
ARC
  5
482
100
AcDbEntity
  8
0
100
AcDbCircle
 62
7
  6
CONTINUOUS
 10
162.146637387
 20
192.3016558688
 40
0.8
100
AcDbArc
 50
180.0
 51
270.0
  0
SPLINE
  5
483
100
AcDbEntity
  8
0
100
AcDbSpline
 62
7
  6
CONTINUOUS
 70
0
 71
3
 72
11
 73
7
 74
0
 42
0.0000001
 43
0.0000001
 44
0.0000000001
 40
0.0
 40
0.0
 40
0.0
 40
0.0
 40
0.2404052701
 40
0.4855029998
 40
0.7383572369
 40
1.0
 40
1.0
 40
1.0
 40
1.0
 10
115.0165103682
 20
185.7016558688
 30
0.0
 10
115.1389269112
 20
185.7016558688
 30
0.0
 10
115.3866080501
 20
185.6803131298
 30
0.0
 10
115.7524587765
 20
185.5881201666
 30
0.0
 10
116.1123806915
 20
185.444025805
 30
0.0
 10
116.3445047256
 20
185.3216893149
 30
0.0
 10
116.459886041
 20
185.2550738814
 30
0.0
  0
SPLINE
  5
484
100
AcDbEntity
  8
0
100
AcDbSpline
 62
7
  6
CONTINUOUS
 70
0
 71
3
 72
15
 73
11
 74
0
 42
0.0000001
 43
0.0000001
 44
0.0000000001
 40
0.0
 40
0.0
 40
0.0
 40
0.0
 40
0.1308200694
 40
0.2572467302
 40
0.3797970158
 40
0.500000022
 40
0.6202030249
 40
0.7427533028
 40
0.8691799416
 40
1.0
 40
1.0
 40
1.0
 40
1.0
 10
116.459886041
 20
181.9097744198
 30
0.0
 10
116.344505985
 20
181.9763891262
 30
0.0
 10
116.112378481
 20
182.0987244657
 30
0.0
 10
115.7524807184
 20
182.2428207189
 30
0.0
 10
115.3865479184
 20
182.3350100492
 30
0.0
 10
115.0165103052
 20
182.3669129658
 30
0.0
 10
114.6464727046
 20
182.3350100099
 30
0.0
 10
114.280539941
 20
182.2428206787
 30
0.0
 10
113.9206422145
 20
182.0987244469
 30
0.0
 10
113.6885147414
 20
181.9763891206
 30
0.0
 10
113.5731346951
 20
181.9097744198
 30
0.0
  0
LINE
  5
485
100
AcDbEntity
  8
0
100
AcDbLine
 62
7
  6
CONTINUOUS
 10
118.3947234178
 20
180.0016558688
 11
118.4043518925
 21
180.0784946885
  0
SPLINE
  5
486
100
AcDbEntity
  8
0
100
AcDbSpline
 62
7
  6
CONTINUOUS
 70
0
 71
3
 72
9
 73
5
 74
0
 42
0.0000001
 43
0.0000001
 44
0.0000000001
 40
0.0
 40
0.0
 40
0.0
 40
0.0
 40
0.2530923568
 40
1.0
 40
1.0
 40
1.0
 40
1.0
 10
119.346637387
 20
180.2016558688
 30
0.0
 10
119.4184647718
 20
180.1845515438
 30
0.0
 10
119.7024740821
 20
180.1178585684
 30
0.0
 10
119.9868645571
 20
180.0527705501
 30
0.0
 10
120.1986834211
 20
180.0016558688
 30
0.0
  0
SPLINE
  5
487
100
AcDbEntity
  8
0
100
AcDbSpline
 62
7
  6
CONTINUOUS
 70
0
 71
3
 72
11
 73
7
 74
0
 42
0.0000001
 43
0.0000001
 44
0.0000000001
 40
0.0
 40
0.0
 40
0.0
 40
0.0
 40
0.2616352191
 40
0.5144887546
 40
0.7595898472
 40
1.0
 40
1.0
 40
1.0
 40
1.0
 10
113.5731346951
 20
185.2550738814
 30
0.0
 10
113.6885127492
 20
185.321687432
 30
0.0
 10
113.9206326155
 20
185.4440229779
 30
0.0
 10
114.2805509956
 20
185.5881199058
 30
0.0
 10
114.64640553
 20
185.6803157753
 30
0.0
 10
114.8940912693
 20
185.7016558688
 30
0.0
 10
115.0165103682
 20
185.7016558688
 30
0.0
  0
SPLINE
  5
488
100
AcDbEntity
  8
0
100
AcDbSpline
 62
7
  6
CONTINUOUS
 70
0
 71
3
 72
11
 73
7
 74
0
 42
0.0000001
 43
0.0000001
 44
0.0000000001
 40
0.0
 40
0.0
 40
0.0
 40
0.0
 40
0.250004133
 40
0.5000063387
 40
0.7500033535
 40
1.0
 40
1.0
 40
1.0
 40
1.0
 10
116.459886041
 20
185.2550738814
 30
0.0
 10
116.6945061304
 20
185.3228028673
 30
0.0
 10
117.1671604173
 20
185.4468885196
 30
0.0
 10
117.8861871174
 20
185.5899685584
 30
0.0
 10
118.6138190998
 20
185.6808248173
 30
0.0
 10
119.1024443686
 20
185.7016558688
 30
0.0
 10
119.3466373873
 20
185.7016558688
 30
0.0
  0
SPLINE
  5
489
100
AcDbEntity
  8
0
100
AcDbSpline
 62
7
  6
CONTINUOUS
 70
0
 71
3
 72
11
 73
7
 74
0
 42
0.0000001
 43
0.0000001
 44
0.0000000001
 40
0.0
 40
0.0
 40
0.0
 40
0.0
 40
0.2499913856
 40
0.4999850118
 40
0.7499883992
 40
1.0
 40
1.0
 40
1.0
 40
1.0
 10
119.3466373873
 20
185.7016558688
 30
0.0
 10
119.5908252275
 20
185.7016558688
 30
0.0
 10
120.0794418411
 20
185.6808221728
 30
0.0
 10
120.8070665087
 20
185.5899686263
 30
0.0
 10
121.5260989092
 20
185.4468914035
 30
0.0
 10
121.9987616734
 20
185.3228048794
 30
0.0
 10
122.2333887329
 20
185.2550738814
 30
0.0
  0
SPLINE
  5
48A
100
AcDbEntity
  8
0
100
AcDbSpline
 62
7
  6
CONTINUOUS
 70
0
 71
3
 72
11
 73
7
 74
0
 42
0.0000001
 43
0.0000001
 44
0.0000000001
 40
0.0
 40
0.0
 40
0.0
 40
0.0
 40
0.2500114279
 40
0.5000145929
 40
0.7500082953
 40
1.0
 40
1.0
 40
1.0
 40
1.0
 10
122.2333887329
 20
181.9097744198
 30
0.0
 10
121.9987618353
 20
181.9775053711
 30
0.0
 10
121.5260994501
 20
182.1015918224
 30
0.0
 10
120.8070673649
 20
182.2446690233
 30
0.0
 10
120.079442545
 20
182.3355227447
 30
0.0
 10
119.5908255394
 20
182.3563564072
 30
0.0
 10
119.346637387
 20
182.3563564072
 30
0.0
  0
SPLINE
  5
48B
100
AcDbEntity
  8
0
100
AcDbSpline
 62
7
  6
CONTINUOUS
 70
0
 71
3
 72
11
 73
7
 74
0
 42
0.0000001
 43
0.0000001
 44
0.0000000001
 40
0.0
 40
0.0
 40
0.0
 40
0.0
 40
0.2499921102
 40
0.4999859297
 40
0.7499889485
 40
1.0
 40
1.0
 40
1.0
 40
1.0
 10
119.346637387
 20
182.3563564072
 30
0.0
 10
119.1024488379
 20
182.3563564072
 30
0.0
 10
118.6138313132
 20
182.3355228012
 30
0.0
 10
117.8862061533
 20
182.2446687968
 30
0.0
 10
117.1671744667
 20
182.1015916358
 30
0.0
 10
116.6945125859
 20
181.9775052692
 30
0.0
 10
116.459886041
 20
181.9097744198
 30
0.0
  0
SPLINE
  5
48C
100
AcDbEntity
  8
0
100
AcDbSpline
 62
7
  6
CONTINUOUS
 70
0
 71
3
 72
11
 73
7
 74
0
 42
0.0000001
 43
0.0000001
 44
0.0000000001
 40
0.0
 40
0.0
 40
0.0
 40
0.0
 40
0.2616352191
 40
0.5144887546
 40
0.7595898472
 40
1.0
 40
1.0
 40
1.0
 40
1.0
 10
122.2333887329
 20
185.2550738814
 30
0.0
 10
122.3487667871
 20
185.321687432
 30
0.0
 10
122.5808866534
 20
185.4440229779
 30
0.0
 10
122.9408050334
 20
185.5881199058
 30
0.0
 10
123.3066595679
 20
185.6803157753
 30
0.0
 10
123.5543453072
 20
185.7016558688
 30
0.0
 10
123.676764406
 20
185.7016558688
 30
0.0
  0
SPLINE
  5
48D
100
AcDbEntity
  8
0
100
AcDbSpline
 62
7
  6
CONTINUOUS
 70
0
 71
3
 72
11
 73
7
 74
0
 42
0.0000001
 43
0.0000001
 44
0.0000000001
 40
0.0
 40
0.0
 40
0.0
 40
0.0
 40
0.2404052701
 40
0.4855029998
 40
0.7383572369
 40
1.0
 40
1.0
 40
1.0
 40
1.0
 10
123.676764406
 20
185.7016558688
 30
0.0
 10
123.7991809491
 20
185.7016558688
 30
0.0
 10
124.0468620879
 20
185.6803131298
 30
0.0
 10
124.4127128143
 20
185.5881201666
 30
0.0
 10
124.7726347293
 20
185.444025805
 30
0.0
 10
125.0047587635
 20
185.3216893149
 30
0.0
 10
125.1201400789
 20
185.2550738814
 30
0.0
  0
SPLINE
  5
48E
100
AcDbEntity
  8
0
100
AcDbSpline
 62
7
  6
CONTINUOUS
 70
0
 71
3
 72
15
 73
11
 74
0
 42
0.0000001
 43
0.0000001
 44
0.0000000001
 40
0.0
 40
0.0
 40
0.0
 40
0.0
 40
0.1308200694
 40
0.2572467302
 40
0.3797970158
 40
0.500000022
 40
0.6202030249
 40
0.7427533028
 40
0.8691799416
 40
1.0
 40
1.0
 40
1.0
 40
1.0
 10
125.1201400789
 20
181.9097744198
 30
0.0
 10
125.0047600229
 20
181.9763891262
 30
0.0
 10
124.7726325188
 20
182.0987244657
 30
0.0
 10
124.4127347562
 20
182.2428207189
 30
0.0
 10
124.0468019563
 20
182.3350100492
 30
0.0
 10
123.6767643431
 20
182.3669129658
 30
0.0
 10
123.3067267424
 20
182.3350100099
 30
0.0
 10
122.9407939788
 20
182.2428206787
 30
0.0
 10
122.5808962524
 20
182.0987244469
 30
0.0
 10
122.3487687792
 20
181.9763891206
 30
0.0
 10
122.2333887329
 20
181.9097744198
 30
0.0
  0
SPLINE
  5
48F
100
AcDbEntity
  8
0
100
AcDbSpline
 62
7
  6
CONTINUOUS
 70
0
 71
3
 72
30
 73
26
 74
0
 42
0.0000001
 43
0.0000001
 44
0.0000000001
 40
0.0
 40
0.0
 40
0.0
 40
0.0
 40
0.1897066059
 40
0.2833496731
 40
0.3748401487
 40
0.463194899
 40
0.5474651216
 40
0.6267458009
 40
0.7001849129
 40
0.7669936384
 40
0.8264557438
 40
0.8532296605
 40
0.8779340279
 40
0.9005026842
 40
0.9208769658
 40
0.9390003385
 40
0.9548268084
 40
0.9683149205
 40
0.9794289777
 40
0.9881454982
 40
0.9944474041
 40
0.9966941389
 40
0.9983450699
 40
0.9994193251
 40
1.0
 40
1.0
 40
1.0
 40
1.0
 10
120.3432170329
 20
168.9854139533
 30
0.0
 10
119.584023763
 20
168.9706669322
 30
0.0
 10
118.450073112
 20
168.9488481492
 30
0.0
 10
116.949992582
 20
168.9194562904
 30
0.0
 10
115.855523986
 20
168.8975126842
 30
0.0
 10
114.7985795286
 20
168.8755780369
 30
0.0
 10
113.7905177201
 20
168.8536567888
 30
0.0
 10
112.8421729988
 20
168.8317544015
 30
0.0
 10
111.9637403192
 20
168.8098802689
 30
0.0
 10
111.1646610567
 20
168.7880423411
 30
0.0
 10
110.5523554854
 20
168.7692998448
 30
0.0
 10
110.1085550203
 20
168.7541109513
 30
0.0
 10
109.812371173
 20
168.7431293863
 30
0.0
 10
109.5418218407
 20
168.7321582029
 30
0.0
 10
109.2976368658
 20
168.7212027852
 30
0.0
 10
109.0804688922
 20
168.7102658153
 30
0.0
 10
108.8908986392
 20
168.6993593581
 30
0.0
 10
108.7294432912
 20
168.688500863
 30
0.0
 10
108.5964910119
 20
168.6777182633
 30
0.0
 10
108.4924700107
 20
168.6670762478
 30
0.0
 10
108.4238867508
 20
168.6576322306
 30
0.0
 10
108.383935561
 20
168.6497123623
 30
0.0
 10
108.3645582513
 20
168.6442353882
 30
0.0
 10
108.3525849226
 20
168.6396355148
 30
0.0
 10
108.3468962307
 20
168.6345905076
 30
0.0
 10
108.3466589914
 20
168.6322783862
 30
0.0
  0
LINE
  5
490
100
AcDbEntity
  8
0
100
AcDbLine
 62
7
  6
CONTINUOUS
 10
109.1548220399
 20
169.3609318619
 11
109.1595756735
 21
169.363126494
  0
SPLINE
  5
491
100
AcDbEntity
  8
0
100
AcDbSpline
 62
7
  6
CONTINUOUS
 70
0
 71
3
 72
26
 73
22
 74
0
 42
0.0000001
 43
0.0000001
 44
0.0000000001
 40
0.0
 40
0.0
 40
0.0
 40
0.0
 40
0.0015463114
 40
0.0036413836
 40
0.0095020208
 40
0.0176005811
 40
0.0279303273
 40
0.0404688579
 40
0.0551896033
 40
0.0720611144
 40
0.0910417909
 40
0.1351522982
 40
0.1871055993
 40
0.24641266
 40
0.3125110133
 40
0.3847731725
 40
0.4625152283
 40
0.5449993832
 40
0.631442096
 40
0.8128945137
 40
1.0
 40
1.0
 40
1.0
 40
1.0
 10
109.1595756735
 20
169.363126494
 30
0.0
 10
109.1646213122
 20
169.3652172575
 30
0.0
 10
109.1769347919
 20
169.3690611039
 30
0.0
 10
109.2096332618
 20
169.3766401838
 30
0.0
 10
109.2657144585
 20
169.385421667
 30
0.0
 10
109.350907123
 20
169.3954766297
 30
0.0
 10
109.4598292898
 20
169.4055915449
 30
0.0
 10
109.5922032269
 20
169.4158068775
 30
0.0
 10
109.74774175
 20
169.4260560989
 30
0.0
 10
109.9260734775
 20
169.4363358517
 30
0.0
 10
110.2081372479
 20
169.4508024435
 30
0.0
 10
110.6141005199
 20
169.4685039803
 30
0.0
 10
111.1625007872
 20
169.4889440173
 30
0.0
 10
111.7886083953
 20
169.5094439719
 30
0.0
 10
112.4864803062
 20
169.5299929684
 30
0.0
 10
113.2494904236
 20
169.5505726748
 30
0.0
 10
114.0703949336
 20
169.5711740923
 30
0.0
 10
114.941400343
 20
169.5917916034
 30
0.0
 10
116.1786449809
 20
169.6197485263
 30
0.0
 10
117.7853658588
 20
169.6541620347
 30
0.0
 10
119.0868525598
 20
169.6812321658
 30
0.0
 10
119.7475761758
 20
169.6950267899
 30
0.0
  0
SPLINE
  5
492
100
AcDbEntity
  8
0
100
AcDbSpline
 62
7
  6
CONTINUOUS
 70
0
 71
3
 72
28
 73
24
 74
0
 42
0.0000001
 43
0.0000001
 44
0.0000000001
 40
0.0
 40
0.0
 40
0.0
 40
0.0
 40
0.0005909025
 40
0.0016309682
 40
0.0053985419
 40
0.0115227677
 40
0.0200171999
 40
0.0308710477
 40
0.0440649779
 40
0.0595663671
 40
0.0773388162
 40
0.0973413758
 40
0.119522536
 40
0.1702017828
 40
0.2288764232
 40
0.2949682072
 40
0.3678228631
 40
0.4467177429
 40
0.5308722038
 40
0.6194528852
 40
0.7115809204
 40
0.806343643
 40
1.0
 40
1.0
 40
1.0
 40
1.0
 10
109.1466465755
 20
169.5524087698
 30
0.0
 10
109.1466488007
 20
169.5544667886
 30
0.0
 10
109.1508507588
 20
169.5594298258
 30
0.0
 10
109.1677983295
 20
169.5669149885
 30
0.0
 10
109.2052978059
 20
169.5759874046
 30
0.0
 10
109.2683601307
 20
169.5858092225
 30
0.0
 10
109.356598657
 20
169.596074986
 30
0.0
 10
109.469432254
 20
169.606411956
 30
0.0
 10
109.6067980572
 20
169.6168463423
 30
0.0
 10
109.7682962487
 20
169.6273190092
 30
0.0
 10
109.9535550672
 20
169.6378236204
 30
0.0
 10
110.1621081915
 20
169.6483462914
 30
0.0
 10
110.4852016495
 20
169.6630587509
 30
0.0
 10
110.9429648657
 20
169.6811222097
 30
0.0
 10
111.5536577581
 20
169.7020449301
 30
0.0
 10
112.2416224523
 20
169.7230182652
 30
0.0
 10
113.0000390091
 20
169.7440323123
 30
0.0
 10
113.8213864107
 20
169.7650727247
 30
0.0
 10
114.6975212801
 20
169.7861320404
 30
0.0
 10
115.6197573823
 20
169.8072043946
 30
0.0
 10
116.578949368
 20
169.8282865267
 30
0.0
 10
117.9040323461
 20
169.8566081163
 30
0.0
 10
118.9083329783
 20
169.8775131362
 30
0.0
 10
119.5826607114
 20
169.8915846376
 30
0.0
  0
SPLINE
  5
493
100
AcDbEntity
  8
0
100
AcDbSpline
 62
7
  6
CONTINUOUS
 70
0
 71
3
 72
27
 73
23
 74
0
 42
0.0000001
 43
0.0000001
 44
0.0000000001
 40
0.0
 40
0.0
 40
0.0
 40
0.0
 40
0.1870907612
 40
0.3692469978
 40
0.4561861619
 40
0.539195887
 40
0.6174459546
 40
0.6901540055
 40
0.7565929717
 40
0.8160986051
 40
0.8680759757
 40
0.912006623
 40
0.9308158028
 40
0.9474558656
 40
0.9618882156
 40
0.974076292
 40
0.9839926123
 40
0.9916185391
 40
0.9945688064
 40
0.9969448144
 40
0.9987511388
 40
1.0
 40
1.0
 40
1.0
 40
1.0
 10
120.09190302
 20
169.2846328966
 30
0.0
 10
119.3595240187
 20
169.2704326474
 30
0.0
 10
117.9140789733
 20
169.242593304
 30
0.0
 10
116.1283209917
 20
169.2073114256
 30
0.0
 10
114.7500216088
 20
169.178632026
 30
0.0
 10
113.7784782498
 20
169.1574683694
 30
0.0
 10
112.8626674808
 20
169.1363218666
 30
0.0
 10
112.0117540122
 20
169.1151986869
 30
0.0
 10
111.234254254
 20
169.0941080944
 30
0.0
 10
110.5379522116
 20
169.073070903
 30
0.0
 10
109.9298205491
 20
169.0521004842
 30
0.0
 10
109.4810307843
 20
169.0339236238
 30
0.0
 10
109.1705892684
 20
169.0190519877
 30
0.0
 10
108.9755709998
 20
169.0085041446
 30
0.0
 10
108.8065182736
 20
168.9979887936
 30
0.0
 10
108.6638420706
 20
168.9875347006
 30
0.0
 10
108.5479027563
 20
168.9771391112
 30
0.0
 10
108.4681608855
 20
168.9680387888
 30
0.0
 10
108.418027766
 20
168.9603945155
 30
0.0
 10
108.3905653515
 20
168.9552143434
 30
0.0
 10
108.3699391757
 20
168.9500895662
 30
0.0
 10
108.3585740966
 20
168.9461144759
 30
0.0
 10
108.3542366022
 20
168.9438572668
 30
0.0
  0
SPLINE
  5
494
100
AcDbEntity
  8
0
100
AcDbSpline
 62
7
  6
CONTINUOUS
 70
0
 71
3
 72
9
 73
5
 74
0
 42
0.0000001
 43
0.0000001
 44
0.0000000001
 40
0.0
 40
0.0
 40
0.0
 40
0.0
 40
0.3590117574
 40
1.0
 40
1.0
 40
1.0
 40
1.0
 10
108.6538965465
 20
169.8089150283
 30
0.0
 10
108.655564997
 20
169.8105834788
 30
0.0
 10
108.6620009952
 20
169.812989414
 30
0.0
 10
108.6682456492
 20
169.8146119873
 30
0.0
 10
108.6723622002
 20
169.8155073083
 30
0.0
  0
SPLINE
  5
495
100
AcDbEntity
  8
0
100
AcDbSpline
 62
7
  6
CONTINUOUS
 70
0
 71
3
 72
23
 73
19
 74
0
 42
0.0000001
 43
0.0000001
 44
0.0000000001
 40
0.0
 40
0.0
 40
0.0
 40
0.0
 40
0.0039901684
 40
0.0101832494
 40
0.0185780023
 40
0.0291577432
 40
0.0419016324
 40
0.0567855776
 40
0.0928332265
 40
0.1369877044
 40
0.1888562884
 40
0.2479754994
 40
0.3138148275
 40
0.3857753922
 40
0.4632014101
 40
0.6315733046
 40
0.8127444702
 40
1.0
 40
1.0
 40
1.0
 40
1.0
 10
108.6723622002
 20
169.8155073083
 30
0.0
 10
108.686394892
 20
169.8185593204
 30
0.0
 10
108.7227903286
 20
169.8234138404
 30
0.0
 10
108.7893235626
 20
169.8298028225
 30
0.0
 10
108.8796957289
 20
169.8362011092
 30
0.0
 10
108.9936604091
 20
169.842737702
 30
0.0
 10
109.1310176477
 20
169.8492996338
 30
0.0
 10
109.3599950158
 20
169.8587065896
 30
0.0
 10
109.7020274523
 20
169.8701180246
 30
0.0
 10
110.1771744299
 20
169.8832322164
 30
0.0
 10
110.7353823182
 20
169.896419385
 30
0.0
 10
111.3716517027
 20
169.9096710771
 30
0.0
 10
112.0802459978
 20
169.9229655072
 30
0.0
 10
112.8547369006
 20
169.9362976351
 30
0.0
 10
113.9982138149
 20
169.9546289618
 30
0.0
 10
115.5347253611
 20
169.9771714796
 30
0.0
 10
117.4665002039
 20
170.0036692962
 30
0.0
 10
118.7923629466
 20
170.0213259372
 30
0.0
 10
119.4662418077
 20
170.0303338351
 30
0.0
  0
LINE
  5
496
100
AcDbEntity
  8
0
100
AcDbLine
 62
7
  6
CONTINUOUS
 10
117.0653580483
 20
168.5016561042
 11
120.6853212062
 21
168.5776621977
  0
SPLINE
  5
497
100
AcDbEntity
  8
0
100
AcDbSpline
 62
7
  6
CONTINUOUS
 70
0
 71
3
 72
10
 73
6
 74
0
 42
0.0000001
 43
0.0000001
 44
0.0000000001
 40
0.0
 40
0.0
 40
0.0
 40
0.0
 40
0.5011988852
 40
0.7507952752
 40
1.0
 40
1.0
 40
1.0
 40
1.0
 10
111.0717201693
 20
173.4243055996
 30
0.0
 10
111.6861805253
 20
173.6028636394
 30
0.0
 10
112.6229169302
 20
173.8218431561
 30
0.0
 10
113.8913368226
 20
173.9754760156
 30
0.0
 10
114.5284787644
 20
174.0016558736
 30
0.0
 10
114.8466373871
 20
174.0016558688
 30
0.0
  0
SPLINE
  5
498
100
AcDbEntity
  8
0
100
AcDbSpline
 62
7
  6
CONTINUOUS
 70
0
 71
3
 72
9
 73
5
 74
0
 42
0.0000001
 43
0.0000001
 44
0.0000000001
 40
0.0
 40
0.0
 40
0.0
 40
0.0
 40
0.663379607
 40
1.0
 40
1.0
 40
1.0
 40
1.0
 10
167.9971930284
 20
24.5016818476
 30
0.0
 10
167.9956969635
 20
24.5016854836
 30
0.0
 10
167.9937194561
 20
24.5035271184
 30
0.0
 10
167.9925585761
 20
24.5053760133
 30
0.0
 10
167.9921792073
 20
24.5060335804
 30
0.0
  0
SPLINE
  5
499
100
AcDbEntity
  8
0
100
AcDbSpline
 62
7
  6
CONTINUOUS
 70
0
 71
3
 72
48
 73
44
 74
0
 42
0.0000001
 43
0.0000001
 44
0.0000000001
 40
0.0
 40
0.0
 40
0.0
 40
0.0
 40
0.0001855048
 40
0.0006383251
 40
0.0013772961
 40
0.0024055579
 40
0.0037236885
 40
0.0053311023
 40
0.00722694
 40
0.0094102325
 40
0.0146350198
 40
0.0209949388
 40
0.0284739226
 40
0.0370549282
 40
0.0467192252
 40
0.0574429272
 40
0.0692011213
 40
0.081967599
 40
0.1104001812
 40
0.1424763524
 40
0.1778952044
 40
0.2163262948
 40
0.2574111978
 40
0.3007651096
 40
0.3459835041
 40
0.3926439865
 40
0.4885370396
 40
0.5848688681
 40
0.6780474367
 40
0.764598773
 40
0.8043673175
 40
0.8412954734
 40
0.8750372179
 40
0.9052777593
 40
0.9317354617
 40
0.9541618836
 40
0.9723488112
 40
0.9797981303
 40
0.9861276676
 40
0.991321694
 40
0.9953700819
 40
0.9982643939
 40
1.0
 40
1.0
 40
1.0
 40
1.0
 10
161.0966376153
 20
25.8016956022
 30
0.0
 10
161.0924713405
 20
25.8017007561
 30
0.0
 10
161.0858395829
 20
25.8194322421
 30
0.0
 10
161.0798416564
 20
25.8458815422
 30
0.0
 10
161.0722231136
 20
25.8973087756
 30
0.0
 10
161.0649827044
 20
25.9653072373
 30
0.0
 10
161.057395177
 20
26.0541440414
 30
0.0
 10
161.0498461723
 20
26.1620386984
 30
0.0
 10
161.0422293242
 20
26.2895716289
 30
0.0
 10
161.0314018691
 20
26.4982317277
 30
0.0
 10
161.0182092873
 20
26.8071843993
 30
0.0
 10
161.0030628
 20
27.2350676442
 30
0.0
 10
160.9878561032
 20
27.7383731376
 30
0.0
 10
160.9726028797
 20
28.3159174058
 30
0.0
 10
160.9573244217
 20
28.9663576783
 30
0.0
 10
160.942023472
 20
29.6881716466
 30
0.0
 10
160.92670611
 20
30.4796718148
 30
0.0
 10
160.9055017247
 20
31.6688572474
 30
0.0
 10
160.8793343006
 20
33.3143489377
 30
0.0
 10
160.848871083
 20
35.4685852818
 30
0.0
 10
160.8183544516
 20
37.8473989618
 30
0.0
 10
160.7877974662
 20
40.4285555968
 30
0.0
 10
160.7572138722
 20
43.1879380892
 30
0.0
 10
160.7266096045
 20
46.0997661327
 30
0.0
 10
160.695991042
 20
49.1368233024
 30
0.0
 10
160.6547800519
 20
53.3538170901
 30
0.0
 10
160.6039890058
 20
58.7187353324
 30
0.0
 10
160.5435686821
 20
65.1283651624
 30
0.0
 10
160.4832149084
 20
71.3281792379
 30
0.0
 10
160.4317383568
 20
76.2576567428
 30
0.0
 10
160.389785118
 20
79.9238267382
 30
0.0
 10
160.3592457854
 20
82.4039910286
 30
0.0
 10
160.3287561357
 20
84.6701478841
 30
0.0
 10
160.2983301604
 20
86.7011246518
 30
0.0
 10
160.2680259799
 20
88.4779403492
 30
0.0
 10
160.2378529607
 20
89.9839967257
 30
0.0
 10
160.2115609835
 20
91.063132838
 30
0.0
 10
160.1897966991
 20
91.780724634
 30
0.0
 10
160.174689142
 20
92.206583592
 30
0.0
 10
160.1595732681
 20
92.5559675825
 30
0.0
 10
160.1449909508
 20
92.8282318863
 30
0.0
 10
160.130123861
 20
93.0224544813
 30
0.0
 10
160.1192921953
 20
93.1261062901
 30
0.0
 10
160.1116145665
 20
93.164322922
 30
0.0
  0
SPLINE
  5
49A
100
AcDbEntity
  8
0
100
AcDbSpline
 62
7
  6
CONTINUOUS
 70
0
 71
3
 72
9
 73
5
 74
0
 42
0.0000001
 43
0.0000001
 44
0.0000000001
 40
0.0
 40
0.0
 40
0.0
 40
0.0
 40
0.3337357711
 40
1.0
 40
1.0
 40
1.0
 40
1.0
 10
160.1116145665
 20
93.164322922
 30
0.0
 10
160.1108640108
 20
93.1680589336
 30
0.0
 10
160.1083657025
 20
93.1791462242
 30
0.0
 10
160.105647252
 20
93.1905164311
 30
0.0
 10
160.1018440677
 20
93.197105082
 30
0.0
  0
SPLINE
  5
49B
100
AcDbEntity
  8
0
100
AcDbSpline
 62
7
  6
CONTINUOUS
 70
0
 71
3
 72
9
 73
5
 74
0
 42
0.0000001
 43
0.0000001
 44
0.0000000001
 40
0.0
 40
0.0
 40
0.0
 40
0.0
 40
0.4588115032
 40
1.0
 40
1.0
 40
1.0
 40
1.0
 10
146.2578623967
 20
74.9991305519
 30
0.0
 10
146.2481214113
 20
74.7830292745
 30
0.0
 10
146.2415629591
 20
74.3114066791
 30
0.0
 10
146.2497336719
 20
73.8399473368
 30
0.0
 10
146.2578623967
 20
73.5849169895
 30
0.0
  0
SPLINE
  5
49C
100
AcDbEntity
  8
0
100
AcDbSpline
 62
7
  6
CONTINUOUS
 70
0
 71
3
 72
9
 73
5
 74
0
 42
0.0000001
 43
0.0000001
 44
0.0000000001
 40
0.0
 40
0.0
 40
0.0
 40
0.0
 40
0.5411888564
 40
1.0
 40
1.0
 40
1.0
 40
1.0
 10
146.2578623967
 20
45.4183947481
 30
0.0
 10
146.2497336665
 20
45.1633642314
 30
0.0
 10
146.2415629572
 20
44.6919048888
 30
0.0
 10
146.2481214189
 20
44.2202822937
 30
0.0
 10
146.2578623967
 20
44.0041811858
 30
0.0
  0
SPLINE
  5
49D
100
AcDbEntity
  8
0
100
AcDbSpline
 62
7
  6
CONTINUOUS
 70
0
 71
3
 72
16
 73
12
 74
0
 42
0.0000001
 43
0.0000001
 44
0.0000000001
 40
0.0
 40
0.0
 40
0.0
 40
0.0
 40
0.2239141398
 40
0.422980252
 40
0.5948160288
 40
0.7375199398
 40
0.849941555
 40
0.9310763369
 40
0.980487112
 40
0.9935353096
 40
1.0
 40
1.0
 40
1.0
 40
1.0
 10
146.2578623967
 20
24.0874423064
 30
0.0
 10
146.2558856066
 20
24.043587723
 30
0.0
 10
146.2523998908
 20
23.9607318847
 30
0.0
 10
146.248378787
 20
23.8441908134
 30
0.0
 10
146.2459060837
 20
23.7435054359
 30
0.0
 10
146.2449341696
 20
23.6598557946
 30
0.0
 10
146.245595114
 20
23.5937812706
 30
0.0
 10
146.2473656596
 20
23.5465080634
 30
0.0
 10
146.2507065617
 20
23.5178976738
 30
0.0
 10
146.2537525873
 20
23.5053248772
 30
0.0
 10
146.2565949726
 20
23.5016558688
 30
0.0
 10
146.2578623967
 20
23.5016558688
 30
0.0
  0
SPLINE
  5
49E
100
AcDbEntity
  8
0
100
AcDbSpline
 62
7
  6
CONTINUOUS
 70
0
 71
3
 72
10
 73
6
 74
0
 42
0.0000001
 43
0.0000001
 44
0.0000000001
 40
0.0
 40
0.0
 40
0.0
 40
0.0
 40
0.5026024073
 40
0.7516874912
 40
1.0
 40
1.0
 40
1.0
 40
1.0
 10
152.2128074385
 20
94.9158694312
 30
0.0
 10
152.6955665304
 20
93.2929486735
 30
0.0
 10
153.2772871531
 20
90.8179753026
 30
0.0
 10
153.6787980604
 20
87.4705539887
 30
0.0
 10
153.746637395
 20
85.7940317606
 30
0.0
 10
153.746637387
 20
84.9574999968
 30
0.0
  0
SPLINE
  5
49F
100
AcDbEntity
  8
0
100
AcDbSpline
 62
7
  6
CONTINUOUS
 70
0
 71
3
 72
35
 73
31
 74
0
 42
0.0000001
 43
0.0000001
 44
0.0000000001
 40
0.0
 40
0.0
 40
0.0
 40
0.0
 40
0.1762229163
 40
0.2661654353
 40
0.3556838465
 40
0.4435317089
 40
0.5284950302
 40
0.6093982515
 40
0.6851222026
 40
0.7546194976
 40
0.8169282309
 40
0.8451125782
 40
0.8711859914
 40
0.8950571965
 40
0.9166430489
 40
0.9358710088
 40
0.9526717606
 40
0.9669899289
 40
0.9732023005
 40
0.9787753567
 40
0.9837047594
 40
0.9879870925
 40
0.9916190294
 40
0.9945974009
 40
0.9969195581
 40
0.9985854385
 40
0.9991733732
 40
0.9995995716
 40
0.9998682368
 40
1.0
 40
1.0
 40
1.0
 40
1.0
 10
159.746637387
 20
70.25913352
 30
0.0
 10
159.7723298349
 20
67.5708503565
 30
0.0
 10
159.8096697057
 20
63.5104788249
 30
0.0
 10
159.8589452186
 20
58.0844925293
 30
0.0
 10
159.896148226
 20
54.0066764544
 30
0.0
 10
159.9333432225
 20
50.0048247073
 30
0.0
 10
159.9705193543
 20
46.1344094347
 30
0.0
 10
160.0076670745
 20
42.4489616402
 30
0.0
 10
160.0447691369
 20
38.999471185
 30
0.0
 10
160.0818108688
 20
35.8336698964
 30
0.0
 10
160.1135596485
 20
33.3931082002
 30
0.0
 10
160.1392970805
 20
31.6149893666
 30
0.0
 10
160.1579345833
 20
30.423221824
 30
0.0
 10
160.1765524763
 20
29.3321319813
 30
0.0
 10
160.1951485174
 20
28.3454906464
 30
0.0
 10
160.2137034752
 20
27.4667342923
 30
0.0
 10
160.2322164518
 20
26.6988787708
 30
0.0
 10
160.2482358967
 20
26.1295858658
 30
0.0
 10
160.2612796484
 20
25.731570057
 30
0.0
 10
160.2705822347
 20
25.4767420613
 30
0.0
 10
160.2798663364
 20
25.2513808325
 30
0.0
 10
160.2891257832
 20
25.0556552228
 30
0.0
 10
160.2983400132
 20
24.8897437824
 30
0.0
 10
160.3074973587
 20
24.7537472287
 30
0.0
 10
160.3164991309
 20
24.6479182276
 30
0.0
 10
160.3245647412
 20
24.5784005397
 30
0.0
 10
160.3312144308
 20
24.5382479985
 30
0.0
 10
160.3359667173
 20
24.518879934
 30
0.0
 10
160.3395526404
 20
24.5075011956
 30
0.0
 10
160.3440720868
 20
24.5016869441
 30
0.0
 10
160.3460822206
 20
24.5016814308
 30
0.0
  0
SPLINE
  5
4A0
100
AcDbEntity
  8
0
100
AcDbSpline
 62
7
  6
CONTINUOUS
 70
0
 71
3
 72
10
 73
6
 74
0
 42
0.0000001
 43
0.0000001
 44
0.0000000001
 40
0.0
 40
0.0
 40
0.0
 40
0.0
 40
0.2483125138
 40
0.4973976016
 40
1.0
 40
1.0
 40
1.0
 40
1.0
 10
153.746637387
 20
84.9574999968
 30
0.0
 10
153.746637379
 20
84.1209682155
 30
0.0
 10
153.6787980651
 20
82.4444459556
 30
0.0
 10
153.27728714
 20
79.0970246388
 30
0.0
 10
152.6955665223
 20
76.6220512826
 30
0.0
 10
152.2128074385
 20
74.9991305519
 30
0.0
  0
SPLINE
  5
4A1
100
AcDbEntity
  8
0
100
AcDbSpline
 62
7
  6
CONTINUOUS
 70
0
 71
3
 72
11
 73
7
 74
0
 42
0.0000001
 43
0.0000001
 44
0.0000000001
 40
0.0
 40
0.0
 40
0.0
 40
0.0
 40
0.2500332824
 40
0.5000000001
 40
0.7499667178
 40
1.0
 40
1.0
 40
1.0
 40
1.0
 10
146.2578623967
 20
74.9991305519
 30
0.0
 10
146.3326355681
 20
76.6579543029
 30
0.0
 10
146.4496839951
 20
79.9767583022
 30
0.0
 10
146.5105918382
 20
84.9574999935
 30
0.0
 10
146.4496840016
 20
89.9382416836
 30
0.0
 10
146.332635568
 20
93.2570456816
 30
0.0
 10
146.2578623967
 20
94.9158694312
 30
0.0
  0
SPLINE
  5
4A2
100
AcDbEntity
  8
0
100
AcDbSpline
 62
7
  6
CONTINUOUS
 70
0
 71
3
 72
55
 73
51
 74
0
 42
0.0000001
 43
0.0000001
 44
0.0000000001
 40
0.0
 40
0.0
 40
0.0
 40
0.0
 40
0.0000668612
 40
0.0001917753
 40
0.0006526908
 40
0.0014058659
 40
0.0024537896
 40
0.0037969687
 40
0.0054353532
 40
0.0073684119
 40
0.0095948558
 40
0.01492208
 40
0.0214051793
 40
0.0290299776
 40
0.0377770644
 40
0.0476261802
 40
0.0585547141
 40
0.0705353047
 40
0.0835399705
 40
0.1124958997
 40
0.1451464511
 40
0.1811797564
 40
0.2202530057
 40
0.2619939397
 40
0.3060039598
 40
0.3518638392
 40
0.3991366165
 40
0.4961082729
 40
0.5932297274
 40
0.6868064467
 40
0.731144151
 40
0.7732793196
 40
0.8128090337
 40
0.8493568938
 40
0.8825751346
 40
0.9121464745
 40
0.937789513
 40
0.949060553
 40
0.9592607243
 40
0.9683656164
 40
0.9763547584
 40
0.9832081345
 40
0.9889097351
 40
0.9934473981
 40
0.9952761173
 40
0.9968098676
 40
0.9980483543
 40
0.9989916653
 40
0.9996407197
 40
1.0
 40
1.0
 40
1.0
 40
1.0
 10
164.9971924809
 20
94.5016558688
 30
0.0
 10
164.9987528388
 20
94.5016558688
 30
0.0
 10
165.0024582225
 20
94.4979763117
 30
0.0
 10
165.007789037
 20
94.4841360118
 30
0.0
 10
165.0145347286
 20
94.453076325
 30
0.0
 10
165.0216741258
 20
94.4010278658
 30
0.0
 10
165.0292322659
 20
94.3279127151
 30
0.0
 10
165.0368062051
 20
94.2342218906
 30
0.0
 10
165.0444675177
 20
94.1197654742
 30
0.0
 10
165.0521496743
 20
93.984680826
 30
0.0
 10
165.0630902156
 20
93.7635532889
 30
0.0
 10
165.0764113831
 20
93.4362407035
 30
0.0
 10
165.0917145966
 20
92.9829340556
 30
0.0
 10
165.1070714632
 20
92.4497809093
 30
0.0
 10
165.1224790361
 20
91.8380476389
 30
0.0
 10
165.1379143785
 20
91.1491934307
 30
0.0
 10
165.1533684285
 20
90.3848616255
 30
0.0
 10
165.1688402342
 20
89.5468746583
 30
0.0
 10
165.1902581524
 20
88.2882170977
 30
0.0
 10
165.2166848101
 20
86.5471966101
 30
0.0
 10
165.2474557832
 20
84.2687587349
 30
0.0
 10
165.2782796203
 20
81.7541916227
 30
0.0
 10
165.3091437402
 20
79.0274658782
 30
0.0
 10
165.3400352696
 20
76.114574702
 30
0.0
 10
165.3709472615
 20
73.0432940201
 30
0.0
 10
165.4018733941
 20
69.8429091884
 30
0.0
 10
165.4434724211
 20
65.406590554
 30
0.0
 10
165.4947283324
 20
59.7740054168
 30
0.0
 10
165.5557395629
 20
53.0608573133
 30
0.0
 10
165.6073858425
 20
47.576006928
 30
0.0
 10
165.649361641
 20
43.3743524621
 30
0.0
 10
165.6802579138
 20
40.4339595812
 30
0.0
 10
165.7111270202
 20
37.675370592
 30
0.0
 10
165.7419598825
 20
35.1248917712
 30
0.0
 10
165.7727354947
 20
32.8068316725
 30
0.0
 10
165.8034403256
 20
30.7432841731
 30
0.0
 10
165.8299311781
 20
29.1919206631
 30
0.0
 10
165.8514838593
 20
28.0926138503
 30
0.0
 10
165.8669270145
 20
27.3792179803
 30
0.0
 10
165.8823436864
 20
26.742431557
 30
0.0
 10
165.8977228384
 20
26.1837755445
 30
0.0
 10
165.913034443
 20
25.7045728551
 30
0.0
 10
165.9282794333
 20
25.3059700299
 30
0.0
 10
165.9415873344
 20
25.0246343368
 30
0.0
 10
165.9526428749
 20
24.8406079951
 30
0.0
 10
165.9602523655
 20
24.7334751033
 30
0.0
 10
165.9679012518
 20
24.6471666644
 30
0.0
 10
165.9751407171
 20
24.5813202656
 30
0.0
 10
165.9827194341
 20
24.5367228205
 30
0.0
 10
165.9879928269
 20
24.5132746016
 30
0.0
 10
165.992178087
 20
24.5060092457
 30
0.0
  0
SPLINE
  5
4A3
100
AcDbEntity
  8
0
100
AcDbSpline
 62
7
  6
CONTINUOUS
 70
0
 71
3
 72
10
 73
6
 74
0
 42
0.0000001
 43
0.0000001
 44
0.0000000001
 40
0.0
 40
0.0
 40
0.0
 40
0.0
 40
0.4999284746
 40
0.7499642367
 40
1.0
 40
1.0
 40
1.0
 40
1.0
 10
152.2128074385
 20
73.5849169895
 30
0.0
 10
152.6994904415
 20
71.2711051959
 30
0.0
 10
153.2797818911
 20
67.7643964879
 30
0.0
 10
153.6790608242
 20
63.0499508605
 30
0.0
 10
153.7466373902
 20
60.6842150899
 30
0.0
 10
153.746637387
 20
59.5016558678
 30
0.0
  0
SPLINE
  5
4A4
100
AcDbEntity
  8
0
100
AcDbSpline
 62
7
  6
CONTINUOUS
 70
0
 71
3
 72
55
 73
51
 74
0
 42
0.0000001
 43
0.0000001
 44
0.0000000001
 40
0.0
 40
0.0
 40
0.0
 40
0.0
 40
0.0000667736
 40
0.0001916538
 40
0.0006525491
 40
0.0014057221
 40
0.0024536514
 40
0.0037968423
 40
0.0054352452
 40
0.0073683293
 40
0.0095948007
 40
0.0149220625
 40
0.0214051352
 40
0.0290298447
 40
0.0377768184
 40
0.047625822
 40
0.0585542153
 40
0.0705346662
 40
0.083539244
 40
0.1124949599
 40
0.1451453379
 40
0.1811784493
 40
0.2202514683
 40
0.2619921905
 40
0.3060020452
 40
0.3518617152
 40
0.3991340555
 40
0.4961062789
 40
0.5932294508
 40
0.6868063354
 40
0.7311440724
 40
0.7732794993
 40
0.8128095915
 40
0.8493576665
 40
0.8825758415
 40
0.9121469733
 40
0.9377898605
 40
0.9490608312
 40
0.959260965
 40
0.9683658019
 40
0.9763548889
 40
0.9832082353
 40
0.9889098
 40
0.993447432
 40
0.9952761434
 40
0.996809887
 40
0.9980483661
 40
0.9989916697
 40
0.9996407189
 40
1.0
 40
1.0
 40
1.0
 40
1.0
 10
162.9971934918
 20
94.5016558688
 30
0.0
 10
162.9987518046
 20
94.5016558688
 30
0.0
 10
163.0024509963
 20
94.4979726326
 30
0.0
 10
163.0077739619
 20
94.4841366646
 30
0.0
 10
163.0145184085
 20
94.4530751974
 30
0.0
 10
163.0216594124
 20
94.4010291059
 30
0.0
 10
163.0292231218
 20
94.3279134422
 30
0.0
 10
163.0368034009
 20
94.2342225788
 30
0.0
 10
163.0444701171
 20
94.1197651221
 30
0.0
 10
163.0521548951
 20
93.9846789951
 30
0.0
 10
163.0630964854
 20
93.7635494009
 30
0.0
 10
163.0764149569
 20
93.4362358421
 30
0.0
 10
163.0917148089
 20
92.9829309531
 30
0.0
 10
163.1070711931
 20
92.4497831892
 30
0.0
 10
163.1224793994
 20
91.8380573337
 30
0.0
 10
163.1379154129
 20
91.1492117554
 30
0.0
 10
163.1533694209
 20
90.3848891951
 30
0.0
 10
163.1688409369
 20
89.5469109079
 30
0.0
 10
163.1902583904
 20
88.2882637703
 30
0.0
 10
163.2166852388
 20
86.5472545539
 30
0.0
 10
163.2474561303
 20
84.2688304771
 30
0.0
 10
163.2782798352
 20
81.7542775851
 30
0.0
 10
163.3091439357
 20
79.0275669825
 30
0.0
 10
163.3400353814
 20
76.1146903013
 30
0.0
 10
163.3709472852
 20
73.0434236419
 30
0.0
 10
163.4018733203
 20
69.8430581007
 30
0.0
 10
163.4434723857
 20
65.4067418011
 30
0.0
 10
163.4947287216
 20
59.7741141685
 30
0.0
 10
163.5557404635
 20
53.0609096311
 30
0.0
 10
163.6073871529
 20
47.5760151479
 30
0.0
 10
163.6493630631
 20
43.3743504903
 30
0.0
 10
163.680259491
 20
40.4339423156
 30
0.0
 10
163.7111288622
 20
37.6753337582
 30
0.0
 10
163.7419618957
 20
35.1248429118
 30
0.0
 10
163.7727375386
 20
32.8067844441
 30
0.0
 10
163.8034423056
 20
30.743247094
 30
0.0
 10
163.8299330713
 20
29.1918937578
 30
0.0
 10
163.8514857493
 20
28.092593086
 30
0.0
 10
163.8669287213
 20
27.3792010711
 30
0.0
 10
163.8823452234
 20
26.7424181618
 30
0.0
 10
163.8977243397
 20
26.1837654778
 30
0.0
 10
163.9130361962
 20
25.704565665
 30
0.0
 10
163.9282816329
 20
25.3059651559
 30
0.0
 10
163.9415895396
 20
25.0246312393
 30
0.0
 10
163.9526443305
 20
24.8406059419
 30
0.0
 10
163.9602529667
 20
24.7334735101
 30
0.0
 10
163.9679009844
 20
24.647165542
 30
0.0
 10
163.975139831
 20
24.5813194868
 30
0.0
 10
163.9827184415
 20
24.5367224463
 30
0.0
 10
163.9879923038
 20
24.5132742035
 30
0.0
 10
163.992178205
 20
24.5060091951
 30
0.0
  0
SPLINE
  5
4A5
100
AcDbEntity
  8
0
100
AcDbSpline
 62
7
  6
CONTINUOUS
 70
0
 71
3
 72
10
 73
6
 74
0
 42
0.0000001
 43
0.0000001
 44
0.0000000001
 40
0.0
 40
0.0
 40
0.0
 40
0.0
 40
0.2500357683
 40
0.5000715343
 40
1.0
 40
1.0
 40
1.0
 40
1.0
 10
153.746637387
 20
59.5016558678
 30
0.0
 10
153.7466373838
 20
58.3190966223
 30
0.0
 10
153.6790608234
 20
55.9533608099
 30
0.0
 10
153.2797818799
 20
51.2389151836
 30
0.0
 10
152.6994904327
 20
47.7322065001
 30
0.0
 10
152.2128074385
 20
45.4183947481
 30
0.0
  0
SPLINE
  5
4A6
100
AcDbEntity
  8
0
100
AcDbSpline
 62
7
  6
CONTINUOUS
 70
0
 71
3
 72
11
 73
7
 74
0
 42
0.0000001
 43
0.0000001
 44
0.0000000001
 40
0.0
 40
0.0
 40
0.0
 40
0.0
 40
0.2500001948
 40
0.5000000001
 40
0.7499998054
 40
1.0
 40
1.0
 40
1.0
 40
1.0
 10
146.2578623967
 20
45.4183947481
 30
0.0
 10
146.3326510143
 20
47.7648104051
 30
0.0
 10
146.4496971371
 20
52.4587697073
 30
0.0
 10
146.5105879544
 20
59.5016558717
 30
0.0
 10
146.4496971436
 20
66.5445420341
 30
0.0
 10
146.3326510143
 20
71.2385013346
 30
0.0
 10
146.2578623967
 20
73.5849169895
 30
0.0
  0
SPLINE
  5
4A7
100
AcDbEntity
  8
0
100
AcDbSpline
 62
7
  6
CONTINUOUS
 70
0
 71
3
 72
55
 73
51
 74
0
 42
0.0000001
 43
0.0000001
 44
0.0000000001
 40
0.0
 40
0.0
 40
0.0
 40
0.0
 40
0.0000668172
 40
0.0001917134
 40
0.0006526163
 40
0.0014057889
 40
0.0024537174
 40
0.0037969102
 40
0.0054353198
 40
0.0073684193
 40
0.0095949141
 40
0.0149222332
 40
0.0214053581
 40
0.0290301459
 40
0.0377771933
 40
0.0476261946
 40
0.0585545537
 40
0.0705349694
 40
0.0835395085
 40
0.1124952233
 40
0.1451455934
 40
0.1811786839
 40
0.2202516812
 40
0.2619923762
 40
0.3060021794
 40
0.3518618127
 40
0.3991342037
 40
0.4961053716
 40
0.5932277384
 40
0.6868045366
 40
0.7311424753
 40
0.7732782491
 40
0.8128087944
 40
0.8493574105
 40
0.8825760292
 40
0.9121471527
 40
0.9377899658
 40
0.9490609204
 40
0.9592610479
 40
0.9683658683
 40
0.976354936
 40
0.9832082708
 40
0.9889098233
 40
0.9934474468
 40
0.995276158
 40
0.9968099035
 40
0.9980483849
 40
0.9989916903
 40
0.9996407373
 40
1.0
 40
1.0
 40
1.0
 40
1.0
 10
160.9971924595
 20
94.5016558688
 30
0.0
 10
160.9987517888
 20
94.5016558688
 30
0.0
 10
161.002454074
 20
94.4979745256
 30
0.0
 10
161.0077809734
 20
94.4841364644
 30
0.0
 10
161.0145260365
 20
94.4530760192
 30
0.0
 10
161.0216662433
 20
94.4010287811
 30
0.0
 10
161.0292271842
 20
94.3279131824
 30
0.0
 10
161.0368043311
 20
94.2342217378
 30
0.0
 10
161.044468419
 20
94.1197635941
 30
0.0
 10
161.0521519636
 20
93.9846763145
 30
0.0
 10
161.063093143
 20
93.7635444529
 30
0.0
 10
161.0764130695
 20
93.4362278341
 30
0.0
 10
161.0917147576
 20
92.9829185949
 30
0.0
 10
161.107071354
 20
92.4497660418
 30
0.0
 10
161.1224791362
 20
91.8380366511
 30
0.0
 10
161.137914758
 20
91.1491901615
 30
0.0
 10
161.1533686799
 20
90.3848692325
 30
0.0
 10
161.1688402107
 20
89.5468934266
 30
0.0
 10
161.1902577712
 20
88.2882479794
 30
0.0
 10
161.2166844907
 20
86.5472397861
 30
0.0
 10
161.2474553737
 20
84.2688162918
 30
0.0
 10
161.2782790849
 20
81.75426445
 30
0.0
 10
161.3091431641
 20
79.0275553388
 30
0.0
 10
161.3400345992
 20
76.1146808544
 30
0.0
 10
161.3709464949
 20
73.0434167334
 30
0.0
 10
161.4018725384
 20
69.8430519077
 30
0.0
 10
161.4434713999
 20
65.4067596887
 30
0.0
 10
161.4947274013
 20
59.7741740077
 30
0.0
 10
161.5557387747
 20
53.0610145661
 30
0.0
 10
161.6073852766
 20
47.5761359011
 30
0.0
 10
161.6493612844
 20
43.3744602455
 30
0.0
 10
161.6802579274
 20
40.4340285463
 30
0.0
 10
161.7111275843
 20
37.6753885546
 30
0.0
 10
161.7419610707
 20
35.1248640249
 30
0.0
 10
161.7727369524
 20
32.8067826514
 30
0.0
 10
161.8034420675
 20
30.7432367686
 30
0.0
 10
161.8299325666
 20
29.1918856486
 30
0.0
 10
161.8514851759
 20
28.0925871729
 30
0.0
 10
161.866928486
 20
27.3791960381
 30
0.0
 10
161.8823455529
 20
26.7424140925
 30
0.0
 10
161.8977248003
 20
26.1837624905
 30
0.0
 10
161.9130352502
 20
25.7045636176
 30
0.0
 10
161.9282786266
 20
25.3059637635
 30
0.0
 10
161.9415864095
 20
25.0246303095
 30
0.0
 10
161.9526440084
 20
24.8406053037
 30
0.0
 10
161.9602560407
 20
24.7334730487
 30
0.0
 10
161.9679075813
 20
24.6471651291
 30
0.0
 10
161.9751489371
 20
24.5813195977
 30
0.0
 10
161.9827279102
 20
24.5367224892
 30
0.0
 10
161.9879998025
 20
24.5132752746
 30
0.0
 10
161.9921829752
 20
24.5060091893
 30
0.0
  0
SPLINE
  5
4A8
100
AcDbEntity
  8
0
100
AcDbSpline
 62
7
  6
CONTINUOUS
 70
0
 71
3
 72
10
 73
6
 74
0
 42
0.0000001
 43
0.0000001
 44
0.0000000001
 40
0.0
 40
0.0
 40
0.0
 40
0.0
 40
0.5026024073
 40
0.7516874912
 40
1.0
 40
1.0
 40
1.0
 40
1.0
 10
152.2128074385
 20
44.0041811858
 30
0.0
 10
152.6955665306
 20
42.3812604273
 30
0.0
 10
153.2772871531
 20
39.9062870552
 30
0.0
 10
153.6787980614
 20
36.5588657397
 30
0.0
 10
153.7466373936
 20
34.8823435108
 30
0.0
 10
153.746637387
 20
34.0458117467
 30
0.0
  0
SPLINE
  5
4A9
100
AcDbEntity
  8
0
100
AcDbSpline
 62
7
  6
CONTINUOUS
 70
0
 71
3
 72
10
 73
6
 74
0
 42
0.0000001
 43
0.0000001
 44
0.0000000001
 40
0.0
 40
0.0
 40
0.0
 40
0.0
 40
0.2483125138
 40
0.4973976016
 40
1.0
 40
1.0
 40
1.0
 40
1.0
 10
153.746637387
 20
34.0458117467
 30
0.0
 10
153.7466373804
 20
33.2092799657
 30
0.0
 10
153.6787980641
 20
31.5327577066
 30
0.0
 10
153.2772871401
 20
28.1853363914
 30
0.0
 10
152.6955665221
 20
25.7103630364
 30
0.0
 10
152.2128074385
 20
24.0874423064
 30
0.0
  0
SPLINE
  5
4AA
100
AcDbEntity
  8
0
100
AcDbSpline
 62
7
  6
CONTINUOUS
 70
0
 71
3
 72
11
 73
7
 74
0
 42
0.0000001
 43
0.0000001
 44
0.0000000001
 40
0.0
 40
0.0
 40
0.0
 40
0.0
 40
0.2500332824
 40
0.5000000001
 40
0.7499667178
 40
1.0
 40
1.0
 40
1.0
 40
1.0
 10
146.2578623967
 20
24.0874423064
 30
0.0
 10
146.3326355681
 20
25.7462660575
 30
0.0
 10
146.4496839951
 20
29.0650700568
 30
0.0
 10
146.5105918382
 20
34.0458117481
 30
0.0
 10
146.4496840016
 20
39.0265534381
 30
0.0
 10
146.332635568
 20
42.3453574362
 30
0.0
 10
146.2578623967
 20
44.0041811858
 30
0.0
  0
SPLINE
  5
4AB
100
AcDbEntity
  8
0
100
AcDbSpline
 62
7
  6
CONTINUOUS
 70
0
 71
3
 72
56
 73
52
 74
0
 42
0.0000001
 43
0.0000001
 44
0.0000000001
 40
0.0
 40
0.0
 40
0.0
 40
0.0
 40
0.000080448
 40
0.0002308659
 40
0.0004537577
 40
0.0007497455
 40
0.0015617021
 40
0.0026672502
 40
0.0040662175
 40
0.0057582515
 40
0.0077426831
 40
0.010018162
 40
0.0154363409
 40
0.0220008723
 40
0.0296979302
 40
0.0385083877
 40
0.0484121457
 40
0.0593872566
 40
0.0714068357
 40
0.0844431683
 40
0.1134435391
 40
0.1461169358
 40
0.1821567052
 40
0.221224699
 40
0.2629519209
 40
0.3069442215
 40
0.3527864211
 40
0.4000444105
 40
0.4970029617
 40
0.5941383097
 40
0.6877498257
 40
0.7321071314
 40
0.7742589694
 40
0.8137989459
 40
0.8503464408
 40
0.8835484891
 40
0.9130823109
 40
0.9386620091
 40
0.9498901087
 40
0.960039212
 40
0.9690841347
 40
0.977003974
 40
0.9837783064
 40
0.989390429
 40
0.9938276631
 40
0.9956018519
 40
0.9970780118
 40
0.9982556744
 40
0.9991346382
 40
0.9997151726
 40
1.0
 40
1.0
 40
1.0
 40
1.0
 10
168.9054835457
 20
94.3428097101
 30
0.0
 10
168.9067929215
 20
94.3415003343
 30
0.0
 10
168.9085036714
 20
94.3361752414
 30
0.0
 10
168.9108399904
 20
94.3261789566
 30
0.0
 10
168.913119658
 20
94.3108409773
 30
0.0
 10
168.9166933496
 20
94.2804679862
 30
0.0
 10
168.9208248873
 20
94.2296360894
 30
0.0
 10
168.925580701
 20
94.1534647112
 30
0.0
 10
168.9303569811
 20
94.0569776822
 30
0.0
 10
168.9351781688
 20
93.9402538388
 30
0.0
 10
168.9400130276
 20
93.8033368032
 30
0.0
 10
168.9468840106
 20
93.5806741623
 30
0.0
 10
168.9552618071
 20
93.2525864582
 30
0.0
 10
168.9648947833
 20
92.7997029483
 30
0.0
 10
168.9745631784
 20
92.2687220576
 30
0.0
 10
168.9842648398
 20
91.6608692174
 30
0.0
 10
168.9939863856
 20
90.9775545458
 30
0.0
 10
169.0037215244
 20
90.2203664185
 30
0.0
 10
169.0134700327
 20
89.3910680176
 30
0.0
 10
169.0269645923
 20
88.1468833303
 30
0.0
 10
169.0436254549
 20
86.4272999319
 30
0.0
 10
169.0630399792
 20
84.1782309488
 30
0.0
 10
169.0824980039
 20
81.6974198137
 30
0.0
 10
169.1019916919
 20
79.0082038019
 30
0.0
 10
169.1215133937
 20
76.1359335937
 30
0.0
 10
169.1410585046
 20
73.1077327093
 30
0.0
 10
169.1606233321
 20
69.9522232148
 30
0.0
 10
169.1869565626
 20
65.5775647566
 30
0.0
 10
169.2194308733
 20
60.0222655449
 30
0.0
 10
169.2581250647
 20
53.4000274095
 30
0.0
 10
169.2909139922
 20
47.9885413618
 30
0.0
 10
169.3175876939
 20
43.8426423504
 30
0.0
 10
169.3372323302
 20
40.9413329434
 30
0.0
 10
169.3568705896
 20
38.2197926457
 30
0.0
 10
169.3764966147
 20
35.7042626353
 30
0.0
 10
169.3960964882
 20
33.4190598227
 30
0.0
 10
169.4156616767
 20
31.3863217927
 30
0.0
 10
169.4325544501
 20
29.8593749039
 30
0.0
 10
169.4463093673
 20
28.7786166922
 30
0.0
 10
169.4561630518
 20
28.0784348618
 30
0.0
 10
169.4660019299
 20
27.4544097358
 30
0.0
 10
169.4758194144
 20
26.9080759804
 30
0.0
 10
169.4855892601
 20
26.4407682465
 30
0.0
 10
169.4953248851
 20
26.053650888
 30
0.0
 10
169.5038117358
 20
25.781613566
 30
0.0
 10
169.5109163085
 20
25.604824225
 30
0.0
 10
169.5157273175
 20
25.5029691308
 30
0.0
 10
169.5207319195
 20
25.4219194326
 30
0.0
 10
169.5250239962
 20
25.361090589
 30
0.0
 10
169.5303721904
 20
25.3217942212
 30
0.0
 10
169.5329452357
 20
25.301367841
 30
0.0
 10
169.5362104565
 20
25.2956826965
 30
0.0
  0
SPLINE
  5
4AC
100
AcDbEntity
  8
0
100
AcDbSpline
 62
7
  6
CONTINUOUS
 70
0
 71
3
 72
23
 73
19
 74
0
 42
0.0000001
 43
0.0000001
 44
0.0000000001
 40
0.0
 40
0.0
 40
0.0
 40
0.0
 40
0.0023951074
 40
0.0067110579
 40
0.0129803002
 40
0.0212069035
 40
0.0313886556
 40
0.0435213464
 40
0.0736185533
 40
0.111442809
 40
0.1569001541
 40
0.2098883846
 40
0.2702937334
 40
0.3379645976
 40
0.4127411905
 40
0.5829268481
 40
0.7793363491
 40
1.0
 40
1.0
 40
1.0
 40
1.0
 10
159.9921784127
 20
24.5060258711
 30
0.0
 10
159.9880639746
 20
24.5131417158
 30
0.0
 10
159.9828341644
 20
24.5360729193
 30
0.0
 10
159.9753642459
 20
24.5796860169
 30
0.0
 10
159.9682131558
 20
24.6440228369
 30
0.0
 10
159.9606679541
 20
24.7283147135
 30
0.0
 10
159.953157615
 20
24.8328867418
 30
0.0
 10
159.9422457202
 20
25.0124170596
 30
0.0
 10
159.9291054902
 20
25.2868552933
 30
0.0
 10
159.9140601098
 20
25.675665862
 30
0.0
 10
159.8989430343
 20
26.1430870358
 30
0.0
 10
159.8837590913
 20
26.6880337241
 30
0.0
 10
159.8685440667
 20
27.3092400586
 30
0.0
 10
159.8532991477
 20
28.0052402981
 30
0.0
 10
159.8320204451
 20
29.0779494371
 30
0.0
 10
159.8058666335
 20
30.5924610707
 30
0.0
 10
159.7755571283
 20
32.6076362611
 30
0.0
 10
159.756359682
 20
34.0388534004
 30
0.0
 10
159.746637387
 20
34.7960823125
 30
0.0
  0
SPLINE
  5
4AD
100
AcDbEntity
  8
0
100
AcDbSpline
 62
7
  6
CONTINUOUS
 70
0
 71
3
 72
34
 73
30
 74
0
 42
0.0000001
 43
0.0000001
 44
0.0000000001
 40
0.0
 40
0.0
 40
0.0
 40
0.0
 40
0.0003021016
 40
0.0008117831
 40
0.0015331149
 40
0.0024670211
 40
0.0049727575
 40
0.0083275367
 40
0.01252808
 40
0.0175677755
 40
0.0234380493
 40
0.030130209
 40
0.0459392231
 40
0.0648931961
 40
0.0868752727
 40
0.111744965
 40
0.1393473281
 40
0.1695071067
 40
0.2020351209
 40
0.2367258467
 40
0.3117090501
 40
0.3925689746
 40
0.4772698474
 40
0.5636791641
 40
0.6496213682
 40
0.7329327526
 40
0.8115155501
 40
0.8833920923
 40
1.0
 40
1.0
 40
1.0
 40
1.0
 10
159.241429584
 20
25.8061768264
 30
0.0
 10
159.2383128215
 20
25.8115663377
 30
0.0
 10
159.233757074
 20
25.8279450924
 30
0.0
 10
159.2277060615
 20
25.8588168286
 30
0.0
 10
159.2216999378
 20
25.9031123223
 30
0.0
 10
159.2125231965
 20
25.988337247
 30
0.0
 10
159.2017824867
 20
26.127998502
 30
0.0
 10
159.1894722763
 20
26.3349631488
 30
0.0
 10
159.1771020406
 20
26.5942424496
 30
0.0
 10
159.1646332866
 20
26.9053960035
 30
0.0
 10
159.1521243187
 20
27.2679345365
 30
0.0
 10
159.1344045412
 20
27.8523575097
 30
0.0
 10
159.1127875295
 20
28.7064137533
 30
0.0
 10
159.0878929261
 20
29.8755762647
 30
0.0
 10
159.0629191478
 20
31.2315000613
 30
0.0
 10
159.0378719378
 20
32.7656782337
 30
0.0
 10
159.0127853759
 20
34.4684053771
 30
0.0
 10
158.987665787
 20
36.3289734354
 30
0.0
 10
158.962523911
 20
38.3356333939
 30
0.0
 10
158.9280808174
 20
41.2659882824
 30
0.0
 10
158.885614867
 20
45.1923606808
 30
0.0
 10
158.8357682658
 20
50.149341557
 30
0.0
 10
158.7858658628
 20
55.3418072748
 30
0.0
 10
158.7359346689
 20
60.6390150586
 30
0.0
 10
158.6860189853
 20
65.907586743
 30
0.0
 10
158.6361129138
 20
71.0148584273
 30
0.0
 10
158.5863910168
 20
75.832248489
 30
0.0
 10
158.5240413671
 20
81.3357243151
 30
0.0
 10
158.4736057725
 20
85.2197866336
 30
0.0
 10
158.4324236794
 20
87.6225382305
 30
0.0
  0
SPLINE
  5
4AE
100
AcDbEntity
  8
0
100
AcDbSpline
 62
7
  6
CONTINUOUS
 70
0
 71
3
 72
9
 73
5
 74
0
 42
0.0000001
 43
0.0000001
 44
0.0000000001
 40
0.0
 40
0.0
 40
0.0
 40
0.0
 40
0.3571328603
 40
1.0
 40
1.0
 40
1.0
 40
1.0
 10
165.2414295761
 20
25.806199134
 30
0.0
 10
165.2371764322
 20
25.8135557717
 30
0.0
 10
165.2317719131
 20
25.8372562868
 30
0.0
 10
165.2277036962
 20
25.8604763044
 30
0.0
 10
165.2255436372
 20
25.8756193826
 30
0.0
  0
SPLINE
  5
4AF
100
AcDbEntity
  8
0
100
AcDbSpline
 62
7
  6
CONTINUOUS
 70
0
 71
3
 72
46
 73
42
 74
0
 42
0.0000001
 43
0.0000001
 44
0.0000000001
 40
0.0
 40
0.0
 40
0.0
 40
0.0
 40
0.0021804542
 40
0.0055041369
 40
0.0099653728
 40
0.0155561816
 40
0.0300697632
 40
0.048913828
 40
0.0719134818
 40
0.0988577318
 40
0.1294985741
 40
0.1635521299
 40
0.2406151209
 40
0.3272085574
 40
0.4201440282
 40
0.5159991163
 40
0.6112436368
 40
0.6575363482
 40
0.7023702033
 40
0.7453308078
 40
0.7860225197
 40
0.8240696298
 40
0.859120423
 40
0.8908527394
 40
0.918972984
 40
0.9315962443
 40
0.9432216389
 40
0.9538235252
 40
0.9633765199
 40
0.971858289
 40
0.9792507145
 40
0.9855360757
 40
0.9906994708
 40
0.9928573017
 40
0.9947310257
 40
0.9963195664
 40
0.9976219684
 40
0.9986379301
 40
0.999368304
 40
0.9998161123
 40
1.0
 40
1.0
 40
1.0
 40
1.0
 10
165.2255436372
 20
25.8756193826
 30
0.0
 10
165.2186320427
 20
25.9240730658
 30
0.0
 10
165.2074412055
 20
26.0472075982
 30
0.0
 10
165.1927480307
 20
26.2703864068
 30
0.0
 10
165.1779991074
 20
26.5702914911
 30
0.0
 10
165.1560322818
 20
27.1212681477
 30
0.0
 10
165.1299932497
 20
27.9951698583
 30
0.0
 10
165.1001935368
 20
29.2598568617
 30
0.0
 10
165.0702197163
 20
30.8036384836
 30
0.0
 10
165.0400577885
 20
32.6122547271
 30
0.0
 10
165.0098087665
 20
34.6690248696
 30
0.0
 10
164.9676313878
 20
37.8507410511
 30
0.0
 10
164.9161728259
 20
42.2883950971
 30
0.0
 10
164.856332041
 20
48.0477431251
 30
0.0
 10
164.7963448478
 20
54.2289326174
 30
0.0
 10
164.7362804334
 20
60.6043187615
 30
0.0
 10
164.6857780315
 20
65.9327695095
 30
0.0
 10
164.6448052492
 20
70.1159971982
 30
0.0
 10
164.6143760791
 20
73.1256668745
 30
0.0
 10
164.5839607982
 20
76.0096057135
 30
0.0
 10
164.5535657901
 20
78.7411954342
 30
0.0
 10
164.5231984038
 20
81.295224147
 30
0.0
 10
164.4928701724
 20
83.6481287116
 30
0.0
 10
164.4625947962
 20
85.778187702
 30
0.0
 10
164.4365891986
 20
87.4048291268
 30
0.0
 10
164.4155139371
 20
88.5801530053
 30
0.0
 10
164.4002914837
 20
89.3622872334
 30
0.0
 10
164.3850865518
 20
90.0754900413
 30
0.0
 10
164.3699019888
 20
90.7181117725
 30
0.0
 10
164.3547429507
 20
91.288669058
 30
0.0
 10
164.3396321432
 20
91.7858532446
 30
0.0
 10
164.3245787771
 20
92.2085062327
 30
0.0
 10
164.3114670544
 20
92.5136651837
 30
0.0
 10
164.3007075639
 20
92.7197647094
 30
0.0
 10
164.2931381289
 20
92.8457348612
 30
0.0
 10
164.2856368479
 20
92.9522996383
 30
0.0
 10
164.2780951938
 20
93.0400269461
 30
0.0
 10
164.2709002867
 20
93.1071849209
 30
0.0
 10
164.2633237679
 20
93.1579581768
 30
0.0
 10
164.2573704382
 20
93.1841275958
 30
0.0
 10
164.2507647951
 20
93.2016172326
 30
0.0
 10
164.2466371235
 20
93.2016275455
 30
0.0
  0
SPLINE
  5
4B0
100
AcDbEntity
  8
0
100
AcDbSpline
 62
7
  6
CONTINUOUS
 70
0
 71
3
 72
13
 73
9
 74
0
 42
0.0000001
 43
0.0000001
 44
0.0000000001
 40
0.0
 40
0.0
 40
0.0
 40
0.0
 40
0.1029366113
 40
0.2226820741
 40
0.4923637425
 40
0.765738041
 40
0.8902231724
 40
1.0
 40
1.0
 40
1.0
 40
1.0
 10
158.5395306058
 20
84.1891916105
 30
0.0
 10
158.5961805565
 20
82.4948403099
 30
0.0
 10
158.7040423065
 20
78.8289747257
 30
0.0
 10
158.9101199006
 20
70.7226813174
 30
0.0
 10
159.1505755062
 20
59.8094121133
 30
0.0
 10
159.388460416
 20
48.8180227278
 30
0.0
 10
159.5890264025
 20
40.4599902874
 30
0.0
 10
159.6928919345
 20
36.6032352016
 30
0.0
 10
159.746637387
 20
34.7960823125
 30
0.0
  0
SPLINE
  5
4B1
100
AcDbEntity
  8
0
100
AcDbSpline
 62
7
  6
CONTINUOUS
 70
0
 71
3
 72
9
 73
5
 74
0
 42
0.0000001
 43
0.0000001
 44
0.0000000001
 40
0.0
 40
0.0
 40
0.0
 40
0.0
 40
0.3805685865
 40
1.0
 40
1.0
 40
1.0
 40
1.0
 10
161.2414305548
 20
25.8062057691
 30
0.0
 10
161.2387820753
 20
25.8107951002
 30
0.0
 10
161.2346840216
 20
25.8243069569
 30
0.0
 10
161.2318061116
 20
25.8378656428
 30
0.0
 10
161.2302486666
 20
25.8463482941
 30
0.0
  0
SPLINE
  5
4B2
100
AcDbEntity
  8
0
100
AcDbSpline
 62
7
  6
CONTINUOUS
 70
0
 71
3
 72
48
 73
44
 74
0
 42
0.0000001
 43
0.0000001
 44
0.0000000001
 40
0.0
 40
0.0
 40
0.0
 40
0.0
 40
0.0018383979
 40
0.0048323692
 40
0.00897667
 40
0.0142625536
 40
0.0206796886
 40
0.0282121968
 40
0.0465515725
 40
0.0691112096
 40
0.0956821754
 40
0.1260156734
 40
0.1598300976
 40
0.1968107622
 40
0.2366121869
 40
0.323173745
 40
0.4162961448
 40
0.5125174016
 40
0.6082598627
 40
0.6548349749
 40
0.6999639117
 40
0.7432264877
 40
0.7842200464
 40
0.8225617029
 40
0.8578951323
 40
0.8898913275
 40
0.9182511127
 40
0.9309844148
 40
0.9427118139
 40
0.953406958
 40
0.963045467
 40
0.9716035359
 40
0.9790621459
 40
0.9854047806
 40
0.9906154863
 40
0.992792748
 40
0.9946833053
 40
0.9962862567
 40
0.9976008107
 40
0.9986264128
 40
0.9993634239
 40
0.9998149832
 40
1.0
 40
1.0
 40
1.0
 40
1.0
 10
161.2302486666
 20
25.8463482941
 30
0.0
 10
161.2227933523
 20
25.8869537941
 30
0.0
 10
161.2118203792
 20
25.9950998009
 30
0.0
 10
161.1970247955
 20
26.1960586209
 30
0.0
 10
161.1823843734
 20
26.4747351701
 30
0.0
 10
161.1672973851
 20
26.8302779972
 30
0.0
 10
161.1521960374
 20
27.2619887464
 30
0.0
 10
161.1304815578
 20
27.9867654514
 30
0.0
 10
161.1042240826
 20
29.0740669922
 30
0.0
 10
161.0740860253
 20
30.588917337
 30
0.0
 10
161.0438182371
 20
32.3731596956
 30
0.0
 10
161.0134320021
 20
34.4101752516
 30
0.0
 10
160.9829832525
 20
36.680980068
 30
0.0
 10
160.9524856932
 20
39.1644192554
 30
0.0
 10
160.9106008631
 20
42.8323299167
 30
0.0
 10
160.8592021078
 20
47.7609670666
 30
0.0
 10
160.7989298747
 20
53.9565780504
 30
0.0
 10
160.7385924808
 20
60.3583699849
 30
0.0
 10
160.6878676815
 20
65.7149104544
 30
0.0
 10
160.6467117979
 20
69.9241280663
 30
0.0
 10
160.6161367697
 20
72.9548707952
 30
0.0
 10
160.5855761829
 20
75.8602641393
 30
0.0
 10
160.555036237
 20
78.6132293869
 30
0.0
 10
160.5245226891
 20
81.1881213474
 30
0.0
 10
160.4940497877
 20
83.5609481209
 30
0.0
 10
160.4636299745
 20
85.7095960992
 30
0.0
 10
160.4374995294
 20
87.3507292192
 30
0.0
 10
160.4163251342
 20
88.5367112014
 30
0.0
 10
160.4010299964
 20
89.3260455684
 30
0.0
 10
160.3857506098
 20
90.0458673603
 30
0.0
 10
160.3704939806
 20
90.6944998575
 30
0.0
 10
160.3552631125
 20
91.2704282478
 30
0.0
 10
160.3400777257
 20
91.7723170413
 30
0.0
 10
160.324952611
 20
92.1989908353
 30
0.0
 10
160.3117797365
 20
92.5070693528
 30
0.0
 10
160.3009674552
 20
92.7151360653
 30
0.0
 10
160.2933612873
 20
92.8423003893
 30
0.0
 10
160.2858232719
 20
92.9498844333
 30
0.0
 10
160.2782453499
 20
93.0384696323
 30
0.0
 10
160.2710182418
 20
93.1062800801
 30
0.0
 10
160.2634060992
 20
93.157561431
 30
0.0
 10
160.2574250568
 20
93.1839397236
 30
0.0
 10
160.2507918589
 20
93.2016118628
 30
0.0
 10
160.2466370044
 20
93.2016134218
 30
0.0
  0
SPLINE
  5
4B3
100
AcDbEntity
  8
0
100
AcDbSpline
 62
7
  6
CONTINUOUS
 70
0
 71
3
 72
10
 73
6
 74
0
 42
0.0000001
 43
0.0000001
 44
0.0000000001
 40
0.0
 40
0.0
 40
0.0
 40
0.0
 40
0.2157181221
 40
0.4600134063
 40
1.0
 40
1.0
 40
1.0
 40
1.0
 10
152.2128074385
 20
74.9991305519
 30
0.0
 10
152.1835770223
 20
74.9008648744
 30
0.0
 10
152.1413501662
 20
74.6851844329
 30
0.0
 10
152.1152399883
 20
74.2097778099
 30
0.0
 10
152.159983981
 20
73.8360528179
 30
0.0
 10
152.2128074385
 20
73.5849169895
 30
0.0
  0
SPLINE
  5
4B4
100
AcDbEntity
  8
0
100
AcDbSpline
 62
7
  6
CONTINUOUS
 70
0
 71
3
 72
10
 73
6
 74
0
 42
0.0000001
 43
0.0000001
 44
0.0000000001
 40
0.0
 40
0.0
 40
0.0
 40
0.0
 40
0.5400051508
 40
0.7842913776
 40
1.0
 40
1.0
 40
1.0
 40
1.0
 10
152.2128074385
 20
45.4183947481
 30
0.0
 10
152.1599821602
 20
45.1672502634
 30
0.0
 10
152.1152407843
 20
44.7935204765
 30
0.0
 10
152.1413491746
 20
44.3181134928
 30
0.0
 10
152.1835783066
 20
44.102442546
 30
0.0
 10
152.2128074385
 20
44.0041811858
 30
0.0
  0
SPLINE
  5
4B5
100
AcDbEntity
  8
0
100
AcDbSpline
 62
7
  6
CONTINUOUS
 70
0
 71
3
 72
14
 73
10
 74
0
 42
0.0000001
 43
0.0000001
 44
0.0000000001
 40
0.0
 40
0.0
 40
0.0
 40
0.0
 40
0.401330557
 40
0.5631351059
 40
0.696402354
 40
0.801403262
 40
0.8805118478
 40
0.9415299918
 40
1.0
 40
1.0
 40
1.0
 40
1.0
 10
152.2128074385
 20
24.0874423064
 30
0.0
 10
152.1885630783
 20
24.0059385583
 30
0.0
 10
152.1579370486
 20
23.8903367916
 30
0.0
 10
152.1339601102
 20
23.7446331873
 30
0.0
 10
152.1276286677
 20
23.6599302526
 30
0.0
 10
152.1315789319
 20
23.5925419146
 30
0.0
 10
152.145798975
 20
23.5418361469
 30
0.0
 10
152.1740822673
 20
23.5078851814
 30
0.0
 10
152.2004189137
 20
23.5016558688
 30
0.0
 10
152.2128074385
 20
23.5016558688
 30
0.0
  0
SPLINE
  5
4B6
100
AcDbEntity
  8
0
100
AcDbSpline
 62
7
  6
CONTINUOUS
 70
0
 71
3
 72
55
 73
51
 74
0
 42
0.0000001
 43
0.0000001
 44
0.0000000001
 40
0.0
 40
0.0
 40
0.0
 40
0.0
 40
0.0003589508
 40
0.0010075155
 40
0.0019504756
 40
0.003189031
 40
0.0047231317
 40
0.006551854
 40
0.0110886824
 40
0.0167901079
 40
0.0236438104
 40
0.0316322314
 40
0.0407370746
 40
0.0509374691
 40
0.0622078054
 40
0.0878510499
 40
0.1174220705
 40
0.1506401982
 40
0.1871883501
 40
0.2267176804
 40
0.2688521817
 40
0.313189875
 40
0.4067666843
 40
0.5038886089
 40
0.6008607475
 40
0.6481337553
 40
0.6939941583
 40
0.7380043473
 40
0.7797453832
 40
0.8188191882
 40
0.8548526506
 40
0.8875032512
 40
0.9164596128
 40
0.9294642434
 40
0.9414449411
 40
0.9523734714
 40
0.9622224971
 40
0.9709696988
 40
0.9785945512
 40
0.9850776433
 40
0.9904050023
 40
0.9926315062
 40
0.9945645864
 40
0.9962029652
 40
0.9975461541
 40
0.9985940967
 40
0.9993472932
 40
0.9998082251
 40
0.9999331422
 40
1.0
 40
1.0
 40
1.0
 40
1.0
 10
167.9921792073
 20
24.5060335804
 30
0.0
 10
167.9879930443
 20
24.5132895368
 30
0.0
 10
167.9827160325
 20
24.5367181448
 30
0.0
 10
167.9751378356
 20
24.5812875373
 30
0.0
 10
167.9678993587
 20
24.6471162625
 30
0.0
 10
167.9602537902
 20
24.7334264134
 30
0.0
 10
167.9526480283
 20
24.8405694676
 30
0.0
 10
167.9415941609
 20
25.0245845594
 30
0.0
 10
167.9282834564
 20
25.3058965184
 30
0.0
 10
167.9130383585
 20
25.7044832628
 30
0.0
 10
167.897727646
 20
26.1836725173
 30
0.0
 10
167.8823460147
 20
26.7423179269
 30
0.0
 10
167.8669304645
 20
27.3790914124
 30
0.0
 10
167.8514884289
 20
28.092474716
 30
0.0
 10
167.8299335025
 20
29.191774724
 30
0.0
 10
167.8034445433
 20
30.7431186989
 30
0.0
 10
167.7727383509
 20
32.8066602246
 30
0.0
 10
167.7419625524
 20
35.1247162906
 30
0.0
 10
167.7111299938
 20
37.675189502
 30
0.0
 10
167.6802607127
 20
40.4337598766
 30
0.0
 10
167.6493643607
 20
43.3741270177
 30
0.0
 10
167.6073889209
 20
47.5757664006
 30
0.0
 10
167.5557420475
 20
53.0606278197
 30
0.0
 10
167.4947306392
 20
59.7737980769
 30
0.0
 10
167.4434745425
 20
65.4064089951
 30
0.0
 10
167.4018751136
 20
69.8427550474
 30
0.0
 10
167.3709489487
 20
73.0431603861
 30
0.0
 10
167.3400367898
 20
76.1144586133
 30
0.0
 10
167.3091449067
 20
79.0273681308
 30
0.0
 10
167.2782808318
 20
81.7541120064
 30
0.0
 10
167.247456869
 20
84.2686960903
 30
0.0
 10
167.2166853655
 20
86.5471481301
 30
0.0
 10
167.1902590671
 20
88.2881784804
 30
0.0
 10
167.1688406492
 20
89.5468473941
 30
0.0
 10
167.1533690696
 20
90.3848356882
 30
0.0
 10
167.1379150653
 20
91.1491675606
 30
0.0
 10
167.1224793622
 20
91.8380220329
 30
0.0
 10
167.1070720672
 20
92.4497569543
 30
0.0
 10
167.0917153551
 20
92.9829137103
 30
0.0
 10
167.0764119363
 20
93.4362244472
 30
0.0
 10
167.0630909404
 20
93.7635413124
 30
0.0
 10
167.0521502101
 20
93.9846738234
 30
0.0
 10
167.0444677538
 20
94.1197601828
 30
0.0
 10
167.0368058795
 20
94.2342171321
 30
0.0
 10
167.029231547
 20
94.327908413
 30
0.0
 10
167.021673081
 20
94.4010247352
 30
0.0
 10
167.0145336344
 20
94.4530743659
 30
0.0
 10
167.0077879959
 20
94.48413526
 30
0.0
 10
167.0024576824
 20
94.4979758386
 30
0.0
 10
166.9987526071
 20
94.5016558688
 30
0.0
 10
166.9971923295
 20
94.5016558688
 30
0.0
  0
SPLINE
  5
4B7
100
AcDbEntity
  8
0
100
AcDbSpline
 62
7
  6
CONTINUOUS
 70
0
 71
3
 72
9
 73
5
 74
0
 42
0.0000001
 43
0.0000001
 44
0.0000000001
 40
0.0
 40
0.0
 40
0.0
 40
0.0
 40
0.36122438
 40
1.0
 40
1.0
 40
1.0
 40
1.0
 10
167.2414303901
 20
25.8062004647
 30
0.0
 10
167.2375134967
 20
25.812991594
 30
0.0
 10
167.2323245468
 20
25.8345141494
 30
0.0
 10
167.2284997946
 20
25.8556949962
 30
0.0
 10
167.2264551118
 20
25.8694068833
 30
0.0
  0
SPLINE
  5
4B8
100
AcDbEntity
  8
0
100
AcDbSpline
 62
7
  6
CONTINUOUS
 70
0
 71
3
 72
47
 73
43
 74
0
 42
0.0000001
 43
0.0000001
 44
0.0000000001
 40
0.0
 40
0.0
 40
0.0
 40
0.0
 40
0.0021136424
 40
0.0053740773
 40
0.0097746953
 40
0.015305985
 40
0.0297116485
 40
0.0484579162
 40
0.0713728969
 40
0.0982458063
 40
0.1288269704
 40
0.1628348334
 40
0.1999550821
 40
0.2398437256
 40
0.3264315094
 40
0.4194031949
 40
0.5153288793
 40
0.6106693062
 40
0.6570165882
 40
0.7019069524
 40
0.7449259392
 40
0.7856758588
 40
0.823779223
 40
0.8588849058
 40
0.8906678594
 40
0.9188338271
 40
0.9314785517
 40
0.9431239507
 40
0.9537431349
 40
0.9633127565
 40
0.9718097346
 40
0.9792142323
 40
0.9855106475
 40
0.9906838105
 40
0.9928451353
 40
0.9947217027
 40
0.9963127533
 40
0.9976176369
 40
0.998635938
 40
0.9993678597
 40
0.9998162055
 40
1.0
 40
1.0
 40
1.0
 40
1.0
 10
167.2264551118
 20
25.8694068833
 30
0.0
 10
167.2194570321
 20
25.9163368399
 30
0.0
 10
167.2082821066
 20
26.0365642565
 30
0.0
 10
167.193585046
 20
26.2554673726
 30
0.0
 10
167.1788488663
 20
26.5512828517
 30
0.0
 10
167.1568341324
 20
27.0971836958
 30
0.0
 10
167.130790413
 20
27.9652116786
 30
0.0
 10
167.1009642893
 20
29.2234945206
 30
0.0
 10
167.0709723189
 20
30.7617211219
 30
0.0
 10
167.0407857006
 20
32.5656626357
 30
0.0
 10
167.0105123255
 20
34.6186566436
 30
0.0
 10
166.9801719185
 20
36.901712529
 30
0.0
 10
166.9497873183
 20
39.393726962
 30
0.0
 10
166.9080858767
 20
43.0660488859
 30
0.0
 10
166.8568962819
 20
47.9921431497
 30
0.0
 10
166.7968434022
 20
54.1761784936
 30
0.0
 10
166.7367290464
 20
60.5567089701
 30
0.0
 10
166.6861825433
 20
65.8906186136
 30
0.0
 10
166.6451747886
 20
70.07888239
 30
0.0
 10
166.6147168407
 20
73.0926365044
 30
0.0
 10
166.5842736872
 20
75.9807297419
 30
0.0
 10
166.5538508974
 20
78.7164539598
 30
0.0
 10
166.5234542976
 20
81.2745222195
 30
0.0
 10
166.4930989268
 20
83.6312776851
 30
0.0
 10
166.4627954227
 20
85.7649304107
 30
0.0
 10
166.4367650034
 20
87.3943683243
 30
0.0
 10
166.4156707092
 20
88.5717590197
 30
0.0
 10
166.4004353573
 20
89.3552853555
 30
0.0
 10
166.3852143455
 20
90.0697651925
 30
0.0
 10
166.3700159082
 20
90.7135497771
 30
0.0
 10
166.3548450309
 20
91.2851459527
 30
0.0
 10
166.3397176526
 20
91.7832369773
 30
0.0
 10
166.3246494183
 20
92.2066676985
 30
0.0
 10
166.3115291053
 20
92.5124011991
 30
0.0
 10
166.3007581492
 20
92.7188812952
 30
0.0
 10
166.2931808917
 20
92.8450619913
 30
0.0
 10
166.2856722667
 20
92.9518117218
 30
0.0
 10
166.2781212091
 20
93.0397140569
 30
0.0
 10
166.2709262399
 20
93.1070153236
 30
0.0
 10
166.263334698
 20
93.1579070896
 30
0.0
 10
166.2573954759
 20
93.1841022572
 30
0.0
 10
166.2507628294
 20
93.2016222997
 30
0.0
 10
166.246636858
 20
93.2016163697
 30
0.0
  0
SPLINE
  5
4B9
100
AcDbEntity
  8
0
100
AcDbSpline
 62
7
  6
CONTINUOUS
 70
0
 71
3
 72
10
 73
6
 74
0
 42
0.0000001
 43
0.0000001
 44
0.0000000001
 40
0.0
 40
0.0
 40
0.0
 40
0.0
 40
0.1086586806
 40
0.3097095809
 40
1.0
 40
1.0
 40
1.0
 40
1.0
 10
158.8587203272
 20
25.3895729286
 30
0.0
 10
158.8574451542
 20
25.3908481016
 30
0.0
 10
158.8557346888
 20
25.395968728
 30
0.0
 10
158.8519794401
 20
25.4118844572
 30
0.0
 10
158.8503382371
 20
25.4267759697
 30
0.0
 10
158.8490833532
 20
25.4381635245
 30
0.0
  0
SPLINE
  5
4BA
100
AcDbEntity
  8
0
100
AcDbSpline
 62
7
  6
CONTINUOUS
 70
0
 71
3
 72
9
 73
5
 74
0
 42
0.0000001
 43
0.0000001
 44
0.0000000001
 40
0.0
 40
0.0
 40
0.0
 40
0.0
 40
0.3828194385
 40
1.0
 40
1.0
 40
1.0
 40
1.0
 10
158.8490833532
 20
25.4381635245
 30
0.0
 10
158.8444309338
 20
25.4803823148
 30
0.0
 10
158.837497686
 20
25.5911832542
 30
0.0
 10
158.8324163265
 20
25.7019968391
 30
0.0
 10
158.8296997355
 20
25.7704199914
 30
0.0
  0
SPLINE
  5
4BB
100
AcDbEntity
  8
0
100
AcDbSpline
 62
7
  6
CONTINUOUS
 70
0
 71
3
 72
17
 73
13
 74
0
 42
0.0000001
 43
0.0000001
 44
0.0000000001
 40
0.0
 40
0.0
 40
0.0
 40
0.0
 40
0.0172886543
 40
0.0423484042
 40
0.0749854282
 40
0.1149425093
 40
0.2154868886
 40
0.3407835605
 40
0.4868242734
 40
0.6489202765
 40
0.8218363106
 40
1.0
 40
1.0
 40
1.0
 40
1.0
 10
158.8296997355
 20
25.7704199914
 30
0.0
 10
158.8219033406
 20
25.9667888613
 30
0.0
 10
158.8086196165
 20
26.448009986
 30
0.0
 10
158.7912375399
 20
27.3002028119
 30
0.0
 10
158.7737100763
 20
28.4101209639
 30
0.0
 10
158.7480221261
 20
30.3780527974
 30
0.0
 10
158.7174035479
 20
33.3992838383
 30
0.0
 10
158.6822154453
 20
37.6263914735
 30
0.0
 10
158.6467934969
 20
42.5531889037
 30
0.0
 10
158.6111569977
 20
48.0212953168
 30
0.0
 10
158.5754106809
 20
53.8545566409
 30
0.0
 10
158.5516258759
 20
57.8452789241
 30
0.0
 10
158.5395306058
 20
59.8704649632
 30
0.0
  0
SPLINE
  5
4BC
100
AcDbEntity
  8
0
100
AcDbSpline
 62
7
  6
CONTINUOUS
 70
0
 71
3
 72
9
 73
5
 74
0
 42
0.0000001
 43
0.0000001
 44
0.0000000001
 40
0.0
 40
0.0
 40
0.0
 40
0.0
 40
0.2301697809
 40
1.0
 40
1.0
 40
1.0
 40
1.0
 10
158.4324236794
 20
87.6225382305
 30
0.0
 10
158.440540219
 20
87.3591175381
 30
0.0
 10
158.4755293225
 20
86.2146469783
 30
0.0
 10
158.5100758067
 20
85.0701593169
 30
0.0
 10
158.5395306058
 20
84.1891916105
 30
0.0
  0
SPLINE
  5
4BD
100
AcDbEntity
  8
0
100
AcDbSpline
 62
7
  6
CONTINUOUS
 70
0
 71
3
 72
9
 73
5
 74
0
 42
0.0000001
 43
0.0000001
 44
0.0000000001
 40
0.0
 40
0.0
 40
0.0
 40
0.0
 40
0.2610645547
 40
1.0
 40
1.0
 40
1.0
 40
1.0
 10
158.5395306058
 20
59.8704649632
 30
0.0
 10
158.5310819935
 20
61.2850684808
 30
0.0
 10
158.4982104335
 20
66.7036617587
 30
0.0
 10
158.4628487275
 20
72.1222422406
 30
0.0
 10
158.432423657
 20
76.1261911726
 30
0.0
  0
SPLINE
  5
4BE
100
AcDbEntity
  8
0
100
AcDbSpline
 62
7
  6
CONTINUOUS
 70
0
 71
3
 72
9
 73
5
 74
0
 42
0.0000001
 43
0.0000001
 44
0.0000000001
 40
0.0
 40
0.0
 40
0.0
 40
0.0
 40
0.3652813838
 40
1.0
 40
1.0
 40
1.0
 40
1.0
 10
169.2414310634
 20
25.8061656485
 30
0.0
 10
169.2378334404
 20
25.812399405
 30
0.0
 10
169.2328834247
 20
25.8318522536
 30
0.0
 10
169.2292948517
 20
25.8510778789
 30
0.0
 10
169.2273665389
 20
25.8634346439
 30
0.0
  0
SPLINE
  5
4BF
100
AcDbEntity
  8
0
100
AcDbSpline
 62
7
  6
CONTINUOUS
 70
0
 71
3
 72
48
 73
44
 74
0
 42
0.0000001
 43
0.0000001
 44
0.0000000001
 40
0.0
 40
0.0
 40
0.0
 40
0.0
 40
0.0020482175
 40
0.0052438878
 40
0.0095835295
 40
0.0150567092
 40
0.0216509154
 40
0.0293526085
 40
0.0480014391
 40
0.0708321922
 40
0.097632187
 40
0.1281543587
 40
0.1621163966
 40
0.1992027252
 40
0.2390709175
 40
0.3256522577
 40
0.4186602317
 40
0.5146566466
 40
0.6100933011
 40
0.6564947635
 40
0.7014422713
 40
0.7445197103
 40
0.7853273072
 40
0.8234880323
 40
0.8586482112
 40
0.8904814914
 40
0.9186944631
 40
0.9313596281
 40
0.9430251028
 40
0.9536627462
 40
0.9632480317
 40
0.9717599785
 40
0.9791778879
 40
0.9854845173
 40
0.9906668803
 40
0.9928325533
 40
0.9947125661
 40
0.9963061047
 40
0.9976128346
 40
0.9986326602
 40
0.999366086
 40
0.9998157487
 40
1.0
 40
1.0
 40
1.0
 40
1.0
 10
169.2273665389
 20
25.8634346439
 30
0.0
 10
169.2202763565
 20
25.9088690354
 30
0.0
 10
169.2091331912
 20
26.026188207
 30
0.0
 10
169.1944123938
 20
26.2408000739
 30
0.0
 10
169.1797020821
 20
26.5325153748
 30
0.0
 10
169.1646621859
 20
26.9005538078
 30
0.0
 10
169.1495763708
 20
27.3441366592
 30
0.0
 10
169.1279633474
 20
28.0834593398
 30
0.0
 10
169.1017760906
 20
29.1873195684
 30
0.0
 10
169.071712276
 20
30.7199628534
 30
0.0
 10
169.0415171029
 20
32.5192152421
 30
0.0
 10
169.0112132118
 20
34.5684027672
 30
0.0
 10
168.9808486312
 20
36.8485492764
 30
0.0
 10
168.9504354241
 20
39.3385383286
 30
0.0
 10
168.9086912817
 20
43.0098254329
 30
0.0
 10
168.8574504917
 20
47.9365741815
 30
0.0
 10
168.7973455091
 20
54.1234246456
 30
0.0
 10
168.7371773284
 20
60.5090931033
 30
0.0
 10
168.6865883813
 20
65.8484481844
 30
0.0
 10
168.6455446732
 20
70.0417491312
 30
0.0
 10
168.6150586762
 20
73.0595864807
 30
0.0
 10
168.5845878613
 20
75.9518301495
 30
0.0
 10
168.5541360496
 20
78.6916959397
 30
0.0
 10
168.5237119356
 20
81.2538009616
 30
0.0
 10
168.4933289532
 20
83.6144100245
 30
0.0
 10
168.4629955295
 20
85.7516636842
 30
0.0
 10
168.4369439792
 20
87.3838925844
 30
0.0
 10
168.4158279775
 20
88.5633542785
 30
0.0
 10
168.4005792134
 20
89.3482753056
 30
0.0
 10
168.3853453719
 20
90.0640363932
 30
0.0
 10
168.3701306419
 20
90.7089811221
 30
0.0
 10
168.3549460433
 20
91.2816176689
 30
0.0
 10
168.3398071959
 20
91.7806201811
 30
0.0
 10
168.3247220723
 20
92.2048259423
 30
0.0
 10
168.3115886677
 20
92.5111205111
 30
0.0
 10
168.3008102573
 20
92.7180008094
 30
0.0
 10
168.2932264566
 20
92.8444240288
 30
0.0
 10
168.2857100869
 20
92.9513573057
 30
0.0
 10
168.2781520741
 20
93.0394008612
 30
0.0
 10
168.2709468239
 20
93.1068124587
 30
0.0
 10
168.2633510402
 20
93.1578190088
 30
0.0
 10
168.2574012169
 20
93.1840645086
 30
0.0
 10
168.2507746032
 20
93.2016594373
 30
0.0
 10
168.2466380064
 20
93.2016518423
 30
0.0
  0
SPLINE
  5
4C0
100
AcDbEntity
  8
0
100
AcDbSpline
 62
7
  6
CONTINUOUS
 70
0
 71
3
 72
16
 73
12
 74
0
 42
0.0000001
 43
0.0000001
 44
0.0000000001
 40
0.0
 40
0.0
 40
0.0
 40
0.0
 40
0.0064647
 40
0.0195129339
 40
0.0689238124
 40
0.1500586772
 40
0.2624804121
 40
0.4051843323
 40
0.5770199141
 40
0.7760858995
 40
1.0
 40
1.0
 40
1.0
 40
1.0
 10
146.2578623967
 20
95.5016558688
 30
0.0
 10
146.2565949707
 20
95.5016558688
 30
0.0
 10
146.2537525866
 20
95.4979868418
 30
0.0
 10
146.2507065644
 20
95.4854140233
 30
0.0
 10
146.24736566
 20
95.4568035828
 30
0.0
 10
146.2455951087
 20
95.4095303203
 30
0.0
 10
146.2449341709
 20
95.3434557535
 30
0.0
 10
146.2459060869
 20
95.2598061266
 30
0.0
 10
146.2483787874
 20
95.159120811
 30
0.0
 10
146.2523998917
 20
95.0425798116
 30
0.0
 10
146.255885607
 20
94.9597240065
 30
0.0
 10
146.2578623967
 20
94.9158694312
 30
0.0
  0
SPLINE
  5
4C1
100
AcDbEntity
  8
0
100
AcDbSpline
 62
7
  6
CONTINUOUS
 70
0
 71
3
 72
14
 73
10
 74
0
 42
0.0000001
 43
0.0000001
 44
0.0000000001
 40
0.0
 40
0.0
 40
0.0
 40
0.0
 40
0.0584707776
 40
0.1194934992
 40
0.1986049542
 40
0.3036124491
 40
0.4368821712
 40
0.5986767437
 40
1.0
 40
1.0
 40
1.0
 40
1.0
 10
152.2128074385
 20
95.5016558688
 30
0.0
 10
152.2004187939
 20
95.5016558688
 30
0.0
 10
152.1740812971
 20
95.4954236583
 30
0.0
 10
152.1458000319
 20
95.4614697501
 30
0.0
 10
152.1315759753
 20
95.4107624914
 30
0.0
 10
152.1276294066
 20
95.3433710864
 30
0.0
 10
152.1339617051
 20
95.2586690954
 30
0.0
 10
152.1579363505
 20
95.1129686597
 30
0.0
 10
152.1885636038
 20
94.9973714127
 30
0.0
 10
152.2128074385
 20
94.9158694312
 30
0.0
  0
SPLINE
  5
4C2
100
AcDbEntity
  8
0
100
AcDbSpline
 62
7
  6
CONTINUOUS
 70
0
 71
3
 72
55
 73
51
 74
0
 42
0.0000001
 43
0.0000001
 44
0.0000000001
 40
0.0
 40
0.0
 40
0.0
 40
0.0
 40
0.000359147
 40
0.001008229
 40
0.0019515992
 40
0.0031901278
 40
0.0047238731
 40
0.0065525603
 40
0.011090313
 40
0.0167919879
 40
0.02364522
 40
0.0316345251
 40
0.0407395684
 40
0.0509394957
 40
0.0622106646
 40
0.087853588
 40
0.1174254503
 40
0.1506438024
 40
0.1871915834
 40
0.226721463
 40
0.2688560226
 40
0.3131933717
 40
0.4067702964
 40
0.5038919489
 40
0.6008637232
 40
0.6481364686
 40
0.6939963802
 40
0.7380067514
 40
0.7797473777
 40
0.8188205425
 40
0.8548544385
 40
0.8875045737
 40
0.9164602026
 40
0.9294652881
 40
0.9414462008
 40
0.9523737592
 40
0.9622233162
 40
0.9709707566
 40
0.9785946086
 40
0.9850783002
 40
0.990405915
 40
0.9926318502
 40
0.9945644955
 40
0.996203024
 40
0.9975467102
 40
0.9985950462
 40
0.9993481096
 40
0.9998084955
 40
0.9999331895
 40
1.0
 40
1.0
 40
1.0
 40
1.0
 10
167.3510500661
 20
94.4973017179
 30
0.0
 10
167.3552100391
 20
94.4900254416
 30
0.0
 10
167.360464169
 20
94.4665844222
 30
0.0
 10
167.368044368
 20
94.4219831033
 30
0.0
 10
167.3753050357
 20
94.3561388013
 30
0.0
 10
167.3829852221
 20
94.2698298368
 30
0.0
 10
167.3906266854
 20
94.162699502
 30
0.0
 10
167.4017122488
 20
93.9786735672
 30
0.0
 10
167.4150216103
 20
93.697334928
 30
0.0
 10
167.4302494064
 20
93.2987311663
 30
0.0
 10
167.445546124
 20
92.8195260922
 30
0.0
 10
167.4609241079
 20
92.2608663676
 30
0.0
 10
167.4763449092
 20
91.624078725
 30
0.0
 10
167.4917932681
 20
90.9106824813
 30
0.0
 10
167.5133453969
 20
89.8113815787
 30
0.0
 10
167.5398341276
 20
88.2600063002
 30
0.0
 10
167.5705392788
 20
86.1964477433
 30
0.0
 10
167.6013157008
 20
83.8783758786
 30
0.0
 10
167.6321485166
 20
81.3278937251
 30
0.0
 10
167.6630169891
 20
78.5693183117
 30
0.0
 10
167.693913393
 20
75.6289455535
 30
0.0
 10
167.7358890647
 20
71.4273109099
 30
0.0
 10
167.7875352323
 20
65.9424621591
 30
0.0
 10
167.8485466064
 20
59.229305269
 30
0.0
 10
167.8998024993
 20
53.5967163402
 30
0.0
 10
167.9414016179
 20
49.1603971817
 30
0.0
 10
167.9723281187
 20
45.9600057615
 30
0.0
 10
168.0032395729
 20
42.8887248542
 30
0.0
 10
168.034131395
 20
39.9758361064
 30
0.0
 10
168.0649961224
 20
37.2491071116
 30
0.0
 10
168.0958189205
 20
34.7345391523
 30
0.0
 10
168.126590352
 20
32.4561053656
 30
0.0
 10
168.1530176861
 20
30.7150926899
 30
0.0
 10
168.1744353452
 20
29.4564254543
 30
0.0
 10
168.1899057164
 20
28.6184443345
 30
0.0
 10
168.2053622007
 20
27.8541179167
 30
0.0
 10
168.2207960126
 20
27.1652682441
 30
0.0
 10
168.2362011584
 20
26.5535387528
 30
0.0
 10
168.2515619915
 20
26.020385994
 30
0.0
 10
168.2668647499
 20
25.5670787243
 30
0.0
 10
168.280184378
 20
25.2397551387
 30
0.0
 10
168.2911268143
 20
25.0186402432
 30
0.0
 10
168.2988093647
 20
24.8835738257
 30
0.0
 10
168.3064688183
 20
24.769111952
 30
0.0
 10
168.3140396595
 20
24.6753956295
 30
0.0
 10
168.3215939975
 20
24.6022622545
 30
0.0
 10
168.3287309849
 20
24.5502161776
 30
0.0
 10
168.3354780445
 20
24.5191821246
 30
0.0
 10
168.340814365
 20
24.5053573764
 30
0.0
 10
168.3445236659
 20
24.5016943171
 30
0.0
 10
168.346082839
 20
24.5016961299
 30
0.0
  0
SPLINE
  5
4C3
100
AcDbEntity
  8
0
100
AcDbSpline
 62
7
  6
CONTINUOUS
 70
0
 71
3
 72
55
 73
51
 74
0
 42
0.0000001
 43
0.0000001
 44
0.0000000001
 40
0.0
 40
0.0
 40
0.0
 40
0.0
 40
0.0000668426
 40
0.0001917483
 40
0.0006526555
 40
0.0014058254
 40
0.0024537469
 40
0.0037969284
 40
0.005435322
 40
0.0073683948
 40
0.0095948532
 40
0.0149220905
 40
0.0214051534
 40
0.0290298547
 40
0.0377768202
 40
0.0476258284
 40
0.0585542265
 40
0.0705346784
 40
0.0835392583
 40
0.1124949477
 40
0.1451452438
 40
0.1811782646
 40
0.2202512482
 40
0.2619920517
 40
0.3060019284
 40
0.351861605
 40
0.3991342491
 40
0.4961055591
 40
0.5932268424
 40
0.6868032342
 40
0.7311408577
 40
0.7732764111
 40
0.812807014
 40
0.8493558256
 40
0.882574753
 40
0.9121461942
 40
0.9377892736
 40
0.9490604114
 40
0.9592606872
 40
0.968365687
 40
0.9763549286
 40
0.9832083635
 40
0.9889099139
 40
0.993447494
 40
0.995276189
 40
0.9968099224
 40
0.998048393
 40
0.9989916897
 40
0.999640732
 40
1.0
 40
1.0
 40
1.0
 40
1.0
 10
166.3460820273
 20
24.5016558688
 30
0.0
 10
166.3445221045
 20
24.5016558688
 30
0.0
 10
166.3408180204
 20
24.5053361252
 30
0.0
 10
166.3354888306
 20
24.5191753981
 30
0.0
 10
166.3287434045
 20
24.5502351945
 30
0.0
 10
166.3216036621
 20
24.6022828804
 30
0.0
 10
166.3140443528
 20
24.6753979433
 30
0.0
 10
166.3064690768
 20
24.7690888192
 30
0.0
 10
166.2988066293
 20
24.8835457797
 30
0.0
 10
166.2911239121
 20
25.0186312688
 30
0.0
 10
166.2801831352
 20
25.2397597697
 30
0.0
 10
166.2668625242
 20
25.5670721638
 30
0.0
 10
166.2515600251
 20
26.0203760142
 30
0.0
 10
166.2362033168
 20
26.5535232054
 30
0.0
 10
166.2207957135
 20
27.1652488545
 30
0.0
 10
166.2053603973
 20
27.8540945344
 30
0.0
 10
166.1899064164
 20
28.6184174038
 30
0.0
 10
166.1744346914
 20
29.4563959413
 30
0.0
 10
166.1530169872
 20
30.7150426376
 30
0.0
 10
166.1265902784
 20
32.4560495257
 30
0.0
 10
166.0958194424
 20
34.7344691584
 30
0.0
 10
166.0649957273
 20
37.2490174179
 30
0.0
 10
166.0341316036
 20
39.9757272128
 30
0.0
 10
166.0032401236
 20
42.888605729
 30
0.0
 10
165.9723281516
 20
45.9598752165
 30
0.0
 10
165.9414020166
 20
49.1602487895
 30
0.0
 10
165.8998030628
 20
53.5965513988
 30
0.0
 10
165.8485471986
 20
59.229121221
 30
0.0
 10
165.7875361028
 20
65.9422494505
 30
0.0
 10
165.7358900355
 20
71.4270861883
 30
0.0
 10
165.6939143074
 20
75.6287400122
 30
0.0
 10
165.6630178175
 20
78.5691606614
 30
0.0
 10
165.6321483188
 20
81.3278015182
 30
0.0
 10
165.6013147315
 20
83.8783392481
 30
0.0
 10
165.5705387067
 20
86.1964398862
 30
0.0
 10
165.5398335842
 20
88.2600066787
 30
0.0
 10
165.5133427017
 20
89.8113757539
 30
0.0
 10
165.4917899922
 20
90.9106882202
 30
0.0
 10
165.4763465303
 20
91.6240913032
 30
0.0
 10
165.4609294411
 20
92.2608849819
 30
0.0
 10
165.4455500319
 20
92.8195471845
 30
0.0
 10
165.4302388375
 20
93.298752399
 30
0.0
 10
165.4149944485
 20
93.6973535037
 30
0.0
 10
165.4016865672
 20
93.9786855196
 30
0.0
 10
165.3906303301
 20
94.1627089271
 30
0.0
 10
165.383019905
 20
94.2698404024
 30
0.0
 10
165.3753700069
 20
94.3561476758
 30
0.0
 10
165.368129818
 20
94.4219929044
 30
0.0
 10
165.3605510292
 20
94.4665895911
 30
0.0
 10
165.3552782346
 20
94.4900370678
 30
0.0
 10
165.3510938235
 20
94.4973025833
 30
0.0
  0
SPLINE
  5
4C4
100
AcDbEntity
  8
0
100
AcDbSpline
 62
7
  6
CONTINUOUS
 70
0
 71
3
 72
55
 73
51
 74
0
 42
0.0000001
 43
0.0000001
 44
0.0000000001
 40
0.0
 40
0.0
 40
0.0
 40
0.0
 40
0.0000668518
 40
0.000191762
 40
0.0006526753
 40
0.0014058515
 40
0.0024537796
 40
0.0037969676
 40
0.0054353669
 40
0.0073684503
 40
0.0095949256
 40
0.0149222039
 40
0.0214052993
 40
0.029030053
 40
0.0377770843
 40
0.0476261365
 40
0.0585546028
 40
0.0705351415
 40
0.0835397922
 40
0.11249567
 40
0.1451459337
 40
0.1811790921
 40
0.2202526385
 40
0.2619939967
 40
0.3060042867
 40
0.351864275
 40
0.3991371321
 40
0.4961087245
 40
0.5932302565
 40
0.6868068052
 40
0.7311442746
 40
0.7732790315
 40
0.8128084074
 40
0.8493563311
 40
0.8825748926
 40
0.9121463086
 40
0.9377893961
 40
0.9490605014
 40
0.9592607388
 40
0.9683656893
 40
0.9763548797
 40
0.9832082801
 40
0.9889098391
 40
0.9934474403
 40
0.995276139
 40
0.9968098778
 40
0.9980483586
 40
0.9989916674
 40
0.9996407215
 40
1.0
 40
1.0
 40
1.0
 40
1.0
 10
164.3460811698
 20
24.5016558688
 30
0.0
 10
164.3445210323
 20
24.5016558688
 30
0.0
 10
164.3408163107
 20
24.5053358064
 30
0.0
 10
164.3354863302
 20
24.5191756374
 30
0.0
 10
164.3287407657
 20
24.5502355326
 30
0.0
 10
164.3216011833
 20
24.6022838567
 30
0.0
 10
164.3140424244
 20
24.6753993601
 30
0.0
 10
164.3064677722
 20
24.7690907555
 30
0.0
 10
164.2988058211
 20
24.8835482739
 30
0.0
 10
164.2911233343
 20
25.0186345569
 30
0.0
 10
164.2801826235
 20
25.2397646606
 30
0.0
 10
164.266861717
 20
25.5670791562
 30
0.0
 10
164.2515588007
 20
26.0203859365
 30
0.0
 10
164.236202046
 20
26.553536651
 30
0.0
 10
164.2207945275
 20
27.1652660935
 30
0.0
 10
164.2053592122
 20
27.8541159351
 30
0.0
 10
164.189905214
 20
28.6184434575
 30
0.0
 10
164.1744334552
 20
29.4564272734
 30
0.0
 10
164.1530156127
 20
30.7150820558
 30
0.0
 10
164.1265890207
 20
32.4560942557
 30
0.0
 10
164.095818102
 20
34.7345207597
 30
0.0
 10
164.0649943277
 20
37.2490846309
 30
0.0
 10
164.0341299808
 20
39.975823743
 30
0.0
 10
164.0032382083
 20
42.8887380111
 30
0.0
 10
163.972326021
 20
45.9600373944
 30
0.0
 10
163.9413997999
 20
49.1604328872
 30
0.0
 10
163.899800753
 20
53.5967543771
 30
0.0
 10
163.8485448311
 20
59.2293416171
 30
0.0
 10
163.7875336465
 20
65.9424859686
 30
0.0
 10
163.7358874279
 20
71.4273286277
 30
0.0
 10
163.6939118425
 20
75.6289639717
 30
0.0
 10
163.6630158058
 20
78.5693338316
 30
0.0
 10
163.6321469719
 20
81.3279067734
 30
0.0
 10
163.6013140737
 20
83.878386636
 30
0.0
 10
163.57053843
 20
86.1964574506
 30
0.0
 10
163.5398334827
 20
88.2600153256
 30
0.0
 10
163.5133426097
 20
89.8113832597
 30
0.0
 10
163.4917899116
 20
90.9106942707
 30
0.0
 10
163.4763466063
 20
91.6240945592
 30
0.0
 10
163.4609297244
 20
92.2608850061
 30
0.0
 10
163.4455504476
 20
92.8195440672
 30
0.0
 10
163.4302390824
 20
93.2987474811
 30
0.0
 10
163.414994425
 20
93.697348467
 30
0.0
 10
163.4016865868
 20
93.9786812675
 30
0.0
 10
163.3906307607
 20
94.1627054038
 30
0.0
 10
163.3830208686
 20
94.2698373733
 30
0.0
 10
163.3753715456
 20
94.3561453294
 30
0.0
 10
163.3681317674
 20
94.421991452
 30
0.0
 10
163.3605530171
 20
94.4665888676
 30
0.0
 10
163.3552799003
 20
94.4900369626
 30
0.0
 10
163.351095009
 20
94.4973024824
 30
0.0
  0
SPLINE
  5
4C5
100
AcDbEntity
  8
0
100
AcDbSpline
 62
7
  6
CONTINUOUS
 70
0
 71
3
 72
35
 73
31
 74
0
 42
0.0000001
 43
0.0000001
 44
0.0000000001
 40
0.0
 40
0.0
 40
0.0
 40
0.0
 40
0.0001360903
 40
0.0004223034
 40
0.0008790601
 40
0.001510215
 40
0.0032995716
 40
0.0057932506
 40
0.008990662
 40
0.0128898837
 40
0.0174864253
 40
0.0227750369
 40
0.0287503892
 40
0.0354070624
 40
0.050735129
 40
0.0686917939
 40
0.0892038461
 40
0.1121816525
 40
0.1375295984
 40
0.1651389298
 40
0.1948925188
 40
0.2603189139
 40
0.3326979472
 40
0.4108004317
 40
0.4932998197
 40
0.578795124
 40
0.6658339181
 40
0.7529396707
 40
0.8386286664
 40
1.0
 40
1.0
 40
1.0
 40
1.0
 10
159.0966366373
 20
25.8016623206
 30
0.0
 10
159.0943532815
 20
25.8016573704
 30
0.0
 10
159.0893389709
 20
25.8087148783
 30
0.0
 10
159.0854353945
 20
25.8219624126
 30
0.0
 10
159.0801508874
 20
25.8449289465
 30
0.0
 10
159.072800171
 20
25.8923713873
 30
0.0
 10
159.0638551796
 20
25.9745730404
 30
0.0
 10
159.0538857228
 20
26.0995902923
 30
0.0
 10
159.0437348868
 20
26.26022352
 30
0.0
 10
159.0335276804
 20
26.4561373337
 30
0.0
 10
159.0232686979
 20
26.6871943276
 30
0.0
 10
159.0129824983
 20
26.953106858
 30
0.0
 10
159.0026745809
 20
27.2536088042
 30
0.0
 10
158.9882260663
 20
27.7225089515
 30
0.0
 10
158.9704850505
 20
28.3924249812
 30
0.0
 10
158.9499741595
 20
29.2948104551
 30
0.0
 10
158.9294172731
 20
30.3255733776
 30
0.0
 10
158.9088151994
 20
31.4803699941
 30
0.0
 10
158.8881891126
 20
32.7542633633
 30
0.0
 10
158.8675405116
 20
34.141855888
 30
0.0
 10
158.8390815611
 20
36.2018527868
 30
0.0
 10
158.8039801441
 20
39.0129864134
 30
0.0
 10
158.7629678596
 20
42.6353175099
 30
0.0
 10
158.7218917792
 20
46.544120206
 30
0.0
 10
158.6807697287
 20
50.6730021818
 30
0.0
 10
158.6396221575
 20
54.9518268961
 30
0.0
 10
158.5984603938
 20
59.3079417896
 30
0.0
 10
158.5573036799
 20
63.6673067374
 30
0.0
 10
158.5034895662
 20
69.2737794491
 30
0.0
 10
158.4618219393
 20
73.4188178245
 30
0.0
 10
158.432423657
 20
76.1261911726
 30
0.0
  0
SPLINE
  5
4C6
100
AcDbEntity
  8
0
100
AcDbSpline
 62
7
  6
CONTINUOUS
 70
0
 71
3
 72
55
 73
51
 74
0
 42
0.0000001
 43
0.0000001
 44
0.0000000001
 40
0.0
 40
0.0
 40
0.0
 40
0.0
 40
0.0000668973
 40
0.0001918233
 40
0.0006527405
 40
0.0014059092
 40
0.0024538267
 40
0.0037970042
 40
0.0054353949
 40
0.0073684671
 40
0.0095949266
 40
0.0149221679
 40
0.0214052339
 40
0.0290299392
 40
0.0377769097
 40
0.047625922
 40
0.0585543269
 40
0.0705347855
 40
0.0835393661
 40
0.1124950232
 40
0.145145196
 40
0.1811785029
 40
0.2202524178
 40
0.2619940601
 40
0.3060044085
 40
0.3518643433
 40
0.3991373349
 40
0.4961105382
 40
0.5932328363
 40
0.6868086808
 40
0.7311459967
 40
0.773280521
 40
0.8128096656
 40
0.8493573976
 40
0.8825757653
 40
0.9121469691
 40
0.9377898432
 40
0.9490608003
 40
0.9592609194
 40
0.968365754
 40
0.9763548439
 40
0.9832081923
 40
0.9889097734
 40
0.9934474274
 40
0.9952761487
 40
0.9968099023
 40
0.9980483912
 40
0.9989917023
 40
0.9996407505
 40
1.0
 40
1.0
 40
1.0
 40
1.0
 10
162.3460826721
 20
24.5016558688
 30
0.0
 10
162.3445214724
 20
24.5016558688
 30
0.0
 10
162.340813514
 20
24.5053337704
 30
0.0
 10
162.3354793903
 20
24.5191756721
 30
0.0
 10
162.3287332006
 20
24.5502341998
 30
0.0
 10
162.3215944687
 20
24.6022832386
 30
0.0
 10
162.3140386578
 20
24.6753979854
 30
0.0
 10
162.3064673505
 20
24.7690891094
 30
0.0
 10
162.2988082713
 20
24.8835460577
 30
0.0
 10
162.2911271735
 20
25.0186316088
 30
0.0
 10
162.2801870235
 20
25.2397602448
 30
0.0
 10
162.2668647085
 20
25.5670727798
 30
0.0
 10
162.2515600956
 20
26.020376849
 30
0.0
 10
162.2362031651
 20
26.5535243522
 30
0.0
 10
162.2207960879
 20
27.1652503567
 30
0.0
 10
162.2053613401
 20
27.8540964651
 30
0.0
 10
162.1899074104
 20
28.6184197939
 30
0.0
 10
162.1744355538
 20
29.4563987128
 30
0.0
 10
162.1530176861
 20
30.7150449019
 30
0.0
 10
162.1265911795
 20
32.4560482853
 30
0.0
 10
162.0958203055
 20
34.7344711022
 30
0.0
 10
162.0649963217
 20
37.2490450465
 30
0.0
 10
162.0341317314
 20
39.9758029921
 30
0.0
 10
162.0032397713
 20
42.8887340059
 30
0.0
 10
161.9723275037
 20
45.9600402923
 30
0.0
 10
161.9414012423
 20
49.1604392075
 30
0.0
 10
161.8998018133
 20
53.5968004097
 30
0.0
 10
161.8485453446
 20
59.2294465553
 30
0.0
 10
161.7875337701
 20
65.942630292
 30
0.0
 10
161.7358874217
 20
71.4274710966
 30
0.0
 10
161.6939120169
 20
75.6290812143
 30
0.0
 10
161.6630160386
 20
78.5694368208
 30
0.0
 10
161.6321472291
 20
81.327994606
 30
0.0
 10
161.6013144457
 20
83.8784602074
 30
0.0
 10
161.5705389029
 20
86.1965171948
 30
0.0
 10
161.5398337526
 20
88.2600607186
 30
0.0
 10
161.5133434599
 20
89.8114153498
 30
0.0
 10
161.4917909227
 20
90.9107152199
 30
0.0
 10
161.4763473181
 20
91.6241066115
 30
0.0
 10
161.4609298363
 20
92.2608892656
 30
0.0
 10
161.4455505362
 20
92.8195420866
 30
0.0
 10
161.4302411707
 20
93.2987425408
 30
0.0
 10
161.4149993923
 20
93.6973441925
 30
0.0
 10
161.4016916738
 20
93.9786793003
 30
0.0
 10
161.3906317591
 20
94.1627053485
 30
0.0
 10
161.3830169877
 20
94.2698379935
 30
0.0
 10
161.3753626314
 20
94.3561462667
 30
0.0
 10
161.3681192806
 20
94.4219916852
 30
0.0
 10
161.3605400239
 20
94.4665890558
 30
0.0
 10
161.3552697129
 20
94.4900355599
 30
0.0
 10
161.3510887126
 20
94.4973025407
 30
0.0
  0
SPLINE
  5
4C7
100
AcDbEntity
  8
0
100
AcDbSpline
 62
7
  6
CONTINUOUS
 70
0
 71
3
 72
48
 73
44
 74
0
 42
0.0000001
 43
0.0000001
 44
0.0000000001
 40
0.0
 40
0.0
 40
0.0
 40
0.0
 40
0.0001858543
 40
0.0006402242
 40
0.0013821708
 40
0.0024145312
 40
0.0037374823
 40
0.005350572
 40
0.0072531141
 40
0.0094443127
 40
0.0146888032
 40
0.0210717362
 40
0.0285774833
 40
0.0371899699
 40
0.0468888023
 40
0.0576502667
 40
0.0694503594
 40
0.0822613851
 40
0.1107915683
 40
0.142974706
 40
0.178508647
 40
0.2170595217
 40
0.2582668711
 40
0.3017435792
 40
0.3470817581
 40
0.3938567728
 40
0.4899516981
 40
0.5864316184
 40
0.6796853597
 40
0.7662227531
 40
0.8059469217
 40
0.8428042951
 40
0.8764488079
 40
0.9065643423
 40
0.9328699246
 40
0.9551180688
 40
0.9731002912
 40
0.9804383979
 40
0.9866501867
 40
0.9917211509
 40
0.9956413523
 40
0.9984019051
 40
1.0
 40
1.0
 40
1.0
 40
1.0
 10
165.0966366253
 20
25.8016964831
 30
0.0
 10
165.0924619463
 20
25.8016912482
 30
0.0
 10
165.085810408
 20
25.8195003227
 30
0.0
 10
165.0798096555
 20
25.8460307854
 30
0.0
 10
165.0721746288
 20
25.897678087
 30
0.0
 10
165.0649230243
 20
25.9659446359
 30
0.0
 10
165.0573193085
 20
26.0551241647
 30
0.0
 10
165.0497557504
 20
26.1634184369
 30
0.0
 10
165.0421239395
 20
26.2914243794
 30
0.0
 10
165.031275108
 20
26.5008828573
 30
0.0
 10
165.0180600621
 20
26.811014023
 30
0.0
 10
165.0028829744
 20
27.2405148282
 30
0.0
 10
164.9876462541
 20
27.7457125742
 30
0.0
 10
164.9723657202
 20
28.3254178147
 30
0.0
 10
164.9570574276
 20
28.9782757635
 30
0.0
 10
164.9417263814
 20
29.7027509074
 30
0.0
 10
164.9263809611
 20
30.4971464713
 30
0.0
 10
164.9051357964
 20
31.6906243096
 30
0.0
 10
164.8789194951
 20
33.3419307265
 30
0.0
 10
164.8483975404
 20
35.5036339887
 30
0.0
 10
164.8178235547
 20
37.8904427749
 30
0.0
 10
164.7872080573
 20
40.4799691342
 30
0.0
 10
164.7565661821
 20
43.2479181885
 30
0.0
 10
164.7259040312
 20
46.1683330785
 30
0.0
 10
164.6952270204
 20
49.2138159713
 30
0.0
 10
164.6539427595
 20
53.4411687368
 30
0.0
 10
164.6030633049
 20
58.8172345215
 30
0.0
 10
164.5425323619
 20
65.2372666519
 30
0.0
 10
164.4820699281
 20
71.4426072174
 30
0.0
 10
164.4304896442
 20
76.3731186317
 30
0.0
 10
164.3884450932
 20
80.0368756847
 30
0.0
 10
164.3578495976
 20
82.5125984427
 30
0.0
 10
164.3273062015
 20
84.7724739086
 30
0.0
 10
164.2968270179
 20
86.7953104349
 30
0.0
 10
164.2664739227
 20
88.5621314042
 30
0.0
 10
164.2362559075
 20
90.0563648042
 30
0.0
 10
164.2099172994
 20
91.1245416131
 30
0.0
 10
164.1880861125
 20
91.8324788696
 30
0.0
 10
164.172974436
 20
92.250488122
 30
0.0
 10
164.1578075243
 20
92.5916050477
 30
0.0
 10
164.1433401648
 20
92.8552889539
 30
0.0
 10
164.1283215107
 20
93.0404552666
 30
0.0
 10
164.1177677838
 20
93.1381222555
 30
0.0
 10
164.1097306224
 20
93.1731075456
 30
0.0
  0
SPLINE
  5
4C8
100
AcDbEntity
  8
0
100
AcDbSpline
 62
7
  6
CONTINUOUS
 70
0
 71
3
 72
9
 73
5
 74
0
 42
0.0000001
 43
0.0000001
 44
0.0000000001
 40
0.0
 40
0.0
 40
0.0
 40
0.0
 40
0.3232920809
 40
1.0
 40
1.0
 40
1.0
 40
1.0
 10
164.1097306224
 20
93.1731075456
 30
0.0
 10
164.1091202667
 20
93.175764388
 30
0.0
 10
164.1070660767
 20
93.183913963
 30
0.0
 10
164.1046956505
 20
93.1921659201
 30
0.0
 10
164.1018441628
 20
93.1971084575
 30
0.0
  0
SPLINE
  5
4C9
100
AcDbEntity
  8
0
100
AcDbSpline
 62
7
  6
CONTINUOUS
 70
0
 71
3
 72
52
 73
48
 74
0
 42
0.0000001
 43
0.0000001
 44
0.0000000001
 40
0.0
 40
0.0
 40
0.0
 40
0.0
 40
0.000187569
 40
0.0006469062
 40
0.0013964131
 40
0.0024387226
 40
0.0037743343
 40
0.0054031483
 40
0.0073248091
 40
0.0095383467
 40
0.0148348526
 40
0.0212799406
 40
0.0288601009
 40
0.0375568616
 40
0.0473489289
 40
0.0582145478
 40
0.0701275047
 40
0.0830587761
 40
0.1118547903
 40
0.1443286824
 40
0.1801738371
 40
0.2190506723
 40
0.260590055
 40
0.304399221
 40
0.3500628235
 40
0.3971478592
 40
0.4937894806
 40
0.5906696911
 40
0.6841251971
 40
0.7284555381
 40
0.7706219637
 40
0.8102255585
 40
0.8468901058
 40
0.8802687544
 40
0.9100459265
 40
0.9359382515
 40
0.9577015881
 40
0.9669690883
 40
0.9751306426
 40
0.9821658268
 40
0.9880596508
 40
0.99279835
 40
0.9963700905
 40
0.997716622
 40
0.9987698758
 40
0.9995302088
 40
1.0
 40
1.0
 40
1.0
 40
1.0
 10
163.0966380401
 20
25.8016587235
 30
0.0
 10
163.0924236857
 20
25.801651979
 30
0.0
 10
163.085768534
 20
25.819709274
 30
0.0
 10
163.0797198668
 20
25.8464878301
 30
0.0
 10
163.0720561033
 20
25.8986970907
 30
0.0
 10
163.0647604641
 20
25.9676420461
 30
0.0
 10
163.0571190349
 20
26.0577143649
 30
0.0
 10
163.04951548
 20
26.1671032749
 30
0.0
 10
163.0418454809
 20
26.2964302853
 30
0.0
 10
163.0309436506
 20
26.5080465264
 30
0.0
 10
163.0176599128
 20
26.8213305247
 30
0.0
 10
163.0024020089
 20
27.2551867339
 30
0.0
 10
162.9870904573
 20
27.7654858514
 30
0.0
 10
162.9717315846
 20
28.3510111544
 30
0.0
 10
162.956342571
 20
29.0103775268
 30
0.0
 10
162.9409348852
 20
29.7420232838
 30
0.0
 10
162.9255111963
 20
30.544215577
 30
0.0
 10
162.9041560869
 20
31.7492326938
 30
0.0
 10
162.8778099306
 20
33.4162015358
 30
0.0
 10
162.8471305736
 20
35.5979985173
 30
0.0
 10
162.816400487
 20
38.006314072
 30
0.0
 10
162.7856297037
 20
40.6183305117
 30
0.0
 10
162.7548307173
 20
43.4092960887
 30
0.0
 10
162.7240123752
 20
46.3527574221
 30
0.0
 10
162.6931794684
 20
49.4208266037
 30
0.0
 10
162.6516974233
 20
53.6759048526
 30
0.0
 10
162.6005828104
 20
59.0816946481
 30
0.0
 10
162.5397486495
 20
65.5293054362
 30
0.0
 10
162.4882670857
 20
70.8016058045
 30
0.0
 10
162.4464326191
 20
74.844614226
 30
0.0
 10
162.4156270385
 20
77.677709822
 30
0.0
 10
162.38484867
 20
80.3385575081
 30
0.0
 10
162.3541058322
 20
82.801945003
 30
0.0
 10
162.3234123964
 20
85.0445312921
 30
0.0
 10
162.2928027016
 20
87.0450604539
 30
0.0
 10
162.2622923653
 20
88.7845797916
 30
0.0
 10
162.2358255194
 20
90.0632779165
 30
0.0
 10
162.2141444276
 20
90.94359898
 30
0.0
 10
162.1988065793
 20
91.4930570566
 30
0.0
 10
162.1835115897
 20
91.9666799409
 30
0.0
 10
162.1683284661
 20
92.3633610936
 30
0.0
 10
162.1532305921
 20
92.682143793
 30
0.0
 10
162.1400394948
 20
92.8987547906
 30
0.0
 10
162.1288251986
 20
93.0324384278
 30
0.0
 10
162.1214172026
 20
93.1031063128
 30
0.0
 10
162.1139811068
 20
93.1537914324
 30
0.0
 10
162.1083725525
 20
93.1810341628
 30
0.0
 10
162.1046729695
 20
93.190920007
 30
0.0
  0
SPLINE
  5
4CA
100
AcDbEntity
  8
0
100
AcDbSpline
 62
7
  6
CONTINUOUS
 70
0
 71
3
 72
8
 73
4
 74
0
 42
0.0000001
 43
0.0000001
 44
0.0000000001
 40
0.0
 40
0.0
 40
0.0
 40
0.0
 40
1.0
 40
1.0
 40
1.0
 40
1.0
 10
162.1046729695
 20
93.190920007
 30
0.0
 10
162.1038742093
 20
93.1930544148
 30
0.0
 10
162.1029854566
 20
93.1951715312
 30
0.0
 10
162.1018451509
 20
93.1971447057
 30
0.0
  0
SPLINE
  5
4CB
100
AcDbEntity
  8
0
100
AcDbSpline
 62
7
  6
CONTINUOUS
 70
0
 71
3
 72
50
 73
46
 74
0
 42
0.0000001
 43
0.0000001
 44
0.0000000001
 40
0.0
 40
0.0
 40
0.0
 40
0.0
 40
0.0001867386
 40
0.0006429905
 40
0.0013875083
 40
0.002423354
 40
0.0037513289
 40
0.0053709402
 40
0.0072812258
 40
0.0094811133
 40
0.0147451217
 40
0.0211526482
 40
0.028687714
 40
0.0373323406
 40
0.0470677583
 40
0.0578701578
 40
0.0697136095
 40
0.0825716295
 40
0.1112052341
 40
0.1435020529
 40
0.1791568034
 40
0.2178347173
 40
0.2591716252
 40
0.302777569
 40
0.3482426912
 40
0.3951385524
 40
0.4914465859
 40
0.588082692
 40
0.6814151853
 40
0.7679370881
 40
0.8076144216
 40
0.8443971654
 40
0.877937818
 40
0.9079217093
 40
0.9340666639
 40
0.9561254324
 40
0.9655572345
 40
0.9738922789
 40
0.9811120625
 40
0.9872003212
 40
0.992141524
 40
0.9959255286
 40
0.9985456408
 40
0.9994180798
 40
1.0
 40
1.0
 40
1.0
 40
1.0
 10
167.0966374513
 20
25.8016898129
 30
0.0
 10
167.0924424009
 20
25.8016989889
 30
0.0
 10
167.0858066029
 20
25.8195931191
 30
0.0
 10
167.0797697264
 20
25.8462320249
 30
0.0
 10
167.0721305639
 20
25.8980702315
 30
0.0
 10
167.0648567192
 20
25.9665910022
 30
0.0
 10
167.0572410645
 20
26.0561204918
 30
0.0
 10
167.049662226
 20
26.1648609748
 30
0.0
 10
167.0420158601
 20
26.2933985276
 30
0.0
 10
167.0311464468
 20
26.5036903186
 30
0.0
 10
167.0179015019
 20
26.8150455577
 30
0.0
 10
167.0026954189
 20
27.2462486867
 30
0.0
 10
166.9874299989
 20
27.7534415882
 30
0.0
 10
166.9721165469
 20
28.3354203917
 30
0.0
 10
166.9567778662
 20
28.9908219018
 30
0.0
 10
166.941417562
 20
29.7181014336
 30
0.0
 10
166.9260399579
 20
30.5155437328
 30
0.0
 10
166.9047530072
 20
31.7135210079
 30
0.0
 10
166.8784847457
 20
33.3709627476
 30
0.0
 10
166.8479023406
 20
35.5405221403
 30
0.0
 10
166.8172662668
 20
37.9357451914
 30
0.0
 10
166.7865902919
 20
40.5340673548
 30
0.0
 10
166.7558871561
 20
43.3110233538
 30
0.0
 10
166.7251633916
 20
46.2404617011
 30
0.0
 10
166.694425622
 20
49.294787658
 30
0.0
 10
166.6530638706
 20
53.5330124998
 30
0.0
 10
166.602091671
 20
58.9207480081
 30
0.0
 10
166.5414444794
 20
65.3516319588
 30
0.0
 10
166.4808677046
 20
71.5626623456
 30
0.0
 10
166.4291781916
 20
76.4941462385
 30
0.0
 10
166.3870371792
 20
80.1552745206
 30
0.0
 10
166.3563844429
 20
82.6262379191
 30
0.0
 10
166.3257803476
 20
84.8794217974
 30
0.0
 10
166.2952539918
 20
86.8936061464
 30
0.0
 10
166.2648275178
 20
88.6498193901
 30
0.0
 10
166.2384429766
 20
89.9443293711
 30
0.0
 10
166.2168578246
 20
90.8387479656
 30
0.0
 10
166.2015518602
 20
91.3998613133
 30
0.0
 10
166.186307134
 20
91.8858355666
 30
0.0
 10
166.1711102207
 20
92.2955177216
 30
0.0
 10
166.1561338404
 20
92.6279849869
 30
0.0
 10
166.1411797157
 20
92.8823893443
 30
0.0
 10
166.1283589442
 20
93.0454463483
 30
0.0
 10
166.1168730124
 20
93.1362295004
 30
0.0
 10
166.1111674227
 20
93.1684778368
 30
0.0
 10
166.1077505251
 20
93.1810961595
 30
0.0
  0
SPLINE
  5
4CC
100
AcDbEntity
  8
0
100
AcDbSpline
 62
7
  6
CONTINUOUS
 70
0
 71
3
 72
9
 73
5
 74
0
 42
0.0000001
 43
0.0000001
 44
0.0000000001
 40
0.0
 40
0.0
 40
0.0
 40
0.0
 40
0.3101814292
 40
1.0
 40
1.0
 40
1.0
 40
1.0
 10
166.1077505251
 20
93.1810961595
 30
0.0
 10
166.1072887077
 20
93.1828016135
 30
0.0
 10
166.1056992515
 20
93.1882600883
 30
0.0
 10
166.1038105045
 20
93.1937092105
 30
0.0
 10
166.101843915
 20
93.1971110662
 30
0.0
  0
SPLINE
  5
4CD
100
AcDbEntity
  8
0
100
AcDbSpline
 62
7
  6
CONTINUOUS
 70
0
 71
3
 72
9
 73
5
 74
0
 42
0.0000001
 43
0.0000001
 44
0.0000000001
 40
0.0
 40
0.0
 40
0.0
 40
0.0
 40
0.3611032176
 40
1.0
 40
1.0
 40
1.0
 40
1.0
 10
163.2414309788
 20
25.8061649808
 30
0.0
 10
163.2375082173
 20
25.8129601582
 30
0.0
 10
163.2323227255
 20
25.8345121569
 30
0.0
 10
163.2284951545
 20
25.8557165097
 30
0.0
 10
163.2264495983
 20
25.8694471477
 30
0.0
  0
SPLINE
  5
4CE
100
AcDbEntity
  8
0
100
AcDbSpline
 62
7
  6
CONTINUOUS
 70
0
 71
3
 72
47
 73
43
 74
0
 42
0.0000001
 43
0.0000001
 44
0.0000000001
 40
0.0
 40
0.0
 40
0.0
 40
0.0
 40
0.0021145972
 40
0.0053744904
 40
0.0097758825
 40
0.0153081748
 40
0.0297138737
 40
0.0484606743
 40
0.0713769401
 40
0.0982496047
 40
0.1288313439
 40
0.1628398723
 40
0.1999597593
 40
0.2398488683
 40
0.3264364028
 40
0.4194079822
 40
0.5153331806
 40
0.6106730301
 40
0.657019664
 40
0.7019097538
 40
0.7449285608
 40
0.7856775666
 40
0.823780935
 40
0.8588863189
 40
0.8906683506
 40
0.9188346409
 40
0.9314785662
 40
0.9431242671
 40
0.9537436144
 40
0.9633124111
 40
0.9718096136
 40
0.9792144699
 40
0.9855100731
 40
0.9906833592
 40
0.9928451712
 40
0.9947217973
 40
0.9963125168
 40
0.997616973
 40
0.9986350432
 40
0.9993672048
 40
0.9998160682
 40
1.0
 40
1.0
 40
1.0
 40
1.0
 10
163.2264495983
 20
25.8694471477
 30
0.0
 10
163.2194547904
 20
25.9163992547
 30
0.0
 10
163.2082804427
 20
26.0366355849
 30
0.0
 10
163.1935758037
 20
26.2555651155
 30
0.0
 10
163.1788446171
 20
26.5514085089
 30
0.0
 10
163.1568311432
 20
27.097350015
 30
0.0
 10
163.1307845126
 20
27.9654130189
 30
0.0
 10
163.1009594013
 20
29.2237373003
 30
0.0
 10
163.0709691996
 20
30.76199898
 30
0.0
 10
163.0407807959
 20
32.5659764162
 30
0.0
 10
163.0105084518
 20
34.6189924325
 30
0.0
 10
162.9801687353
 20
36.9020676566
 30
0.0
 10
162.9497833036
 20
39.3940989114
 30
0.0
 10
162.9080832587
 20
43.0664169381
 30
0.0
 10
162.8568931497
 20
47.9925128003
 30
0.0
 10
162.7968411712
 20
54.1765281745
 30
0.0
 10
162.736726949
 20
60.5570312749
 30
0.0
 10
162.6861811142
 20
65.8909015616
 30
0.0
 10
162.6451732411
 20
70.0791309281
 30
0.0
 10
162.6147155539
 20
73.0928597692
 30
0.0
 10
162.5842730931
 20
75.9809217944
 30
0.0
 10
162.5538496556
 20
78.7166210672
 30
0.0
 10
162.5234537847
 20
81.2746617522
 30
0.0
 10
162.4930991601
 20
83.6313895022
 30
0.0
 10
162.4627940203
 20
85.7650216609
 30
0.0
 10
162.4367663975
 20
87.3944279344
 30
0.0
 10
162.4156699905
 20
88.571814461
 30
0.0
 10
162.4004355818
 20
89.3553331708
 30
0.0
 10
162.3852157416
 20
90.0698048283
 30
0.0
 10
162.3700153245
 20
90.7135794331
 30
0.0
 10
162.3548451236
 20
91.285170085
 30
0.0
 10
162.3397200466
 20
91.7832559568
 30
0.0
 10
162.3246491379
 20
92.2066790868
 30
0.0
 10
162.3115281959
 20
92.5124079842
 30
0.0
 10
162.3007598058
 20
92.7189031598
 30
0.0
 10
162.2931827857
 20
92.8450888019
 30
0.0
 10
162.2856736795
 20
92.9518224347
 30
0.0
 10
162.2781221913
 20
93.039703222
 30
0.0
 10
162.2709252344
 20
93.1069926206
 30
0.0
 10
162.2633332904
 20
93.1579025709
 30
0.0
 10
162.2573952677
 20
93.1841037699
 30
0.0
 10
162.2507671337
 20
93.201658255
 30
0.0
 10
162.2466380869
 20
93.2016490642
 30
0.0
  0
SPLINE
  5
4CF
100
AcDbEntity
  8
0
100
AcDbSpline
 62
7
  6
CONTINUOUS
 70
0
 71
3
 72
51
 73
47
 74
0
 42
0.0000001
 43
0.0000001
 44
0.0000000001
 40
0.0
 40
0.0
 40
0.0
 40
0.0
 40
0.0001873211
 40
0.0006453035
 40
0.0013924229
 40
0.0024314608
 40
0.0037630681
 40
0.0053872903
 40
0.0073035521
 40
0.0095105591
 40
0.0147911312
 40
0.021217434
 40
0.0287757872
 40
0.0374470241
 40
0.047210941
 40
0.058045817
 40
0.0699247633
 40
0.0828197603
 40
0.1115364305
 40
0.1439233166
 40
0.1796749443
 40
0.218454428
 40
0.2598943559
 40
0.3036038303
 40
0.3491701847
 40
0.3961623604
 40
0.4926404415
 40
0.5894010256
 40
0.6827963323
 40
0.7271231692
 40
0.7693054295
 40
0.8089454235
 40
0.8456678089
 40
0.879125977
 40
0.9090047804
 40
0.9350207238
 40
0.9569290696
 40
0.9662769882
 40
0.9745239535
 40
0.9816494747
 40
0.9876384238
 40
0.9924767497
 40
0.996152394
 40
0.9986598263
 40
0.9994751881
 40
1.0
 40
1.0
 40
1.0
 40
1.0
 10
169.0966381123
 20
25.8016590171
 30
0.0
 10
169.0924296187
 20
25.80166607
 30
0.0
 10
169.0857943399
 20
25.8196506561
 30
0.0
 10
169.0797419511
 20
25.8463712608
 30
0.0
 10
169.0720951482
 20
25.8983997369
 30
0.0
 10
169.0648076512
 20
25.9671311747
 30
0.0
 10
169.0571786508
 20
26.0569274028
 30
0.0
 10
169.0495870472
 20
26.1659955334
 30
0.0
 10
169.0419294051
 20
26.2949420859
 30
0.0
 10
169.0310436973
 20
26.505917845
 30
0.0
 10
169.0177790094
 20
26.8182533044
 30
0.0
 10
169.0025449465
 20
27.250809666
 30
0.0
 10
168.9872574808
 20
27.7595881463
 30
0.0
 10
168.9719206957
 20
28.3433771795
 30
0.0
 10
168.9565553356
 20
29.0008014649
 30
0.0
 10
168.9411717097
 20
29.7303094836
 30
0.0
 10
168.9257706225
 20
30.5301766213
 30
0.0
 10
168.9044479303
 20
31.731748892
 30
0.0
 10
168.8781410348
 20
33.3940503635
 30
0.0
 10
168.8475085331
 20
35.5698581803
 30
0.0
 10
168.8168243957
 20
37.9717643616
 30
0.0
 10
168.7861003683
 20
40.5770777076
 30
0.0
 10
168.7553480121
 20
43.3611893495
 30
0.0
 10
168.7245759902
 20
46.2977885559
 30
0.0
 10
168.6937897772
 20
49.359135189
 30
0.0
 10
168.6523663332
 20
53.6059745192
 30
0.0
 10
168.6013222075
 20
59.0029432794
 30
0.0
 10
168.5405765804
 20
65.4423950868
 30
0.0
 10
168.489177173
 20
70.7102132195
 30
0.0
 10
168.4474130815
 20
74.7518677161
 30
0.0
 10
168.4166529421
 20
77.5858630619
 30
0.0
 10
168.3859195829
 20
80.2490006757
 30
0.0
 10
168.3552212804
 20
82.7161226802
 30
0.0
 10
168.3245712582
 20
84.9639245322
 30
0.0
 10
168.294002923
 20
86.9711640696
 30
0.0
 10
168.2635328146
 20
88.7188839199
 30
0.0
 10
168.2371065082
 20
90.005337603
 30
0.0
 10
168.2154726722
 20
90.892585314
 30
0.0
 10
168.2001481153
 20
91.4477615098
 30
0.0
 10
168.1848875867
 20
91.9274464483
 30
0.0
 10
168.1696664381
 20
92.3304941266
 30
0.0
 10
168.1547091752
 20
92.6560149842
 30
0.0
 10
168.1397231223
 20
92.9031295229
 30
0.0
 10
168.1269932326
 20
93.0599774356
 30
0.0
 10
168.115398707
 20
93.1455859449
 30
0.0
 10
168.1097234905
 20
93.1752715701
 30
0.0
 10
168.1061793718
 20
93.186517139
 30
0.0
  0
SPLINE
  5
4D0
100
AcDbEntity
  8
0
100
AcDbSpline
 62
7
  6
CONTINUOUS
 70
0
 71
3
 72
9
 73
5
 74
0
 42
0.0000001
 43
0.0000001
 44
0.0000000001
 40
0.0
 40
0.0
 40
0.0
 40
0.0
 40
0.2976820789
 40
1.0
 40
1.0
 40
1.0
 40
1.0
 10
168.1061793718
 20
93.186517139
 30
0.0
 10
168.1058368134
 20
93.1876040842
 30
0.0
 10
168.1046253934
 20
93.1912316553
 30
0.0
 10
168.1031907345
 20
93.1948142825
 30
0.0
 10
168.1018450653
 20
93.1971420688
 30
0.0
  0
SPLINE
  5
4D1
100
AcDbEntity
  8
0
100
AcDbSpline
 62
7
  6
CONTINUOUS
 70
0
 71
3
 72
29
 73
25
 74
0
 42
0.0000001
 43
0.0000001
 44
0.0000000001
 40
0.0
 40
0.0
 40
0.0
 40
0.0
 40
0.0005820452
 40
0.0017018495
 40
0.0033667776
 40
0.0055786317
 40
0.0083374971
 40
0.0116421461
 40
0.0198827321
 40
0.0302877121
 40
0.042843699
 40
0.0575321252
 40
0.0743277207
 40
0.0932047033
 40
0.1141367808
 40
0.162030847
 40
0.2177147351
 40
0.2808505588
 40
0.3510533468
 40
0.427897702
 40
0.5109211053
 40
0.5996154472
 40
0.7918534396
 40
1.0
 40
1.0
 40
1.0
 40
1.0
 10
159.4958966454
 20
94.2465004195
 30
0.0
 10
159.4982242766
 20
94.2424697723
 30
0.0
 10
159.5006385057
 20
94.2286989095
 30
0.0
 10
159.5046153127
 20
94.2023306272
 30
0.0
 10
159.5081678115
 20
94.1623868755
 30
0.0
 10
159.5120651017
 20
94.109523267
 30
0.0
 10
159.5158922352
 20
94.0434344978
 30
0.0
 10
159.5214942496
 20
93.9291949201
 30
0.0
 10
159.5282174187
 20
93.7537832128
 30
0.0
 10
159.5359206792
 20
93.5043937107
 30
0.0
 10
159.5436542929
 20
93.2034188145
 30
0.0
 10
159.5514216465
 20
92.8513282487
 30
0.0
 10
159.5592058502
 20
92.4486795622
 30
0.0
 10
159.5670036491
 20
91.9960943101
 30
0.0
 10
159.5779049807
 20
91.2948404529
 30
0.0
 10
159.5912975981
 20
90.2992563161
 30
0.0
 10
159.606792555
 20
88.9661806815
 30
0.0
 10
159.6223168225
 20
87.4546979474
 30
0.0
 10
159.6378638294
 20
85.7739929891
 30
0.0
 10
159.6534232794
 20
83.9342463546
 30
0.0
 10
159.6689903948
 20
81.9466229538
 30
0.0
 10
159.6903280211
 20
79.0362449399
 30
0.0
 10
159.7166186005
 20
75.1253006176
 30
0.0
 10
159.7365335674
 20
71.9235949099
 30
0.0
 10
159.746637387
 20
70.25913352
 30
0.0
  0
SPLINE
  5
4D2
100
AcDbEntity
  8
0
100
AcDbSpline
 62
7
  6
CONTINUOUS
 70
0
 71
3
 72
11
 73
7
 74
0
 42
0.0000001
 43
0.0000001
 44
0.0000000001
 40
0.0
 40
0.0
 40
0.0
 40
0.0
 40
0.07450436
 40
0.2627193037
 40
0.5709389744
 40
1.0
 40
1.0
 40
1.0
 40
1.0
 10
81.403261714
 20
24.5016558688
 30
0.0
 10
81.3984143307
 20
24.5016558688
 30
0.0
 10
81.3918389652
 20
24.5238131324
 30
0.0
 10
81.3849648049
 20
24.5549976569
 30
0.0
 10
81.3769791302
 20
24.6177067623
 30
0.0
 10
81.3724613067
 20
24.6644871804
 30
0.0
 10
81.3700331668
 20
24.6922968344
 30
0.0
  0
SPLINE
  5
4D3
100
AcDbEntity
  8
0
100
AcDbSpline
 62
7
  6
CONTINUOUS
 70
0
 71
3
 72
39
 73
35
 74
0
 42
0.0000001
 43
0.0000001
 44
0.0000000001
 40
0.0
 40
0.0
 40
0.0
 40
0.0
 40
0.007159545
 40
0.0186921984
 40
0.0344990727
 40
0.0544379181
 40
0.0783338695
 40
0.1059723044
 40
0.1714652058
 40
0.2485885587
 40
0.3346004758
 40
0.4264460076
 40
0.5208610031
 40
0.6144851772
 40
0.7039886782
 40
0.7461926162
 40
0.7861921787
 40
0.8236302222
 40
0.8581745693
 40
0.8895155759
 40
0.9173753871
 40
0.9415065873
 40
0.9521048056
 40
0.961692822
 40
0.9702502889
 40
0.9777569728
 40
0.9841957533
 40
0.9895541365
 40
0.9938201652
 40
0.9969836145
 40
0.9981506534
 40
0.9990412336
 40
0.9996562484
 40
1.0
 40
1.0
 40
1.0
 40
1.0
 10
81.3700331668
 20
24.6922968344
 30
0.0
 10
81.3555404894
 20
24.8582824683
 30
0.0
 10
81.3341105095
 20
25.292922554
 30
0.0
 10
81.3052040328
 20
26.0951929496
 30
0.0
 10
81.2765833652
 20
27.1951330946
 30
0.0
 10
81.2471142944
 20
28.5827902924
 30
0.0
 10
81.2176088673
 20
30.2458635747
 30
0.0
 10
81.1756170187
 20
32.9690012921
 30
0.0
 10
81.1248650539
 20
36.930854895
 30
0.0
 10
81.0662703438
 20
42.2511736945
 30
0.0
 10
81.00744327
 20
48.1848034756
 30
0.0
 10
80.9484488025
 20
54.5208607475
 30
0.0
 10
80.8894028922
 20
61.0340776991
 30
0.0
 10
80.8303677012
 20
67.4927886318
 30
0.0
 10
80.7803306239
 20
72.7364738636
 30
0.0
 10
80.7396831981
 20
76.7322373887
 30
0.0
 10
80.7098149203
 20
79.5163786999
 30
0.0
 10
80.6799718888
 20
82.1222552468
 30
0.0
 10
80.650166019
 20
84.5266159161
 30
0.0
 10
80.6204131899
 20
86.7080539165
 30
0.0
 10
80.5907295582
 20
88.6471327323
 30
0.0
 10
80.5651171049
 20
90.1034881269
 30
0.0
 10
80.5442760746
 20
91.1346346394
 30
0.0
 10
80.5293464906
 20
91.8033930132
 30
0.0
 10
80.5144445015
 20
92.4001852923
 30
0.0
 10
80.4995846816
 20
92.9236661791
 30
0.0
 10
80.4847648633
 20
93.372658812
 30
0.0
 10
80.470077123
 20
93.7462097769
 30
0.0
 10
80.4554466176
 20
94.0434224094
 30
0.0
 10
80.4427234403
 20
94.2431591701
 30
0.0
 10
80.4317395902
 20
94.3640915359
 30
0.0
 10
80.4247131875
 20
94.4260513305
 30
0.0
 10
80.4174160526
 20
94.4681870683
 30
0.0
 10
80.4122646262
 20
94.4903663648
 30
0.0
 10
80.4082742277
 20
94.4972998693
 30
0.0
  0
SPLINE
  5
4D4
100
AcDbEntity
  8
0
100
AcDbSpline
 62
7
  6
CONTINUOUS
 70
0
 71
3
 72
28
 73
24
 74
0
 42
0.0000001
 43
0.0000001
 44
0.0000000001
 40
0.0
 40
0.0
 40
0.0
 40
0.0
 40
0.0004018042
 40
0.0012651591
 40
0.0026475793
 40
0.0045600262
 40
0.009987034
 40
0.0175566909
 40
0.0272638725
 40
0.0390958634
 40
0.0530389014
 40
0.0690788201
 40
0.0872002609
 40
0.1073803626
 40
0.1538112401
 40
0.2081584568
 40
0.2701667333
 40
0.339540601
 40
0.4159612833
 40
0.4990525214
 40
0.5884258877
 40
0.7843615337
 40
1.0
 40
1.0
 40
1.0
 40
1.0
 10
76.1249491288
 20
25.7516964455
 30
0.0
 10
76.1224798581
 20
25.751705087
 30
0.0
 10
76.1172357285
 20
25.7597287244
 30
0.0
 10
76.1131394381
 20
25.7742746192
 30
0.0
 10
76.1075717575
 20
25.7998610499
 30
0.0
 10
76.099825071
 20
25.8525556852
 30
0.0
 10
76.0903968894
 20
25.9439837602
 30
0.0
 10
76.0798947904
 20
26.0829931981
 30
0.0
 10
76.0692002112
 20
26.2616162589
 30
0.0
 10
76.0584417557
 20
26.4793909842
 30
0.0
 10
76.0476291073
 20
26.7361447642
 30
0.0
 10
76.0367881387
 20
27.0315702861
 30
0.0
 10
76.0259268402
 20
27.3653501911
 30
0.0
 10
76.0107050459
 20
27.8858507789
 30
0.0
 10
75.9920090745
 20
28.6289665553
 30
0.0
 10
75.9703983299
 20
29.6291370997
 30
0.0
 10
75.9487343107
 20
30.770331398
 30
0.0
 10
75.9270237568
 20
32.0471986532
 30
0.0
 10
75.9052897581
 20
33.4536476271
 30
0.0
 10
75.8835299665
 20
34.9830164001
 30
0.0
 10
75.8535743146
 20
37.2468203701
 30
0.0
 10
75.8166330575
 20
40.3251699499
 30
0.0
 10
75.7889761907
 20
42.8543456423
 30
0.0
 10
75.7749495505
 20
44.1794765026
 30
0.0
  0
SPLINE
  5
4D5
100
AcDbEntity
  8
0
100
AcDbSpline
 62
7
  6
CONTINUOUS
 70
0
 71
3
 72
9
 73
5
 74
0
 42
0.0000001
 43
0.0000001
 44
0.0000000001
 40
0.0
 40
0.0
 40
0.0
 40
0.0
 40
0.3426510138
 40
1.0
 40
1.0
 40
1.0
 40
1.0
 10
78.3197497019
 20
25.7561605858
 30
0.0
 10
78.3138685664
 20
25.7663359012
 30
0.0
 10
78.3077614774
 20
25.8010580349
 30
0.0
 10
78.3024885734
 20
25.8344938398
 30
0.0
 10
78.2998129129
 20
25.8568810476
 30
0.0
  0
SPLINE
  5
4D6
100
AcDbEntity
  8
0
100
AcDbSpline
 62
7
  6
CONTINUOUS
 70
0
 71
3
 72
45
 73
41
 74
0
 42
0.0000001
 43
0.0000001
 44
0.0000000001
 40
0.0
 40
0.0
 40
0.0
 40
0.0
 40
0.0024711115
 40
0.0060752462
 40
0.0166570535
 40
0.0316505045
 40
0.0509227951
 40
0.0742959573
 40
0.1015572117
 40
0.1324578868
 40
0.1667136015
 40
0.2440131681
 40
0.3306325618
 40
0.4234080789
 40
0.5189513249
 40
0.6137727959
 40
0.6598257487
 40
0.7044091249
 40
0.7471136754
 40
0.7875496962
 40
0.8253466331
 40
0.8601582163
 40
0.8916673888
 40
0.9195835052
 40
0.9321144832
 40
0.9436539485
 40
0.9541754555
 40
0.9636565058
 40
0.9720748217
 40
0.9794097897
 40
0.9856464773
 40
0.9907712745
 40
0.9929125356
 40
0.9947712144
 40
0.9963467715
 40
0.9976388495
 40
0.998647324
 40
0.9993726685
 40
0.9998174822
 40
1.0
 40
1.0
 40
1.0
 40
1.0
 10
78.2998129129
 20
25.8568810476
 30
0.0
 10
78.2932236202
 20
25.9120135516
 30
0.0
 10
78.2819818443
 20
26.0481146738
 30
0.0
 10
78.2594824147
 20
26.4217016901
 30
0.0
 10
78.2341193366
 20
27.0769313378
 30
0.0
 10
78.2046625148
 20
28.0841890877
 30
0.0
 10
78.175119028
 20
29.3789910194
 30
0.0
 10
78.1451780682
 20
30.9494793738
 30
0.0
 10
78.1151462837
 20
32.781296671
 30
0.0
 10
78.0850049549
 20
34.8576654086
 30
0.0
 10
78.0430365271
 20
38.0583189432
 30
0.0
 10
77.9917989482
 20
42.51093117
 30
0.0
 10
77.9321860928
 20
48.2784446784
 30
0.0
 10
77.8724321849
 20
54.4559051334
 30
0.0
 10
77.8126058088
 20
60.8176703327
 30
0.0
 10
77.7622940652
 20
66.1296415743
 30
0.0
 10
77.7214788774
 20
70.2966034938
 30
0.0
 10
77.691174927
 20
73.2925659392
 30
0.0
 10
77.6608844077
 20
76.1623116465
 30
0.0
 10
77.630614462
 20
78.8795601487
 30
0.0
 10
77.6003718984
 20
81.4194455273
 30
0.0
 10
77.5701679428
 20
83.7587335326
 30
0.0
 10
77.5400185522
 20
85.8759839834
 30
0.0
 10
77.5141169928
 20
87.4926061625
 30
0.0
 10
77.493128691
 20
88.6605349158
 30
0.0
 10
77.4779703682
 20
89.4376546124
 30
0.0
 10
77.4628260478
 20
90.146229722
 30
0.0
 10
77.4477037773
 20
90.7846570729
 30
0.0
 10
77.4326108273
 20
91.3514618915
 30
0.0
 10
77.4175598392
 20
91.845341763
 30
0.0
 10
77.402565787
 20
92.2651731909
 30
0.0
 10
77.3895120391
 20
92.568310065
 30
0.0
 10
77.3787974123
 20
92.7730423941
 30
0.0
 10
77.3712582016
 20
92.8981388129
 30
0.0
 10
77.3637871613
 20
93.0039513549
 30
0.0
 10
77.3562732998
 20
93.0910748035
 30
0.0
 10
77.3491136769
 20
93.1577928322
 30
0.0
 10
77.3415570009
 20
93.2082632166
 30
0.0
 10
77.3356527871
 20
93.2342641076
 30
0.0
 10
77.3290498198
 20
93.2516603887
 30
0.0
 10
77.3249487272
 20
93.2516521711
 30
0.0
  0
SPLINE
  5
4D7
100
AcDbEntity
  8
0
100
AcDbSpline
 62
7
  6
CONTINUOUS
 70
0
 71
3
 72
9
 73
5
 74
0
 42
0.0000001
 43
0.0000001
 44
0.0000000001
 40
0.0
 40
0.0
 40
0.0
 40
0.0
 40
0.3638301595
 40
1.0
 40
1.0
 40
1.0
 40
1.0
 10
74.319750973
 20
25.7561608606
 30
0.0
 10
74.3160476322
 20
25.7625808682
 30
0.0
 10
74.3110207912
 20
25.7827253981
 30
0.0
 10
74.3073553033
 20
25.8026038756
 30
0.0
 10
74.305389037
 20
25.8154132155
 30
0.0
  0
SPLINE
  5
4D8
100
AcDbEntity
  8
0
100
AcDbSpline
 62
7
  6
CONTINUOUS
 70
0
 71
3
 72
46
 73
42
 74
0
 42
0.0000001
 43
0.0000001
 44
0.0000000001
 40
0.0
 40
0.0
 40
0.0
 40
0.0
 40
0.0020692269
 40
0.0052849761
 40
0.0096440404
 40
0.0151362692
 40
0.0294662693
 40
0.0481468767
 40
0.0710041598
 40
0.0978270559
 40
0.1283687749
 40
0.1623446011
 40
0.2393169513
 40
0.3259005352
 40
0.4188969215
 40
0.514870884
 40
0.6102770272
 40
0.656661116
 40
0.7015906349
 40
0.7446494145
 40
0.7854385056
 40
0.8235815674
 40
0.8587236304
 40
0.8905415346
 40
0.9187393893
 40
0.9313984898
 40
0.9430566695
 40
0.9536886186
 40
0.9632697202
 40
0.9717761604
 40
0.9791895271
 40
0.9854937231
 40
0.9906729066
 40
0.9928367129
 40
0.994715472
 40
0.9963084216
 40
0.997614909
 40
0.9986345147
 40
0.9993674214
 40
0.9998162415
 40
1.0
 40
1.0
 40
1.0
 40
1.0
 10
74.305389037
 20
25.8154132155
 30
0.0
 10
74.2983302374
 20
25.8613981188
 30
0.0
 10
74.2871763099
 20
25.9798112522
 30
0.0
 10
74.2724606658
 20
26.1961035489
 30
0.0
 10
74.2577393455
 20
26.4895598989
 30
0.0
 10
74.2356993947
 20
27.0327863037
 30
0.0
 10
74.2096401333
 20
27.8980994304
 30
0.0
 10
74.179804837
 20
29.1538500265
 30
0.0
 10
74.1497981967
 20
30.6905543996
 30
0.0
 10
74.1195936109
 20
32.493973334
 30
0.0
 10
74.0893024204
 20
34.5474065523
 30
0.0
 10
74.0470456067
 20
37.728318528
 30
0.0
 10
73.9955033485
 20
42.1692328012
 30
0.0
 10
73.9355765906
 20
47.9371230962
 30
0.0
 10
73.8755009694
 20
54.1322565469
 30
0.0
 10
73.8153462064
 20
60.5257601852
 30
0.0
 10
73.7647718526
 20
65.871298817
 30
0.0
 10
73.7237391555
 20
70.0692169814
 30
0.0
 10
73.6932623321
 20
73.0902285862
 30
0.0
 10
73.6628003445
 20
75.9854384339
 30
0.0
 10
73.6323571008
 20
78.728056162
 30
0.0
 10
73.6019431966
 20
81.2926669016
 30
0.0
 10
73.5715669886
 20
83.6555590429
 30
0.0
 10
73.5412450632
 20
85.7948283613
 30
0.0
 10
73.5151982617
 20
87.428609388
 30
0.0
 10
73.4940913798
 20
88.6091465503
 30
0.0
 10
73.4788448794
 20
89.3947809663
 30
0.0
 10
73.4636151587
 20
90.1111972265
 30
0.0
 10
73.4484080282
 20
90.7567344973
 30
0.0
 10
73.4332258721
 20
91.3298842703
 30
0.0
 10
73.4180892673
 20
91.8293323428
 30
0.0
 10
73.4030125344
 20
92.2539275449
 30
0.0
 10
73.3898833695
 20
92.5605001995
 30
0.0
 10
73.3791053902
 20
92.7675403353
 30
0.0
 10
73.3715233045
 20
92.8940645939
 30
0.0
 10
73.3640099122
 20
93.0011072763
 30
0.0
 10
73.3564539338
 20
93.0892564694
 30
0.0
 10
73.3492545587
 20
93.1567450543
 30
0.0
 10
73.3416582667
 20
93.2077914622
 30
0.0
 10
73.3357184749
 20
93.2340405268
 30
0.0
 10
73.3290813841
 20
93.2516214508
 30
0.0
 10
73.3249498637
 20
93.2516091975
 30
0.0
  0
SPLINE
  5
4D9
100
AcDbEntity
  8
0
100
AcDbSpline
 62
7
  6
CONTINUOUS
 70
0
 71
3
 72
29
 73
25
 74
0
 42
0.0000001
 43
0.0000001
 44
0.0000000001
 40
0.0
 40
0.0
 40
0.0
 40
0.0
 40
0.1634746874
 40
0.3364268426
 40
0.4230202741
 40
0.5078401089
 40
0.5895291457
 40
0.6667800185
 40
0.7383562937
 40
0.8031114136
 40
0.8600095349
 40
0.8852237356
 40
0.9081411917
 40
0.9286732839
 40
0.9467367263
 40
0.9622580687
 40
0.9751787224
 40
0.9854437359
 40
0.9895682198
 40
0.99301596
 40
0.995783673
 40
0.9978686192
 40
0.9992710443
 40
1.0
 40
1.0
 40
1.0
 40
1.0
 10
75.7749495505
 20
44.1794765026
 30
0.0
 10
75.7466445396
 20
46.8535198053
 30
0.0
 10
75.6921556311
 20
52.3566739828
 30
0.0
 10
75.6271390108
 20
59.276325935
 30
0.0
 10
75.5738631744
 20
64.9093598391
 30
0.0
 10
75.5339008045
 20
69.0495293274
 30
0.0
 10
75.4939644026
 20
73.0368619674
 30
0.0
 10
75.4540691012
 20
76.8075395199
 30
0.0
 10
75.4142420051
 20
80.3011887583
 30
0.0
 10
75.3745054615
 20
83.4618758915
 30
0.0
 10
75.3402971607
 20
85.8641586345
 30
0.0
 10
75.3124563462
 20
87.5820584239
 30
0.0
 10
75.2924463604
 20
88.7051134254
 30
0.0
 10
75.2724762438
 20
89.7111738876
 30
0.0
 10
75.252552616
 20
90.5962183687
 30
0.0
 10
75.2327162528
 20
91.356722152
 30
0.0
 10
75.2129734863
 20
91.989596033
 30
0.0
 10
75.1957460766
 20
92.4360423223
 30
0.0
 10
75.1813932031
 20
92.727455257
 30
0.0
 10
75.1715812202
 20
92.8963761488
 30
0.0
 10
75.1615935957
 20
93.031645205
 30
0.0
 10
75.1524918119
 20
93.1339361526
 30
0.0
 10
75.142300396
 20
93.2014863894
 30
0.0
 10
75.1361137378
 20
93.236766549
 30
0.0
 10
75.1301494981
 20
93.2470924215
 30
0.0
  0
SPLINE
  5
4DA
100
AcDbEntity
  8
0
100
AcDbSpline
 62
7
  6
CONTINUOUS
 70
0
 71
3
 72
35
 73
31
 74
0
 42
0.0000001
 43
0.0000001
 44
0.0000000001
 40
0.0
 40
0.0
 40
0.0
 40
0.0
 40
0.1648223954
 40
0.2515066944
 40
0.3391850911
 40
0.4264228188
 40
0.5118023311
 40
0.593935127
 40
0.6714855413
 40
0.7431924783
 40
0.8078888419
 40
0.8372741061
 40
0.8645224733
 40
0.8895237456
 40
0.9121735406
 40
0.9323833119
 40
0.9500681556
 40
0.965157193
 40
0.9717097031
 40
0.9775910542
 40
0.9827946407
 40
0.9873162199
 40
0.9911520919
 40
0.9942987081
 40
0.9967528442
 40
0.9985126976
 40
0.999133218
 40
0.9995824171
 40
0.9998644492
 40
1.0
 40
1.0
 40
1.0
 40
1.0
 10
75.9749495505
 20
44.1794765026
 30
0.0
 10
75.9464071277
 20
46.8759486904
 30
0.0
 10
75.9056895794
 20
50.990594183
 30
0.0
 10
75.8528437804
 20
56.5396757035
 30
0.0
 10
75.8125516349
 20
60.8194735155
 30
0.0
 10
75.7722583127
 20
65.0779230063
 30
0.0
 10
75.7319804857
 20
69.2456381908
 30
0.0
 10
75.6917291004
 20
73.2548540038
 30
0.0
 10
75.6515238591
 20
77.0403645462
 30
0.0
 10
75.6113821921
 20
80.5405849044
 30
0.0
 10
75.5770142344
 20
83.2527988628
 30
0.0
 10
75.5491510487
 20
85.2376571874
 30
0.0
 10
75.5289431595
 20
86.5731154702
 30
0.0
 10
75.5087586947
 20
87.7983629955
 30
0.0
 10
75.4885959805
 20
88.9084368935
 30
0.0
 10
75.468477941
 20
89.898787544
 30
0.0
 10
75.4484076279
 20
90.765410359
 30
0.0
 10
75.4310412324
 20
91.4085893912
 30
0.0
 10
75.4169017856
 20
91.8586640227
 30
0.0
 10
75.4068161298
 20
92.1470513774
 30
0.0
 10
75.3967493467
 20
92.4021872673
 30
0.0
 10
75.3867086175
 20
92.6238352728
 30
0.0
 10
75.376717675
 20
92.8117749173
 30
0.0
 10
75.3667861627
 20
92.9658869209
 30
0.0
 10
75.35703179
 20
93.0858304929
 30
0.0
 10
75.3482815594
 20
93.1646586698
 30
0.0
 10
75.3410794511
 20
93.2101455572
 30
0.0
 10
75.3359157138
 20
93.2321292222
 30
0.0
 10
75.3320683686
 20
93.2448884329
 30
0.0
 10
75.3271678954
 20
93.2515947453
 30
0.0
 10
75.3249501808
 20
93.2515983439
 30
0.0
  0
SPLINE
  5
4DB
100
AcDbEntity
  8
0
100
AcDbSpline
 62
7
  6
CONTINUOUS
 70
0
 71
3
 72
48
 73
44
 74
0
 42
0.0000001
 43
0.0000001
 44
0.0000000001
 40
0.0
 40
0.0
 40
0.0
 40
0.0
 40
0.0001866682
 40
0.0006434228
 40
0.0013885358
 40
0.0024246435
 40
0.0037522626
 40
0.0053713137
 40
0.0072814817
 40
0.0094819701
 40
0.0147475686
 40
0.0211548275
 40
0.0286900904
 40
0.0373367229
 40
0.0470726597
 40
0.0578752105
 40
0.0697206789
 40
0.0825799416
 40
0.1112157264
 40
0.1435152208
 40
0.1791733399
 40
0.2178540479
 40
0.2591943887
 40
0.302803403
 40
0.3482718382
 40
0.39517056
 40
0.4914839333
 40
0.5881239282
 40
0.6814586772
 40
0.7679802337
 40
0.8076561494
 40
0.8444367586
 40
0.8779754782
 40
0.9079555467
 40
0.9340968821
 40
0.9561507704
 40
0.9739124179
 40
0.9811290065
 40
0.9872142435
 40
0.9921527028
 40
0.9959328719
 40
0.9985491754
 40
1.0
 40
1.0
 40
1.0
 40
1.0
 10
82.1249495505
 20
25.7516558688
 30
0.0
 10
82.1207498415
 20
25.7516558688
 30
0.0
 10
82.1141292316
 20
25.7696315455
 30
0.0
 10
82.1080900167
 20
25.7963000695
 30
0.0
 10
82.100454506
 20
25.8482670413
 30
0.0
 10
82.0931765499
 20
25.9168939377
 30
0.0
 10
82.0855563655
 20
26.0065449919
 30
0.0
 10
82.0779724557
 20
26.1154231766
 30
0.0
 10
82.0703231431
 20
26.2441508234
 30
0.0
 10
82.0594527445
 20
26.4548023844
 30
0.0
 10
82.0462103964
 20
26.7666645348
 30
0.0
 10
82.0310010092
 20
27.1985431385
 30
0.0
 10
82.0157356832
 20
27.7065338424
 30
0.0
 10
82.0004254145
 20
28.2894392271
 30
0.0
 10
81.9850839712
 20
28.945875158
 30
0.0
 10
81.9697207333
 20
29.6742960976
 30
0.0
 10
81.9543446306
 20
30.4730003735
 30
0.0
 10
81.9330557642
 20
31.6728804062
 30
0.0
 10
81.9067865428
 20
33.332922429
 30
0.0
 10
81.876202344
 20
35.5058907975
 30
0.0
 10
81.8455655313
 20
37.9048718632
 30
0.0
 10
81.8148873177
 20
40.5072707609
 30
0.0
 10
81.7841833308
 20
43.2885621679
 30
0.0
 10
81.753457663
 20
46.2225741029
 30
0.0
 10
81.7227187848
 20
49.2816463045
 30
0.0
 10
81.6813548686
 20
53.526427494
 30
0.0
 10
81.6303806907
 20
58.9224402518
 30
0.0
 10
81.5697304814
 20
65.3631377673
 30
0.0
 10
81.5091512689
 20
71.5835271915
 30
0.0
 10
81.4574589626
 20
76.5223496055
 30
0.0
 10
81.4153159539
 20
80.1888302294
 30
0.0
 10
81.3846602127
 20
82.6633417697
 30
0.0
 10
81.3540588871
 20
84.9196965379
 30
0.0
 10
81.3235213588
 20
86.9366622436
 30
0.0
 10
81.2931197538
 20
88.6952106495
 30
0.0
 10
81.2628460539
 20
90.1788149858
 30
0.0
 10
81.2364692191
 20
91.2366432689
 30
0.0
 10
81.2145532773
 20
91.9351637741
 30
0.0
 10
81.1994508069
 20
92.3452902561
 30
0.0
 10
81.184206722
 20
92.6779356212
 30
0.0
 10
81.1699310629
 20
92.9327375821
 30
0.0
 10
81.1546176037
 20
93.108300394
 30
0.0
 10
81.1445639201
 20
93.1997655658
 30
0.0
 10
81.1360151243
 20
93.2312672225
 30
0.0
  0
SPLINE
  5
4DC
100
AcDbEntity
  8
0
100
AcDbSpline
 62
7
  6
CONTINUOUS
 70
0
 71
3
 72
9
 73
5
 74
0
 42
0.0000001
 43
0.0000001
 44
0.0000000001
 40
0.0
 40
0.0
 40
0.0
 40
0.0
 40
0.3100502577
 40
1.0
 40
1.0
 40
1.0
 40
1.0
 10
81.1360151243
 20
93.2312672225
 30
0.0
 10
81.1355564803
 20
93.2329572904
 30
0.0
 10
81.1339775364
 20
93.2383688234
 30
0.0
 10
81.1321008297
 20
93.2437702418
 30
0.0
 10
81.1301496356
 20
93.2471434765
 30
0.0
  0
SPLINE
  5
4DD
100
AcDbEntity
  8
0
100
AcDbSpline
 62
7
  6
CONTINUOUS
 70
0
 71
3
 72
52
 73
48
 74
0
 42
0.0000001
 43
0.0000001
 44
0.0000000001
 40
0.0
 40
0.0
 40
0.0
 40
0.0
 40
0.0002846931
 40
0.0008651857
 40
0.0017441044
 40
0.0029216208
 40
0.0043974353
 40
0.0061710952
 40
0.01060822
 40
0.016220559
 40
0.0229938805
 40
0.0309133989
 40
0.039959005
 40
0.0501072723
 40
0.0613346508
 40
0.0869147746
 40
0.1164486549
 40
0.1496497774
 40
0.1861977963
 40
0.2257376882
 40
0.2678899798
 40
0.3122477731
 40
0.4058605436
 40
0.5029973114
 40
0.5999574775
 40
0.6930593456
 40
0.7370524334
 40
0.77877979
 40
0.817847797
 40
0.8538871403
 40
0.8865611304
 40
0.9155609943
 40
0.9406172471
 40
0.951591407
 40
0.9614958838
 40
0.9703060918
 40
0.9780017846
 40
0.9845668576
 40
0.9899854144
 40
0.9922602196
 40
0.9942439611
 40
0.9959358284
 40
0.9973350467
 40
0.9984409142
 40
0.9992529099
 40
0.9997711435
 40
1.0
 40
1.0
 40
1.0
 40
1.0
 10
70.8250127946
 20
93.7755820192
 30
0.0
 10
70.8282848098
 20
93.7698894861
 30
0.0
 10
70.8308526347
 20
93.749423248
 30
0.0
 10
70.8362046276
 20
93.7100558477
 30
0.0
 10
70.8404912902
 20
93.6491107813
 30
0.0
 10
70.8454932581
 20
93.5679138236
 30
0.0
 10
70.85030076
 20
93.4658812984
 30
0.0
 10
70.8574048973
 20
93.2887666044
 30
0.0
 10
70.865890869
 20
93.0162036183
 30
0.0
 10
70.8756277782
 20
92.6283456398
 30
0.0
 10
70.8854005822
 20
92.1601445874
 30
0.0
 10
70.8952174853
 20
91.6127513684
 30
0.0
 10
70.9050540525
 20
90.9875100233
 30
0.0
 10
70.9149087825
 20
90.28597157
 30
0.0
 10
70.9286643209
 20
89.203114405
 30
0.0
 10
70.9455564787
 20
87.6731707121
 30
0.0
 10
70.9651215846
 20
85.636446241
 30
0.0
 10
70.9847223682
 20
83.346758435
 30
0.0
 10
71.0043475486
 20
80.8262939345
 30
0.0
 10
71.0239865125
 20
78.0993823604
 30
0.0
 10
71.043631082
 20
75.1923491098
 30
0.0
 10
71.0703052069
 20
71.0382484986
 30
0.0
 10
71.1030948343
 20
65.6160504383
 30
0.0
 10
71.1417878125
 20
58.9806939416
 30
0.0
 10
71.1804373919
 20
52.3571203698
 30
0.0
 10
71.2131446223
 20
46.9591894351
 30
0.0
 10
71.2397078721
 20
42.8350832428
 30
0.0
 10
71.2592306864
 20
39.9571444805
 30
0.0
 10
71.2787236488
 20
37.2626477345
 30
0.0
 10
71.2981836435
 20
34.7769550304
 30
0.0
 10
71.3175935704
 20
32.523471883
 30
0.0
 10
71.336948293
 20
30.5233025169
 30
0.0
 10
71.3536466557
 20
29.0235966119
 30
0.0
 10
71.3672375967
 20
27.9642839509
 30
0.0
 10
71.3769578869
 20
27.2796366843
 30
0.0
 10
71.3866586852
 20
26.6706093601
 30
0.0
 10
71.3963294337
 20
26.1386084937
 30
0.0
 10
71.4059643863
 20
25.6848461603
 30
0.0
 10
71.4143376587
 20
25.356103345
 30
0.0
 10
71.4212159444
 20
25.1330319153
 30
0.0
 10
71.426035708
 20
24.9958651449
 30
0.0
 10
71.4308984407
 20
24.8789713387
 30
0.0
 10
71.4355486399
 20
24.782155438
 30
0.0
 10
71.440624504
 20
24.7061588628
 30
0.0
 10
71.4444091754
 20
24.6493048444
 30
0.0
 10
71.4503175502
 20
24.6152334582
 30
0.0
 10
71.4519929273
 20
24.5963161303
 30
0.0
 10
71.4557415266
 20
24.5926003926
 30
0.0
  0
SPLINE
  5
4DE
100
AcDbEntity
  8
0
100
AcDbSpline
 62
7
  6
CONTINUOUS
 70
0
 71
3
 72
11
 73
7
 74
0
 42
0.0000001
 43
0.0000001
 44
0.0000000001
 40
0.0
 40
0.0
 40
0.0
 40
0.0
 40
0.0744944778
 40
0.2627089069
 40
0.5709322743
 40
1.0
 40
1.0
 40
1.0
 40
1.0
 10
76.04663801
 20
94.5016558688
 30
0.0
 10
76.051489629
 20
94.5016558688
 30
0.0
 10
76.0580658719
 20
94.4794732915
 30
0.0
 10
76.0649456
 20
94.4482599458
 30
0.0
 10
76.0729341323
 20
94.3854849169
 30
0.0
 10
76.0774545926
 20
94.3386570612
 30
0.0
 10
76.079883943
 20
94.3108188687
 30
0.0
  0
SPLINE
  5
4DF
100
AcDbEntity
  8
0
100
AcDbSpline
 62
7
  6
CONTINUOUS
 70
0
 71
3
 72
20
 73
16
 74
0
 42
0.0000001
 43
0.0000001
 44
0.0000000001
 40
0.0
 40
0.0
 40
0.0
 40
0.0
 40
0.0056257225
 40
0.0137450688
 40
0.0373347174
 40
0.070430495
 40
0.1125490726
 40
0.163073137
 40
0.2212634861
 40
0.2862686351
 40
0.3571365859
 40
0.512239138
 40
0.677523345
 40
0.8433345174
 40
1.0
 40
1.0
 40
1.0
 40
1.0
 10
76.079883943
 20
94.3108188687
 30
0.0
 10
76.0881500138
 20
94.2160970568
 30
0.0
 10
76.102380095
 20
93.9841757201
 30
0.0
 10
76.1307380364
 20
93.353819152
 30
0.0
 10
76.1628649702
 20
92.2589464109
 30
0.0
 10
76.2000890098
 20
90.5894634463
 30
0.0
 10
76.2374651521
 20
88.4646407779
 30
0.0
 10
76.2753082914
 20
85.915655202
 30
0.0
 10
76.313271761
 20
82.9798186307
 30
0.0
 10
76.3513661556
 20
79.7001225625
 30
0.0
 10
76.4038291155
 20
74.7825463003
 30
0.0
 10
76.4677204127
 20
68.1701558871
 30
0.0
 10
76.5425714421
 20
59.953138693
 30
0.0
 10
76.61742712
 20
51.7097050182
 30
0.0
 10
76.6696122746
 20
46.2596918673
 30
0.0
 10
76.6966374156
 20
43.6119855701
 30
0.0
  0
SPLINE
  5
4E0
100
AcDbEntity
  8
0
100
AcDbSpline
 62
7
  6
CONTINUOUS
 70
0
 71
3
 72
27
 73
23
 74
0
 42
0.0000001
 43
0.0000001
 44
0.0000000001
 40
0.0
 40
0.0
 40
0.0
 40
0.0
 40
0.0004418734
 40
0.0017614065
 40
0.0039531514
 40
0.0070116644
 40
0.0109314368
 40
0.0157031039
 40
0.0277411556
 40
0.0430016756
 40
0.0613441506
 40
0.0826009795
 40
0.1066010952
 40
0.1620977247
 40
0.2263538877
 40
0.2978793932
 40
0.3751616766
 40
0.4566248965
 40
0.5406024696
 40
0.7090041326
 40
0.8664293411
 40
1.0
 40
1.0
 40
1.0
 40
1.0
 10
105.146637387
 20
102.0016558688
 30
0.0
 10
105.1502772229
 20
102.0010571606
 30
0.0
 10
105.1639931584
 20
101.995358249
 30
0.0
 10
105.1957506575
 20
101.9866258657
 30
0.0
 10
105.2479037759
 20
101.9694838922
 30
0.0
 10
105.3210303881
 20
101.9469132036
 30
0.0
 10
105.4146473113
 20
101.9176082591
 30
0.0
 10
105.5799550181
 20
101.8664402846
 30
0.0
 10
105.8359822006
 20
101.7881658414
 30
0.0
 10
106.2010378875
 20
101.6790575216
 30
0.0
 10
106.6407794555
 20
101.5511224907
 30
0.0
 10
107.1519283808
 20
101.4075283536
 30
0.0
 10
107.9640094727
 20
101.1884932768
 30
0.0
 10
109.1285154813
 20
100.8979634724
 30
0.0
 10
110.6888847274
 20
100.5575732906
 30
0.0
 10
112.4394128531
 20
100.2400832187
 30
0.0
 10
114.3437659467
 20
99.9738221504
 30
0.0
 10
116.3618322697
 20
99.7834619637
 30
0.0
 10
119.1467001188
 20
99.6550846797
 30
0.0
 10
122.572573125
 20
99.7529307622
 30
0.0
 10
126.383286323
 20
100.2251073942
 30
0.0
 10
128.7652079159
 20
100.7132273337
 30
0.0
 10
129.8495811121
 20
100.9729555335
 30
0.0
  0
SPLINE
  5
4E1
100
AcDbEntity
  8
0
100
AcDbSpline
 62
7
  6
CONTINUOUS
 70
0
 71
3
 72
11
 73
7
 74
0
 42
0.0000001
 43
0.0000001
 44
0.0000000001
 40
0.0
 40
0.0
 40
0.0
 40
0.0
 40
0.0746056028
 40
0.262829308
 40
0.571011292
 40
1.0
 40
1.0
 40
1.0
 40
1.0
 10
73.4032624522
 20
24.5016558688
 30
0.0
 10
73.3984728568
 20
24.5016558688
 30
0.0
 10
73.3919264041
 20
24.5234884736
 30
0.0
 10
73.3851188687
 20
24.55428326
 30
0.0
 10
73.377174404
 20
24.6161309186
 30
0.0
 10
73.3726870233
 20
24.662286145
 30
0.0
 10
73.3702733436
 20
24.6897207631
 30
0.0
  0
SPLINE
  5
4E2
100
AcDbEntity
  8
0
100
AcDbSpline
 62
7
  6
CONTINUOUS
 70
0
 71
3
 72
39
 73
35
 74
0
 42
0.0000001
 43
0.0000001
 44
0.0000000001
 40
0.0
 40
0.0
 40
0.0
 40
0.0
 40
0.0071282845
 40
0.0186319708
 40
0.0344125638
 40
0.0543279939
 40
0.0782035354
 40
0.1058247912
 40
0.1712929439
 40
0.2484045136
 40
0.334415172
 40
0.426269388
 40
0.52070125
 40
0.6143482518
 40
0.7038783494
 40
0.7460961693
 40
0.7861094148
 40
0.8235606707
 40
0.858117649
 40
0.8894706857
 40
0.9173415328
 40
0.9414825244
 40
0.9520850824
 40
0.9616770648
 40
0.9702380891
 40
0.9777478884
 40
0.98418935
 40
0.9895499666
 40
0.9938177574
 40
0.9969824916
 40
0.9981499958
 40
0.9990409206
 40
0.9996561567
 40
1.0
 40
1.0
 40
1.0
 40
1.0
 10
73.3702733436
 20
24.6897207631
 30
0.0
 10
73.3557341027
 20
24.8549781998
 30
0.0
 10
73.3343072462
 20
25.2882347666
 30
0.0
 10
73.305402291
 20
26.0885181876
 30
0.0
 10
73.2767855294
 20
27.1866689466
 30
0.0
 10
73.2473068568
 20
28.5727450024
 30
0.0
 10
73.2177971046
 20
30.2344600228
 30
0.0
 10
73.1757929546
 20
32.9562474214
 30
0.0
 10
73.1250280419
 20
36.9169975755
 30
0.0
 10
73.0664210127
 20
42.2366337576
 30
0.0
 10
73.007580865
 20
48.1703817944
 30
0.0
 10
72.9485732016
 20
54.5072390137
 30
0.0
 10
72.8895138578
 20
61.0218230595
 30
0.0
 10
72.8304650832
 20
67.4823159559
 30
0.0
 10
72.7804168726
 20
72.7276687059
 30
0.0
 10
72.7397603004
 20
76.7248407126
 30
0.0
 10
72.709885042
 20
79.5100341431
 30
0.0
 10
72.6800352253
 20
82.1169271015
 30
0.0
 10
72.6502224843
 20
84.5222582529
 30
0.0
 10
72.6204627615
 20
86.7046078263
 30
0.0
 10
72.5907722602
 20
88.6445231531
 30
0.0
 10
72.5651539877
 20
90.1015182036
 30
0.0
 10
72.5443076859
 20
91.133124075
 30
0.0
 10
72.5293743186
 20
91.8021833052
 30
0.0
 10
72.5144688098
 20
92.3992452877
 30
0.0
 10
72.4996060382
 20
92.9229632744
 30
0.0
 10
72.4847838277
 20
93.3721594556
 30
0.0
 10
72.4700931082
 20
93.7458796642
 30
0.0
 10
72.4554582358
 20
94.0432261711
 30
0.0
 10
72.4427287722
 20
94.2430518777
 30
0.0
 10
72.4317398271
 20
94.3640372608
 30
0.0
 10
72.4247110228
 20
94.4260232318
 30
0.0
 10
72.4174121845
 20
94.4681758699
 30
0.0
 10
72.4122612286
 20
94.490363421
 30
0.0
 10
72.4082709848
 20
94.4972998165
 30
0.0
  0
SPLINE
  5
4E3
100
AcDbEntity
  8
0
100
AcDbSpline
 62
7
  6
CONTINUOUS
 70
0
 71
3
 72
23
 73
19
 74
0
 42
0.0000001
 43
0.0000001
 44
0.0000000001
 40
0.0
 40
0.0
 40
0.0
 40
0.0
 40
0.0010930444
 40
0.0043606407
 40
0.0097929462
 40
0.0173801252
 40
0.0271123499
 40
0.0389797996
 40
0.0690630087
 40
0.1074392115
 40
0.153888165
 40
0.2081841958
 40
0.2700498081
 40
0.3391835598
 40
0.4152853585
 40
0.587108463
 40
0.782901696
 40
1.0
 40
1.0
 40
1.0
 40
1.0
 10
106.346637387
 20
103.2016558688
 30
0.0
 10
106.3480241092
 20
103.2002968736
 30
0.0
 10
106.3563900612
 20
103.1994008049
 30
0.0
 10
106.3717493383
 20
103.1919292432
 30
0.0
 10
106.3996063373
 20
103.183203345
 30
0.0
 10
106.4374575725
 20
103.1693375237
 30
0.0
 10
106.4864647224
 20
103.1522907294
 30
0.0
 10
106.5730534326
 20
103.1218414369
 30
0.0
 10
106.7078211972
 20
103.0749251185
 30
0.0
 10
106.9008189716
 20
103.0084937446
 30
0.0
 10
107.1348984007
 20
102.929249521
 30
0.0
 10
107.4089950404
 20
102.8381091143
 30
0.0
 10
107.7220167414
 20
102.7363391455
 30
0.0
 10
108.0727437445
 20
102.6252970317
 30
0.0
 10
108.6111050197
 20
102.4598555407
 30
0.0
 10
109.3679355973
 20
102.2395039638
 30
0.0
 10
110.3716462047
 20
101.9719980164
 30
0.0
 10
111.0852336539
 20
101.802007991
 30
0.0
 10
111.461641813
 20
101.718134379
 30
0.0
  0
SPLINE
  5
4E4
100
AcDbEntity
  8
0
100
AcDbSpline
 62
7
  6
CONTINUOUS
 70
0
 71
3
 72
11
 73
7
 74
0
 42
0.0000001
 43
0.0000001
 44
0.0000000001
 40
0.0
 40
0.0
 40
0.0
 40
0.0
 40
0.236303292
 40
0.499527315
 40
0.7630031425
 40
1.0
 40
1.0
 40
1.0
 40
1.0
 10
111.461641813
 20
101.718134379
 30
0.0
 10
112.6788538774
 20
101.4469076007
 30
0.0
 10
115.2810098133
 20
100.994743835
 30
0.0
 10
119.3095941745
 20
100.7459301148
 30
0.0
 10
123.3423946379
 20
100.9863068651
 30
0.0
 10
125.9503369485
 20
101.4346468609
 30
0.0
 10
127.1715387299
 20
101.7047909462
 30
0.0
  0
SPLINE
  5
4E5
100
AcDbEntity
  8
0
100
AcDbSpline
 62
7
  6
CONTINUOUS
 70
0
 71
3
 72
11
 73
7
 74
0
 42
0.0000001
 43
0.0000001
 44
0.0000000001
 40
0.0
 40
0.0
 40
0.0
 40
0.0
 40
0.0744875994
 40
0.2627016202
 40
0.5709275566
 40
1.0
 40
1.0
 40
1.0
 40
1.0
 10
72.0466367346
 20
94.5016558688
 30
0.0
 10
72.0514915117
 20
94.5016558688
 30
0.0
 10
72.0580686363
 20
94.4794547005
 30
0.0
 10
72.0649523922
 20
94.4482199146
 30
0.0
 10
72.072943084
 20
94.3853962506
 30
0.0
 10
72.0774654361
 20
94.3385333256
 30
0.0
 10
72.0798956613
 20
94.3106740498
 30
0.0
  0
SPLINE
  5
4E6
100
AcDbEntity
  8
0
100
AcDbSpline
 62
7
  6
CONTINUOUS
 70
0
 71
3
 72
39
 73
35
 74
0
 42
0.0000001
 43
0.0000001
 44
0.0000000001
 40
0.0
 40
0.0
 40
0.0
 40
0.0
 40
0.0071636653
 40
0.0187001361
 40
0.03451048
 40
0.0544524308
 40
0.0783511134
 40
0.1059918497
 40
0.1714876464
 40
0.2486123756
 40
0.3346249084
 40
0.426469475
 40
0.5208824192
 40
0.6145037655
 40
0.7040036717
 40
0.7462060819
 40
0.7862045351
 40
0.8236412827
 40
0.8581841387
 40
0.8895234566
 40
0.9173816941
 40
0.9415112282
 40
0.9521087626
 40
0.961696012
 40
0.9702527555
 40
0.9777588899
 40
0.9841971325
 40
0.989555005
 40
0.993820659
 40
0.9969838696
 40
0.9981508136
 40
0.9990413184
 40
0.9996562797
 40
1.0
 40
1.0
 40
1.0
 40
1.0
 10
72.0798956613
 20
94.3106740498
 30
0.0
 10
72.094383312
 20
94.1445925459
 30
0.0
 10
72.1158149119
 20
93.7097701508
 30
0.0
 10
72.1447204206
 20
92.9072377442
 30
0.0
 10
72.1733417355
 20
91.8070612156
 30
0.0
 10
72.2028098176
 20
90.4191941192
 30
0.0
 10
72.2323147097
 20
88.7559395824
 30
0.0
 10
72.2743048332
 20
86.0326306518
 30
0.0
 10
72.3250551308
 20
82.070643465
 30
0.0
 10
72.3836482365
 20
76.7502369621
 30
0.0
 10
72.4424738212
 20
70.8166123344
 30
0.0
 10
72.501466795
 20
64.4806419595
 30
0.0
 10
72.5605111207
 20
57.9675929108
 30
0.0
 10
72.6195446851
 20
51.5091108126
 30
0.0
 10
72.6695804177
 20
46.2656362821
 30
0.0
 10
72.7102269783
 20
42.270037359
 30
0.0
 10
72.7400947646
 20
39.4860012161
 30
0.0
 10
72.7699373986
 20
36.8802281106
 30
0.0
 10
72.7997425864
 20
34.4759833757
 30
0.0
 10
72.829494953
 20
32.2946666879
 30
0.0
 10
72.8591774477
 20
30.3557120632
 30
0.0
 10
72.8847894003
 20
28.8994551214
 30
0.0
 10
72.9056295295
 20
27.8683861968
 30
0.0
 10
72.92055877
 20
27.1996817023
 30
0.0
 10
72.9354603855
 20
26.6029398242
 30
0.0
 10
72.950319247
 20
26.0795036363
 30
0.0
 10
72.9651378894
 20
25.6305503779
 30
0.0
 10
72.9798247828
 20
25.2570343657
 30
0.0
 10
72.9944548232
 20
24.959849345
 30
0.0
 10
73.0071785015
 20
24.760130134
 30
0.0
 10
73.0181629261
 20
24.6392079373
 30
0.0
 10
73.0251894722
 20
24.5772537758
 30
0.0
 10
73.0324862335
 20
24.535121832
 30
0.0
 10
73.0376370236
 20
24.5129447554
 30
0.0
 10
73.0416266036
 20
24.5060116679
 30
0.0
  0
SPLINE
  5
4E7
100
AcDbEntity
  8
0
100
AcDbSpline
 62
7
  6
CONTINUOUS
 70
0
 71
3
 72
29
 73
25
 74
0
 42
0.0000001
 43
0.0000001
 44
0.0000000001
 40
0.0
 40
0.0
 40
0.0
 40
0.0
 40
0.1635186434
 40
0.3365251732
 40
0.423143187
 40
0.507983146
 40
0.5896867463
 40
0.6669465701
 40
0.738526541
 40
0.8032804075
 40
0.8601697929
 40
0.88537518
 40
0.9082844586
 40
0.9288058917
 40
0.9468554581
 40
0.9623640953
 40
0.9752663863
 40
0.9855133364
 40
0.9896285985
 40
0.9930652765
 40
0.9958203392
 40
0.9978929403
 40
0.9992837127
 40
1.0
 40
1.0
 40
1.0
 40
1.0
 10
75.0532616801
 20
43.611991703
 30
0.0
 10
75.0249492237
 20
46.3858220166
 30
0.0
 10
74.9704450399
 20
52.0944674907
 30
0.0
 10
74.9054104749
 20
59.2724889854
 30
0.0
 10
74.8521185061
 20
65.1158356474
 30
0.0
 10
74.8121451371
 20
69.4103515324
 30
0.0
 10
74.77219831
 20
73.5461057456
 30
0.0
 10
74.732292713
 20
77.456903353
 30
0.0
 10
74.6924552683
 20
81.0801459809
 30
0.0
 10
74.6527084486
 20
84.3577971554
 30
0.0
 10
74.6184925951
 20
86.8487444556
 30
0.0
 10
74.5906405323
 20
88.6298446175
 30
0.0
 10
74.5706267917
 20
89.7940345361
 30
0.0
 10
74.5506525618
 20
90.8368126703
 30
0.0
 10
74.5307181115
 20
91.7540179176
 30
0.0
 10
74.5108837386
 20
92.5419423012
 30
0.0
 10
74.4911315872
 20
93.1974418199
 30
0.0
 10
74.4739033555
 20
93.6596710895
 30
0.0
 10
74.4595426999
 20
93.9612489955
 30
0.0
 10
74.449735484
 20
94.1358891977
 30
0.0
 10
74.4397191991
 20
94.2755732862
 30
0.0
 10
74.4306651269
 20
94.3810742358
 30
0.0
 10
74.4203847743
 20
94.4505172781
 30
0.0
 10
74.4143384197
 20
94.4867689384
 30
0.0
 10
74.4082759028
 20
94.4972998363
 30
0.0
  0
SPLINE
  5
4E8
100
AcDbEntity
  8
0
100
AcDbSpline
 62
7
  6
CONTINUOUS
 70
0
 71
3
 72
11
 73
7
 74
0
 42
0.0000001
 43
0.0000001
 44
0.0000000001
 40
0.0
 40
0.0
 40
0.0
 40
0.0
 40
0.0745069584
 40
0.2627200751
 40
0.5709387055
 40
1.0
 40
1.0
 40
1.0
 40
1.0
 10
74.0466378068
 20
94.5016558688
 30
0.0
 10
74.0514931831
 20
94.5016558688
 30
0.0
 10
74.058080323
 20
94.4794633364
 30
0.0
 10
74.0649593825
 20
94.4482265914
 30
0.0
 10
74.0729516682
 20
94.3854160779
 30
0.0
 10
74.0774710952
 20
94.3385595155
 30
0.0
 10
74.0799002525
 20
94.310704706
 30
0.0
  0
SPLINE
  5
4E9
100
AcDbEntity
  8
0
100
AcDbSpline
 62
7
  6
CONTINUOUS
 70
0
 71
3
 72
39
 73
35
 74
0
 42
0.0000001
 43
0.0000001
 44
0.0000000001
 40
0.0
 40
0.0
 40
0.0
 40
0.0
 40
0.0071632875
 40
0.0186994159
 40
0.0345094479
 40
0.0544511187
 40
0.0783495554
 40
0.1059900845
 40
0.1714857222
 40
0.2486103155
 40
0.3346227115
 40
0.4264673631
 40
0.5208804896
 40
0.6145020869
 40
0.7040023019
 40
0.7462047685
 40
0.7862031903
 40
0.8236399769
 40
0.858182943
 40
0.8895224331
 40
0.9173808361
 40
0.9415105853
 40
0.9521082011
 40
0.9616955581
 40
0.9702524076
 40
0.9777586159
 40
0.9841969351
 40
0.989554885
 40
0.9938205932
 40
0.9969838291
 40
0.9981507809
 40
0.9990412918
 40
0.9996562607
 40
1.0
 40
1.0
 40
1.0
 40
1.0
 10
74.0799002525
 20
94.310704706
 30
0.0
 10
74.0943831316
 20
94.1446315367
 30
0.0
 10
74.115808444
 20
93.709825568
 30
0.0
 10
74.1447201688
 20
92.9073170319
 30
0.0
 10
74.1733411764
 20
91.8071617473
 30
0.0
 10
74.2028083583
 20
90.4193135256
 30
0.0
 10
74.2323134744
 20
88.7560753191
 30
0.0
 10
74.2743040898
 20
86.032779439
 30
0.0
 10
74.325054294
 20
82.070802186
 30
0.0
 10
74.3836476944
 20
76.750403385
 30
0.0
 10
74.4424733436
 20
70.8167805075
 30
0.0
 10
74.5014664562
 20
64.4808042987
 30
0.0
 10
74.5605109235
 20
57.9677403115
 30
0.0
 10
74.6195446275
 20
51.5092380887
 30
0.0
 10
74.6695804672
 20
46.2657469008
 30
0.0
 10
74.7102270352
 20
42.2701384431
 30
0.0
 10
74.740094781
 20
39.4860995804
 30
0.0
 10
74.7699373892
 20
36.8803225843
 30
0.0
 10
74.7997426005
 20
34.476069312
 30
0.0
 10
74.8294948452
 20
32.2947412384
 30
0.0
 10
74.859177638
 20
30.3557728946
 30
0.0
 10
74.884789802
 20
28.8995045582
 30
0.0
 10
74.9056295769
 20
27.8684257642
 30
0.0
 10
74.9205584214
 20
27.1997141003
 30
0.0
 10
74.9354600054
 20
26.6029652661
 30
0.0
 10
74.9503198367
 20
26.0795228983
 30
0.0
 10
74.9651404033
 20
25.6305642015
 30
0.0
 10
74.9798282128
 20
25.2570431983
 30
0.0
 10
74.9944570851
 20
24.9598543878
 30
0.0
 10
75.0071756414
 20
24.7601326696
 30
0.0
 10
75.0181562021
 20
24.6392092684
 30
0.0
 10
75.025181287
 20
24.5772541847
 30
0.0
 10
75.0324783544
 20
24.535121934
 30
0.0
 10
75.0376312321
 20
24.5129439304
 30
0.0
 10
75.0416231708
 20
24.5060116841
 30
0.0
  0
SPLINE
  5
4EA
100
AcDbEntity
  8
0
100
AcDbSpline
 62
7
  6
CONTINUOUS
 70
0
 71
3
 72
11
 73
7
 74
0
 42
0.0000001
 43
0.0000001
 44
0.0000000001
 40
0.0
 40
0.0
 40
0.0
 40
0.0
 40
0.0746372059
 40
0.2628583026
 40
0.5710283927
 40
1.0
 40
1.0
 40
1.0
 40
1.0
 10
75.4032612843
 20
24.5016558688
 30
0.0
 10
75.3984646597
 20
24.5016558688
 30
0.0
 10
75.3918942483
 20
24.5235025266
 30
0.0
 10
75.3850899135
 20
24.5543402131
 30
0.0
 10
75.3771380575
 20
24.6162457235
 30
0.0
 10
75.3726538201
 20
24.6624496316
 30
0.0
 10
75.370240965
 20
24.6899120696
 30
0.0
  0
SPLINE
  5
4EB
100
AcDbEntity
  8
0
100
AcDbSpline
 62
7
  6
CONTINUOUS
 70
0
 71
3
 72
16
 73
12
 74
0
 42
0.0000001
 43
0.0000001
 44
0.0000000001
 40
0.0
 40
0.0
 40
0.0
 40
0.0
 40
0.0155073336
 40
0.0380713035
 40
0.1039904893
 40
0.1967554942
 40
0.3149357893
 40
0.4567086283
 40
0.6198613475
 40
0.8019263008
 40
1.0
 40
1.0
 40
1.0
 40
1.0
 10
75.370240965
 20
24.6899120696
 30
0.0
 10
75.3616787063
 20
24.78736529
 30
0.0
 10
75.3470633486
 20
25.0271478609
 30
0.0
 10
75.3178732561
 20
25.6825138637
 30
0.0
 10
75.2849141121
 20
26.8255163985
 30
0.0
 10
75.2466620996
 20
28.5716917053
 30
0.0
 10
75.2082699239
 20
30.7965115546
 30
0.0
 10
75.1693836313
 20
33.4654069559
 30
0.0
 10
75.1303699088
 20
36.5373609138
 30
0.0
 10
75.0912268734
 20
39.9645130743
 30
0.0
 10
75.0660152178
 20
42.3625008896
 30
0.0
 10
75.0532616801
 20
43.611991703
 30
0.0
  0
SPLINE
  5
4EC
100
AcDbEntity
  8
0
100
AcDbSpline
 62
7
  6
CONTINUOUS
 70
0
 71
3
 72
11
 73
7
 74
0
 42
0.0000001
 43
0.0000001
 44
0.0000000001
 40
0.0
 40
0.0
 40
0.0
 40
0.0
 40
0.0746160087
 40
0.2628351941
 40
0.5710130463
 40
1.0
 40
1.0
 40
1.0
 40
1.0
 10
77.4032610863
 20
24.5016558688
 30
0.0
 10
77.3984536107
 20
24.5016558688
 30
0.0
 10
77.3918784987
 20
24.5235644782
 30
0.0
 10
77.385061214
 20
24.554475597
 30
0.0
 10
77.377101628
 20
24.6165448657
 30
0.0
 10
77.3726113803
 20
24.6628673982
 30
0.0
 10
77.3701956892
 20
24.6904010648
 30
0.0
  0
SPLINE
  5
4ED
100
AcDbEntity
  8
0
100
AcDbSpline
 62
7
  6
CONTINUOUS
 70
0
 71
3
 72
39
 73
35
 74
0
 42
0.0000001
 43
0.0000001
 44
0.0000000001
 40
0.0
 40
0.0
 40
0.0
 40
0.0
 40
0.0071365586
 40
0.0186479417
 40
0.0344355217
 40
0.0543571784
 40
0.0782381529
 40
0.1058639681
 40
0.1713386787
 40
0.2484532396
 40
0.3344641946
 40
0.4263161109
 40
0.5207435071
 40
0.6143844648
 40
0.7039075174
 40
0.7461216283
 40
0.7861312122
 40
0.8235789863
 40
0.8581326624
 40
0.8894825301
 40
0.9173504582
 40
0.941488864
 40
0.9520902747
 40
0.9616812112
 40
0.970241298
 40
0.9777502748
 40
0.9841910303
 40
0.9895510596
 40
0.9938183847
 40
0.9969827756
 40
0.9981501548
 40
0.9990409874
 40
0.9996561672
 40
1.0
 40
1.0
 40
1.0
 40
1.0
 10
77.3701956892
 20
24.6904010648
 30
0.0
 10
77.3556796832
 20
24.8558522138
 30
0.0
 10
77.3342645381
 20
25.289475899
 30
0.0
 10
77.3053463247
 20
26.0902863427
 30
0.0
 10
77.2767292416
 20
27.1889128485
 30
0.0
 10
77.2472550951
 20
28.5754095936
 30
0.0
 10
77.2177460879
 20
30.2374858306
 30
0.0
 10
77.175744607
 20
32.959631859
 30
0.0
 10
77.124983695
 20
36.920671641
 30
0.0
 10
77.0663796839
 20
42.2404849343
 30
0.0
 10
77.0075431159
 20
48.1741979161
 30
0.0
 10
76.948538911
 20
54.5108425835
 30
0.0
 10
76.8894831218
 20
61.0250647663
 30
0.0
 10
76.8304379405
 20
67.4850858895
 30
0.0
 10
76.7803926802
 20
72.7299963683
 30
0.0
 10
76.7397385574
 20
76.7267937654
 30
0.0
 10
76.7098651726
 20
79.5117073699
 30
0.0
 10
76.6800171307
 20
82.1183317155
 30
0.0
 10
76.6502062048
 20
84.5234076902
 30
0.0
 10
76.6204483853
 20
86.7055173719
 30
0.0
 10
76.5907595534
 20
88.6452118464
 30
0.0
 10
76.5651426698
 20
90.1020378209
 30
0.0
 10
76.5442981951
 20
91.1335223855
 30
0.0
 10
76.5293661783
 20
91.8025022158
 30
0.0
 10
76.5144616339
 20
92.399493054
 30
0.0
 10
76.4995988932
 20
92.923148498
 30
0.0
 10
76.484775859
 20
93.3722909753
 30
0.0
 10
76.470085314
 20
93.745966566
 30
0.0
 10
76.4554527249
 20
94.0432776828
 30
0.0
 10
76.4427292024
 20
94.2430800663
 30
0.0
 10
76.4317447408
 20
94.3640514671
 30
0.0
 10
76.4247177419
 20
94.4260308149
 30
0.0
 10
76.4174190988
 20
94.4681789479
 30
0.0
 10
76.4122663174
 20
94.4903649208
 30
0.0
 10
76.4082741347
 20
94.4972998281
 30
0.0
  0
SPLINE
  5
4EE
100
AcDbEntity
  8
0
100
AcDbSpline
 62
7
  6
CONTINUOUS
 70
0
 71
3
 72
24
 73
20
 74
0
 42
0.0000001
 43
0.0000001
 44
0.0000000001
 40
0.0
 40
0.0
 40
0.0
 40
0.0
 40
0.2127595997
 40
0.4064168182
 40
0.5773653019
 40
0.6533466611
 40
0.722513068
 40
0.7845571981
 40
0.839188416
 40
0.8861628303
 40
0.9252626748
 40
0.9418004127
 40
0.9563073123
 40
0.9687673066
 40
0.979164612
 40
0.9874866932
 40
0.9937294495
 40
0.9978938231
 40
1.0
 40
1.0
 40
1.0
 40
1.0
 10
76.6966374156
 20
43.6119855701
 30
0.0
 10
76.710471512
 20
42.2566320688
 30
0.0
 10
76.7377547319
 20
39.6676224577
 30
0.0
 10
76.7802488946
 20
35.9896555637
 30
0.0
 10
76.8168044144
 20
33.183050907
 30
0.0
 10
76.8465595617
 20
31.1695210296
 30
0.0
 10
76.8679672591
 20
29.8497399947
 30
0.0
 10
76.8893333565
 20
28.665993098
 30
0.0
 10
76.9106447136
 20
27.6236482612
 30
0.0
 10
76.9318848685
 20
26.7275092081
 30
0.0
 10
76.9503326646
 20
26.0740542478
 30
0.0
 10
76.9654567666
 20
25.6274445948
 30
0.0
 10
76.9761161053
 20
25.3504849677
 30
0.0
 10
76.986786248
 20
25.1127138329
 30
0.0
 10
76.997250636
 20
24.9142760345
 30
0.0
 10
77.0080068066
 20
24.7558081929
 30
0.0
 10
77.0175647803
 20
24.6363860392
 30
0.0
 10
77.0287551658
 20
24.5583283009
 30
0.0
 10
77.0349261261
 20
24.5176393864
 30
0.0
 10
77.0416219517
 20
24.5060117072
 30
0.0
  0
SPLINE
  5
4EF
100
AcDbEntity
  8
0
100
AcDbSpline
 62
7
  6
CONTINUOUS
 70
0
 71
3
 72
43
 73
39
 74
0
 42
0.0000001
 43
0.0000001
 44
0.0000000001
 40
0.0
 40
0.0
 40
0.0
 40
0.0
 40
0.0003502405
 40
0.0009805329
 40
0.0018958149
 40
0.0030968666
 40
0.004583251
 40
0.0063542319
 40
0.0107464284
 40
0.0162657594
 40
0.0229000029
 40
0.0306324987
 40
0.0394462986
 40
0.0493225141
 40
0.0602368288
 40
0.0850780501
 40
0.1137428741
 40
0.145967547
 40
0.1814542181
 40
0.2198781317
 40
0.2608836288
 40
0.3040944342
 40
0.3955222623
 40
0.4908020741
 40
0.5864324416
 40
0.6788993433
 40
0.7648051915
 40
0.8409933896
 40
0.8745509188
 40
0.904664211
 40
0.9310539763
 40
0.9534787676
 40
0.9717325573
 40
0.9856463122
 40
0.990935786
 40
0.9950964281
 40
0.9981186505
 40
1.0
 40
1.0
 40
1.0
 40
1.0
 10
81.0416244503
 20
24.5060481005
 30
0.0
 10
81.0375355547
 20
24.5131180803
 30
0.0
 10
81.0323211257
 20
24.535875919
 30
0.0
 10
81.0248869291
 20
24.5791562705
 30
0.0
 10
81.0177641084
 20
24.6429792407
 30
0.0
 10
81.0102536868
 20
24.726593419
 30
0.0
 10
81.0027761964
 20
24.8303175041
 30
0.0
 10
80.9919137804
 20
25.0083572596
 30
0.0
 10
80.9788302363
 20
25.280482637
 30
0.0
 10
80.9638491022
 20
25.6660203342
 30
0.0
 10
80.9488014568
 20
26.1295016334
 30
0.0
 10
80.9336845137
 20
26.6698362052
 30
0.0
 10
80.9185337365
 20
27.2857955018
 30
0.0
 10
80.9033580333
 20
27.9759703583
 30
0.0
 10
80.8821722583
 20
29.0398433954
 30
0.0
 10
80.8561337761
 20
30.5418334348
 30
0.0
 10
80.8259558261
 20
32.5407547316
 30
0.0
 10
80.7957087001
 20
34.7879405104
 30
0.0
 10
80.7654040139
 20
37.2627154115
 30
0.0
 10
80.7350661412
 20
39.9422633474
 30
0.0
 10
80.7046987963
 20
42.8019401731
 30
0.0
 10
80.6634079967
 20
46.8975643231
 30
0.0
 10
80.6125891599
 20
52.2587745971
 30
0.0
 10
80.5525982998
 20
58.8423198144
 30
0.0
 10
80.4926021948
 20
65.4500960531
 30
0.0
 10
80.4326863124
 20
71.8392733233
 30
0.0
 10
80.3729244054
 20
77.7750603468
 30
0.0
 10
80.32150278
 20
82.3371574328
 30
0.0
 10
80.2793311256
 20
85.5982472668
 30
0.0
 10
80.2491269782
 20
87.6981474619
 30
0.0
 10
80.2190100434
 20
89.5384138007
 30
0.0
 10
80.1891047567
 20
91.1020962709
 30
0.0
 10
80.1593632354
 20
92.3747784415
 30
0.0
 10
80.1334107949
 20
93.24788203
 30
0.0
 10
80.1113649407
 20
93.7922417585
 30
0.0
 10
80.0967708906
 20
94.0827628728
 30
0.0
 10
80.0820723161
 20
94.2935533436
 30
0.0
 10
80.0710936296
 20
94.4075247845
 30
0.0
 10
80.0637939338
 20
94.4507842698
 30
0.0
  0
SPLINE
  5
4F0
100
AcDbEntity
  8
0
100
AcDbSpline
 62
7
  6
CONTINUOUS
 70
0
 71
3
 72
10
 73
6
 74
0
 42
0.0000001
 43
0.0000001
 44
0.0000000001
 40
0.0
 40
0.0
 40
0.0
 40
0.0
 40
0.7121262889
 40
0.9027143414
 40
1.0
 40
1.0
 40
1.0
 40
1.0
 10
80.0637939338
 20
94.4507842698
 30
0.0
 10
80.06162548
 20
94.463634969
 30
0.0
 10
80.0582974372
 20
94.4803274406
 30
0.0
 10
80.0525479971
 20
94.4969628242
 30
0.0
 10
80.0484179871
 20
94.5016558688
 30
0.0
 10
80.0466375969
 20
94.5016558688
 30
0.0
  0
SPLINE
  5
4F1
100
AcDbEntity
  8
0
100
AcDbSpline
 62
7
  6
CONTINUOUS
 70
0
 71
3
 72
11
 73
7
 74
0
 42
0.0000001
 43
0.0000001
 44
0.0000000001
 40
0.0
 40
0.0
 40
0.0
 40
0.0
 40
0.0745678609
 40
0.2627850882
 40
0.5709809502
 40
1.0
 40
1.0
 40
1.0
 40
1.0
 10
79.4032623323
 20
24.5016558688
 30
0.0
 10
79.3984374037
 20
24.5016558688
 30
0.0
 10
79.3918616605
 20
24.5236726408
 30
0.0
 10
79.3850197763
 20
24.5547032559
 30
0.0
 10
79.3770486675
 20
24.6170513104
 30
0.0
 10
79.3725465019
 20
24.6635735077
 30
0.0
 10
79.3701254132
 20
24.6912274922
 30
0.0
  0
SPLINE
  5
4F2
100
AcDbEntity
  8
0
100
AcDbSpline
 62
7
  6
CONTINUOUS
 70
0
 71
3
 72
39
 73
35
 74
0
 42
0.0000001
 43
0.0000001
 44
0.0000000001
 40
0.0
 40
0.0
 40
0.0
 40
0.0
 40
0.0071465986
 40
0.0186672779
 40
0.0344632915
 40
0.0543924626
 40
0.0782799866
 40
0.1059113131
 40
0.17139396
 40
0.2485122907
 40
0.3345236495
 40
0.4263727699
 40
0.5207947453
 40
0.6144283705
 40
0.7039428826
 40
0.7461525372
 40
0.7861577323
 40
0.823601267
 40
0.8581508892
 40
0.8894968991
 40
0.9173612874
 40
0.9414965563
 40
0.9520965759
 40
0.961686244
 40
0.9702451936
 40
0.9777531731
 40
0.9841930719
 40
0.9895523887
 40
0.9938191509
 40
0.9969831305
 40
0.998150361
 40
0.9990410838
 40
0.9996561938
 40
1.0
 40
1.0
 40
1.0
 40
1.0
 10
79.3701254132
 20
24.6912274922
 30
0.0
 10
79.3556198292
 20
24.8569121254
 30
0.0
 10
79.3341984228
 20
25.2909799041
 30
0.0
 10
79.3052850498
 20
26.0924283328
 30
0.0
 10
79.276666366
 20
27.1916290817
 30
0.0
 10
79.2471944554
 20
28.5786332211
 30
0.0
 10
79.2176869834
 20
30.2411453202
 30
0.0
 10
79.1756896642
 20
32.9637245306
 30
0.0
 10
79.1249326666
 20
36.9251180199
 30
0.0
 10
79.0663326835
 20
42.2451500219
 30
0.0
 10
79.0075002418
 20
48.1788246318
 30
0.0
 10
78.9485002468
 20
54.5152122433
 30
0.0
 10
78.889448729
 20
61.0289952143
 30
0.0
 10
78.8304078688
 20
67.4884440745
 30
0.0
 10
78.7803661474
 20
72.7328191611
 30
0.0
 10
78.7397149294
 20
76.7291644901
 30
0.0
 10
78.7098437632
 20
79.5137405165
 30
0.0
 10
78.6799978727
 20
82.1200387665
 30
0.0
 10
78.650189127
 20
84.5248033959
 30
0.0
 10
78.6204335136
 20
86.7066206589
 30
0.0
 10
78.5907468335
 20
88.6460469335
 30
0.0
 10
78.5651317734
 20
90.1026678467
 30
0.0
 10
78.5442890355
 20
91.1340052679
 30
0.0
 10
78.5293582768
 20
91.8028887983
 30
0.0
 10
78.514454855
 20
92.3997933526
 30
0.0
 10
78.4995929209
 20
92.9233729569
 30
0.0
 10
78.4847703968
 20
93.3724503497
 30
0.0
 10
78.4700806888
 20
93.7460718736
 30
0.0
 10
78.4554496631
 20
94.0433402155
 30
0.0
 10
78.4427288376
 20
94.2431142057
 30
0.0
 10
78.431746515
 20
94.3640686811
 30
0.0
 10
78.4247204707
 20
94.4260397409
 30
0.0
 10
78.4174223249
 20
94.4681825001
 30
0.0
 10
78.412269106
 20
94.4903659551
 30
0.0
 10
78.4082765584
 20
94.4972998297
 30
0.0
  0
SPLINE
  5
4F3
100
AcDbEntity
  8
0
100
AcDbSpline
 62
7
  6
CONTINUOUS
 70
0
 71
3
 72
11
 73
7
 74
0
 42
0.0000001
 43
0.0000001
 44
0.0000000001
 40
0.0
 40
0.0
 40
0.0
 40
0.0
 40
0.0744882538
 40
0.262702779
 40
0.5709284868
 40
1.0
 40
1.0
 40
1.0
 40
1.0
 10
78.0466366819
 20
94.5016558688
 30
0.0
 10
78.0514889953
 20
94.5016558688
 30
0.0
 10
78.0580631886
 20
94.4794664334
 30
0.0
 10
78.0649450506
 20
94.4482478933
 30
0.0
 10
78.0729337924
 20
94.3854570721
 30
0.0
 10
78.0774554205
 20
94.3386185395
 30
0.0
 10
78.0798852462
 20
94.3107737818
 30
0.0
  0
SPLINE
  5
4F4
100
AcDbEntity
  8
0
100
AcDbSpline
 62
7
  6
CONTINUOUS
 70
0
 71
3
 72
39
 73
35
 74
0
 42
0.0000001
 43
0.0000001
 44
0.0000000001
 40
0.0
 40
0.0
 40
0.0
 40
0.0
 40
0.0071624618
 40
0.0186978152
 40
0.0345071424
 40
0.0544481826
 40
0.078346064
 40
0.1059861249
 40
0.1714812177
 40
0.2486055361
 40
0.3346177692
 40
0.426462611
 40
0.5208761484
 40
0.6144983058
 40
0.7039992751
 40
0.74620202
 40
0.7862005813
 40
0.8236375848
 40
0.8581808441
 40
0.8895206854
 40
0.9173794173
 40
0.9415095361
 40
0.9521073003
 40
0.961694832
 40
0.9702518482
 40
0.9777581795
 40
0.9841966213
 40
0.9895546905
 40
0.9938204862
 40
0.9969837774
 40
0.9981507513
 40
0.9990412796
 40
0.9996562595
 40
1.0
 40
1.0
 40
1.0
 40
1.0
 10
78.0798852462
 20
94.3107737818
 30
0.0
 10
78.0943756153
 20
94.144720388
 30
0.0
 10
78.1158082112
 20
93.7099513212
 30
0.0
 10
78.1447125508
 20
92.9074955326
 30
0.0
 10
78.1733337453
 20
91.8073882537
 30
0.0
 10
78.2028023579
 20
90.4195827014
 30
0.0
 10
78.2323073708
 20
88.7563813256
 30
0.0
 10
78.2742979977
 20
86.033119236
 30
0.0
 10
78.3250488644
 20
82.0711680123
 30
0.0
 10
78.3836424412
 20
76.7507867769
 30
0.0
 10
78.4424684362
 20
70.8171637438
 30
0.0
 10
78.501461832
 20
64.481171018
 30
0.0
 10
78.5605066297
 20
57.9680735124
 30
0.0
 10
78.6195406722
 20
51.5095246985
 30
0.0
 10
78.6695767985
 20
46.2659912153
 30
0.0
 10
78.710223524
 20
42.2703514944
 30
0.0
 10
78.7400913395
 20
39.4862950841
 30
0.0
 10
78.7699339854
 20
36.8805003719
 30
0.0
 10
78.7997393271
 20
34.4762246558
 30
0.0
 10
78.8294916856
 20
32.294871753
 30
0.0
 10
78.8591746832
 20
30.3558770466
 30
0.0
 10
78.8847868582
 20
28.8995875476
 30
0.0
 10
78.9056270305
 20
27.8684916107
 30
0.0
 10
78.9205561093
 20
27.1997678816
 30
0.0
 10
78.9354577992
 20
26.6030076429
 30
0.0
 10
78.9503175648
 20
26.0795551522
 30
0.0
 10
78.9651377701
 20
25.6305874986
 30
0.0
 10
78.9798254849
 20
25.2570584486
 30
0.0
 10
78.9944549117
 20
24.9598632466
 30
0.0
 10
79.0071752156
 20
24.7601376096
 30
0.0
 10
79.0181570356
 20
24.639211955
 30
0.0
 10
79.0251826167
 20
24.5772557446
 30
0.0
 10
79.0324796724
 20
24.5351226284
 30
0.0
 10
79.0376319624
 20
24.512944392
 30
0.0
 10
79.0416232586
 20
24.5060117349
 30
0.0
  0
SPLINE
  5
4F5
100
AcDbEntity
  8
0
100
AcDbSpline
 62
7
  6
CONTINUOUS
 70
0
 71
3
 72
10
 73
6
 74
0
 42
0.0000001
 43
0.0000001
 44
0.0000000001
 40
0.0
 40
0.0
 40
0.0
 40
0.0
 40
0.1234573231
 40
0.3303140206
 40
1.0
 40
1.0
 40
1.0
 40
1.0
 10
80.3197508808
 20
25.7562211543
 30
0.0
 10
80.3167271315
 20
25.761456279
 30
0.0
 10
80.3122511698
 20
25.7772631077
 30
0.0
 10
80.3028128922
 20
25.8251300734
 30
0.0
 10
80.2983105008
 20
25.8679997088
 30
0.0
 10
80.2950315177
 20
25.9006294607
 30
0.0
  0
SPLINE
  5
4F6
100
AcDbEntity
  8
0
100
AcDbSpline
 62
7
  6
CONTINUOUS
 70
0
 71
3
 72
43
 73
39
 74
0
 42
0.0000001
 43
0.0000001
 44
0.0000000001
 40
0.0
 40
0.0
 40
0.0
 40
0.0
 40
0.0067476812
 40
0.0179476015
 40
0.0335041354
 40
0.053276491
 40
0.0770855105
 40
0.104717556
 40
0.1704123186
 40
0.2479857418
 40
0.3346327358
 40
0.4272196315
 40
0.5223975437
 40
0.6167240703
 40
0.6624976283
 40
0.7067877883
 40
0.7491938816
 40
0.7893314625
 40
0.8268361793
 40
0.8613697287
 40
0.8926169366
 40
0.9202972213
 40
0.9327188245
 40
0.9441579289
 40
0.9545879896
 40
0.9639840603
 40
0.972326546
 40
0.9795970054
 40
0.9857774025
 40
0.9908545185
 40
0.9929763435
 40
0.9948188031
 40
0.9963808106
 40
0.9976613996
 40
0.9986602794
 40
0.9993783614
 40
0.9998187268
 40
1.0
 40
1.0
 40
1.0
 40
1.0
 10
80.2950315177
 20
25.9006294607
 30
0.0
 10
80.2798816331
 20
26.0513886909
 30
0.0
 10
80.2586774242
 20
26.4540715391
 30
0.0
 10
80.2293811867
 20
27.2057176182
 30
0.0
 10
80.2007127428
 20
28.2501965204
 30
0.0
 10
80.1709751626
 20
29.5777782557
 30
0.0
 10
80.1412487744
 20
31.1766039245
 30
0.0
 10
80.0988546623
 20
33.8065337838
 30
0.0
 10
80.0476716766
 20
37.6437487783
 30
0.0
 10
79.988597863
 20
42.8061338687
 30
0.0
 10
79.9292846965
 20
48.5724134342
 30
0.0
 10
79.8697986323
 20
54.7340167216
 30
0.0
 10
79.8102570632
 20
61.0680705015
 30
0.0
 10
79.7601696266
 20
66.3509777643
 30
0.0
 10
79.7195426065
 20
70.491243581
 30
0.0
 10
79.6893855335
 20
73.4656875621
 30
0.0
 10
79.6592434122
 20
76.3135696421
 30
0.0
 10
79.6291215895
 20
79.009076546
 30
0.0
 10
79.5990251612
 20
81.5277948339
 30
0.0
 10
79.5689718156
 20
83.8468659783
 30
0.0
 10
79.5389654087
 20
85.9453107993
 30
0.0
 10
79.5131941757
 20
87.5472420063
 30
0.0
 10
79.4923043367
 20
88.7044018093
 30
0.0
 10
79.477220363
 20
89.4742503158
 30
0.0
 10
79.4621530499
 20
90.1761468987
 30
0.0
 10
79.4471031864
 20
90.8084923003
 30
0.0
 10
79.4320814661
 20
91.3698668376
 30
0.0
 10
79.4171082457
 20
91.859008454
 30
0.0
 10
79.4021887961
 20
92.2747821776
 30
0.0
 10
79.389195024
 20
92.5749491152
 30
0.0
 10
79.3785327887
 20
92.7776764761
 30
0.0
 10
79.3710314081
 20
92.9015852142
 30
0.0
 10
79.363598554
 20
93.0064049533
 30
0.0
 10
79.3561230225
 20
93.092685881
 30
0.0
 10
79.3489978558
 20
93.1587443498
 30
0.0
 10
79.3414775897
 20
93.2086534302
 30
0.0
 10
79.3355966569
 20
93.2344335738
 30
0.0
 10
79.3290201483
 20
93.2515916222
 30
0.0
 10
79.3249496887
 20
93.2516017086
 30
0.0
  0
SPLINE
  5
4F7
100
AcDbEntity
  8
0
100
AcDbSpline
 62
7
  6
CONTINUOUS
 70
0
 71
3
 72
48
 73
44
 74
0
 42
0.0000001
 43
0.0000001
 44
0.0000000001
 40
0.0
 40
0.0
 40
0.0
 40
0.0
 40
0.000185426
 40
0.0006393091
 40
0.0013800598
 40
0.0024101616
 40
0.0037299675
 40
0.0053392319
 40
0.0072374765
 40
0.0094241117
 40
0.0146578348
 40
0.0210268791
 40
0.028516402
 40
0.0371108711
 40
0.0467894224
 40
0.0575283375
 40
0.0693037885
 40
0.0820888197
 40
0.1105612686
 40
0.1426818427
 40
0.1781475893
 40
0.216628412
 40
0.257763544
 40
0.3011677694
 40
0.3464358918
 40
0.3931431327
 40
0.4891194023
 40
0.5855121976
 40
0.6787218374
 40
0.7652674851
 40
0.8050175768
 40
0.8419169115
 40
0.8756181471
 40
0.9058076922
 40
0.9322025766
 40
0.9545551768
 40
0.9726588931
 40
0.9800615207
 40
0.9863421326
 40
0.9914866738
 40
0.9954818018
 40
0.9983200943
 40
1.0
 40
1.0
 40
1.0
 40
1.0
 10
78.1249490658
 20
25.7516724271
 30
0.0
 10
78.1207781673
 20
25.7516579734
 30
0.0
 10
78.1141294529
 20
25.7694883323
 30
0.0
 10
78.1081459933
 20
25.7959995931
 30
0.0
 10
78.1005153392
 20
25.8476380992
 30
0.0
 10
78.0932719628
 20
25.9158513643
 30
0.0
 10
78.0856756229
 20
26.0049502215
 30
0.0
 10
78.0781203557
 20
26.1131439022
 30
0.0
 10
78.0704967475
 20
26.2410453314
 30
0.0
 10
78.0596608383
 20
26.4503578881
 30
0.0
 10
78.046461743
 20
26.7602691138
 30
0.0
 10
78.0313002303
 20
27.1894555046
 30
0.0
 10
78.0160803231
 20
27.6942822327
 30
0.0
 10
78.0008175638
 20
28.273577462
 30
0.0
 10
77.985526371
 20
28.9259859922
 30
0.0
 10
77.9702124922
 20
29.6499634488
 30
0.0
 10
77.9548837287
 20
30.4438311598
 30
0.0
 10
77.933663106
 20
31.6365514697
 30
0.0
 10
77.9074744463
 20
33.2868916661
 30
0.0
 10
77.8769882602
 20
35.4473978224
 30
0.0
 10
77.8464467196
 20
37.8330491259
 30
0.0
 10
77.8158665911
 20
40.4214861326
 30
0.0
 10
77.7852585638
 20
43.1885004253
 30
0.0
 10
77.7546301275
 20
46.1081949961
 30
0.0
 10
77.7239881401
 20
49.153233535
 30
0.0
 10
77.6827461497
 20
53.3807667105
 30
0.0
 10
77.6319191739
 20
58.7582457191
 30
0.0
 10
77.5714530104
 20
65.1816929583
 30
0.0
 10
77.5110544168
 20
71.393001335
 30
0.0
 10
77.4595354264
 20
76.3302294579
 30
0.0
 10
77.4175438942
 20
80.0008564449
 30
0.0
 10
77.3869822985
 20
82.4828672613
 30
0.0
 10
77.3564692923
 20
84.7498088488
 30
0.0
 10
77.3260222476
 20
86.7804432041
 30
0.0
 10
77.2956983138
 20
88.555775588
 30
0.0
 10
77.2655037206
 20
90.0592061847
 30
0.0
 10
77.2391970892
 20
91.1354222603
 30
0.0
 10
77.2174031808
 20
91.8500944976
 30
0.0
 10
77.2022897657
 20
92.273346179
 30
0.0
 10
77.1871604482
 20
92.6198489375
 30
0.0
 10
77.1726205835
 20
92.8889726215
 30
0.0
 10
77.1576913242
 20
93.0797458674
 30
0.0
 10
77.1469617278
 20
93.1810766125
 30
0.0
 10
77.1391493762
 20
93.2180475658
 30
0.0
  0
SPLINE
  5
4F8
100
AcDbEntity
  8
0
100
AcDbSpline
 62
7
  6
CONTINUOUS
 70
0
 71
3
 72
9
 73
5
 74
0
 42
0.0000001
 43
0.0000001
 44
0.0000000001
 40
0.0
 40
0.0
 40
0.0
 40
0.0
 40
0.3298172878
 40
1.0
 40
1.0
 40
1.0
 40
1.0
 10
77.1391493762
 20
93.2180475658
 30
0.0
 10
77.1384559887
 20
93.2213289333
 30
0.0
 10
77.1361403218
 20
93.2311876558
 30
0.0
 10
77.1335540155
 20
93.2412493799
 30
0.0
 10
77.1301480904
 20
93.2471521555
 30
0.0
  0
SPLINE
  5
4F9
100
AcDbEntity
  8
0
100
AcDbSpline
 62
7
  6
CONTINUOUS
 70
0
 71
3
 72
11
 73
7
 74
0
 42
0.0000001
 43
0.0000001
 44
0.0000000001
 40
0.0
 40
0.0
 40
0.0
 40
0.0
 40
0.1178098823
 40
0.3228968527
 40
0.6168716463
 40
1.0
 40
1.0
 40
1.0
 40
1.0
 10
72.3197499219
 20
25.7561856634
 30
0.0
 10
72.3161436024
 20
25.7624179764
 30
0.0
 10
72.3111796444
 20
25.7818951998
 30
0.0
 10
72.304399974
 20
25.8187767623
 30
0.0
 10
72.2977682652
 20
25.8724118285
 30
0.0
 10
72.2936913836
 20
25.9135629064
 30
0.0
 10
72.2915892721
 20
25.9368850522
 30
0.0
  0
SPLINE
  5
4FA
100
AcDbEntity
  8
0
100
AcDbSpline
 62
7
  6
CONTINUOUS
 70
0
 71
3
 72
42
 73
38
 74
0
 42
0.0000001
 43
0.0000001
 44
0.0000000001
 40
0.0
 40
0.0
 40
0.0
 40
0.0
 40
0.0072254668
 40
0.0188684611
 40
0.0348242558
 40
0.0549532785
 40
0.0790727739
 40
0.1069667887
 40
0.1730433735
 40
0.2508109807
 40
0.3374767131
 40
0.4299281857
 40
0.5248453885
 40
0.6188197445
 40
0.6643937278
 40
0.7084763265
 40
0.7506696396
 40
0.7905951586
 40
0.8278930693
 40
0.862227499
 40
0.8932909192
 40
0.920801642
 40
0.9445149232
 40
0.9548781518
 40
0.9642154507
 40
0.9725053148
 40
0.9797277296
 40
0.9858682072
 40
0.9909136545
 40
0.993021723
 40
0.9948515611
 40
0.9964026432
 40
0.9976746423
 40
0.9986674647
 40
0.9993816148
 40
0.999819723
 40
1.0
 40
1.0
 40
1.0
 40
1.0
 10
72.2915892721
 20
25.9368850522
 30
0.0
 10
72.2770322381
 20
26.0983899359
 30
0.0
 10
72.2554847065
 20
26.5214709078
 30
0.0
 10
72.2264427319
 20
27.302409505
 30
0.0
 10
72.1976666257
 20
28.3732184362
 30
0.0
 10
72.1680579017
 20
29.7240334595
 30
0.0
 10
72.1383982484
 20
31.3428493281
 30
0.0
 10
72.0962004649
 20
33.9927831135
 30
0.0
 10
72.04519677
 20
37.8467362614
 30
0.0
 10
71.9863097172
 20
43.0196860177
 30
0.0
 10
71.927188784
 20
48.7845945243
 30
0.0
 10
71.8679027448
 20
54.9344040138
 30
0.0
 10
71.808563911
 20
61.2482462921
 30
0.0
 10
71.7586398402
 20
66.5100692246
 30
0.0
 10
71.7181466056
 20
70.6310599563
 30
0.0
 10
71.6880968491
 20
73.5899862611
 30
0.0
 10
71.6580605964
 20
76.4221386676
 30
0.0
 10
71.6280447019
 20
79.1020150331
 30
0.0
 10
71.5980566684
 20
81.6055047963
 30
0.0
 10
71.5681046984
 20
83.9100894995
 30
0.0
 10
71.5382145754
 20
85.9950032646
 30
0.0
 10
71.5083934008
 20
87.8415224971
 30
0.0
 10
71.4826419977
 20
89.2234742391
 30
0.0
 10
71.4616648443
 20
90.1975757732
 30
0.0
 10
71.4466688269
 20
90.8255799866
 30
0.0
 10
71.4317033675
 20
91.383073341
 30
0.0
 10
71.416779263
 20
91.868795623
 30
0.0
 10
71.4019115647
 20
92.2816599092
 30
0.0
 10
71.3889675144
 20
92.5797494907
 30
0.0
 10
71.3783433214
 20
92.7810646993
 30
0.0
 10
71.3708674975
 20
92.9040689486
 30
0.0
 10
71.3634600956
 20
93.0081111948
 30
0.0
 10
71.356007712
 20
93.093769603
 30
0.0
 10
71.3489129999
 20
93.1593789701
 30
0.0
 10
71.3414086142
 20
93.2089797018
 30
0.0
 10
71.3355715913
 20
93.2345962867
 30
0.0
 10
71.3289946855
 20
93.2516601063
 30
0.0
 10
71.3249487728
 20
93.2516531541
 30
0.0
  0
SPLINE
  5
4FB
100
AcDbEntity
  8
0
100
AcDbSpline
 62
7
  6
CONTINUOUS
 70
0
 71
3
 72
48
 73
44
 74
0
 42
0.0000001
 43
0.0000001
 44
0.0000000001
 40
0.0
 40
0.0
 40
0.0
 40
0.0
 40
0.0001858283
 40
0.0006405292
 40
0.0013823959
 40
0.0024139863
 40
0.0037357314
 40
0.005347464
 40
0.0072487847
 40
0.0094391114
 40
0.0146810634
 40
0.021059784
 40
0.0285610787
 40
0.0371691433
 40
0.0468623157
 40
0.0576174962
 40
0.0694111807
 40
0.0822152434
 40
0.1107296755
 40
0.1428961766
 40
0.1784115837
 40
0.2169435921
 40
0.2581316818
 40
0.3015885135
 40
0.3469081709
 40
0.3936647421
 40
0.4897277456
 40
0.586184206
 40
0.6794261572
 40
0.7659656083
 40
0.8056966857
 40
0.8425652035
 40
0.8762251171
 40
0.9063603065
 40
0.9326903227
 40
0.9549659356
 40
0.9729812423
 40
0.9803361071
 40
0.9865669158
 40
0.9916580055
 40
0.9955974461
 40
0.9983791037
 40
1.0
 40
1.0
 40
1.0
 40
1.0
 10
74.1249503446
 20
25.7516617604
 30
0.0
 10
74.1207701473
 20
25.7516515739
 30
0.0
 10
74.1141305845
 20
25.769525885
 30
0.0
 10
74.1081297068
 20
25.7960795695
 30
0.0
 10
74.1004987855
 20
25.847803618
 30
0.0
 10
74.0932462923
 20
25.9161205267
 30
0.0
 10
74.0856447011
 20
26.0053579986
 30
0.0
 10
74.0780827466
 20
26.1137258248
 30
0.0
 10
74.0704530622
 20
26.2418424332
 30
0.0
 10
74.0596094419
 20
26.4515042611
 30
0.0
 10
74.0463988109
 20
26.7619189159
 30
0.0
 10
74.0312241358
 20
27.1917972555
 30
0.0
 10
74.0159921408
 20
27.6974410005
 30
0.0
 10
74.0007175776
 20
28.2776687072
 30
0.0
 10
73.98541306
 20
28.9311149161
 30
0.0
 10
73.9700863714
 20
29.6562384641
 30
0.0
 10
73.9547459581
 20
30.4513554707
 30
0.0
 10
73.9335072694
 20
31.6459262268
 30
0.0
 10
73.9072980033
 20
33.2987658579
 30
0.0
 10
73.8767862107
 20
35.4624894118
 30
0.0
 10
73.8462205344
 20
37.8515779282
 30
0.0
 10
73.815614549
 20
40.4436217998
 30
0.0
 10
73.7849821348
 20
43.2143193779
 30
0.0
 10
73.7543283681
 20
46.1377137509
 30
0.0
 10
73.7236613912
 20
49.1863776105
 30
0.0
 10
73.6823879514
 20
53.4183709807
 30
0.0
 10
73.6315228642
 20
58.8006483441
 30
0.0
 10
73.571009115
 20
65.2285704365
 30
0.0
 10
73.5105639836
 20
71.442251048
 30
0.0
 10
73.4589999248
 20
76.3799190363
 30
0.0
 10
73.4169697336
 20
80.04949377
 30
0.0
 10
73.3863829632
 20
82.5295946902
 30
0.0
 10
73.3558483822
 20
84.7938190964
 30
0.0
 10
73.3253765646
 20
86.8209565753
 30
0.0
 10
73.2950334025
 20
88.5919752823
 30
0.0
 10
73.2648184638
 20
90.0903097469
 30
0.0
 10
73.2384923722
 20
91.1617910428
 30
0.0
 10
73.2166676244
 20
91.8723163154
 30
0.0
 10
73.2015564856
 20
92.2921956071
 30
0.0
 10
73.1864027691
 20
92.6351311592
 30
0.0
 10
73.171911867
 20
92.900555922
 30
0.0
 10
73.1569121825
 20
93.0874353796
 30
0.0
 10
73.1463195147
 20
93.1862167415
 30
0.0
 10
73.1383407854
 20
93.2217951546
 30
0.0
  0
SPLINE
  5
4FC
100
AcDbEntity
  8
0
100
AcDbSpline
 62
7
  6
CONTINUOUS
 70
0
 71
3
 72
9
 73
5
 74
0
 42
0.0000001
 43
0.0000001
 44
0.0000000001
 40
0.0
 40
0.0
 40
0.0
 40
0.0
 40
0.3254014804
 40
1.0
 40
1.0
 40
1.0
 40
1.0
 10
73.1383407854
 20
93.2217951546
 30
0.0
 10
73.1377078304
 20
93.2246176004
 30
0.0
 10
73.1355836632
 20
93.233216772
 30
0.0
 10
73.1331523375
 20
93.2419455317
 30
0.0
 10
73.1301492131
 20
93.2471359722
 30
0.0
  0
LINE
  5
4FD
100
AcDbEntity
  8
0
100
AcDbLine
 62
7
  6
CONTINUOUS
 10
132.8436936618
 20
103.793749642
 11
133.5466373876
 21
104.0016558689
  0
SPLINE
  5
4FE
100
AcDbEntity
  8
0
100
AcDbSpline
 62
7
  6
CONTINUOUS
 70
0
 71
3
 72
11
 73
7
 74
0
 42
0.0000001
 43
0.0000001
 44
0.0000000001
 40
0.0
 40
0.0
 40
0.0
 40
0.0
 40
0.2438310548
 40
0.4927038053
 40
0.7458006832
 40
1.0
 40
1.0
 40
1.0
 40
1.0
 10
132.8436936618
 20
103.793749573
 30
0.0
 10
132.6969339894
 20
103.7983603011
 30
0.0
 10
132.3992984695
 20
103.8693257635
 30
0.0
 10
132.0265621298
 20
104.138309267
 30
0.0
 10
131.7732322159
 20
104.528602111
 30
0.0
 10
131.7074810926
 20
104.8351302472
 30
0.0
 10
131.7030971861
 20
104.9881431819
 30
0.0
  0
SPLINE
  5
4FF
100
AcDbEntity
  8
0
100
AcDbSpline
 62
7
  6
CONTINUOUS
 70
0
 71
3
 72
18
 73
14
 74
0
 42
0.0000001
 43
0.0000001
 44
0.0000000001
 40
0.0
 40
0.0
 40
0.0
 40
0.0
 40
0.2318106846
 40
0.4340163156
 40
0.6060258653
 40
0.7473491544
 40
0.8576601059
 40
0.9010886774
 40
0.9366557104
 40
0.9643450514
 40
0.9841420102
 40
0.9960318924
 40
1.0
 40
1.0
 40
1.0
 40
1.0
 10
131.7030973569
 20
104.9881431819
 30
0.0
 10
131.7529373646
 20
105.0042964779
 30
0.0
 10
131.846204533
 20
105.034687934
 30
0.0
 10
131.9763028461
 20
105.0775259354
 30
0.0
 10
132.0868848945
 20
105.114249144
 30
0.0
 10
132.1776820493
 20
105.144629141
 30
0.0
 10
132.2409087038
 20
105.1658672003
 30
0.0
 10
132.2814151607
 20
105.1795980106
 30
0.0
 10
132.3043234087
 20
105.1872260423
 30
0.0
 10
132.3219330147
 20
105.1934876806
 30
0.0
 10
132.3350283701
 20
105.1972464611
 30
0.0
 10
132.3419815506
 20
105.2008018501
 30
0.0
 10
132.3460770344
 20
105.2009556283
 30
0.0
 10
132.346637387
 20
105.2016558688
 30
0.0
  0
SPLINE
  5
500
100
AcDbEntity
  8
0
100
AcDbSpline
 62
7
  6
CONTINUOUS
 70
0
 71
3
 72
18
 73
14
 74
0
 42
0.0000001
 43
0.0000001
 44
0.0000000001
 40
0.0
 40
0.0
 40
0.0
 40
0.0
 40
0.1946864136
 40
0.3826914178
 40
0.5556668332
 40
0.7071503808
 40
0.8314221829
 40
0.8819012404
 40
0.9238948862
 40
0.9569203266
 40
0.9807320154
 40
0.9951510353
 40
1.0
 40
1.0
 40
1.0
 40
1.0
 10
101.346637387
 20
159.1903310034
 30
0.0
 10
101.3304673888
 20
159.1621992088
 30
0.0
 10
101.2986685583
 20
159.1069084157
 30
0.0
 10
101.2523821401
 20
159.0266955183
 30
0.0
 10
101.2094937703
 20
158.9528252759
 30
0.0
 10
101.1719215242
 20
158.8881830549
 30
0.0
 10
101.1448548588
 20
158.8409670062
 30
0.0
 10
101.1269016819
 20
158.8097135179
 30
0.0
 10
101.1165734076
 20
158.7913215619
 30
0.0
 10
101.1082247697
 20
158.7776539914
 30
0.0
 10
101.1025939486
 20
158.7659716624
 30
0.0
 10
101.0983957137
 20
158.7622676245
 30
0.0
 10
101.0973372785
 20
158.756914219
 30
0.0
 10
101.096637387
 20
158.7573183015
 30
0.0
  0
SPLINE
  5
501
100
AcDbEntity
  8
0
100
AcDbSpline
 62
7
  6
CONTINUOUS
 70
0
 71
3
 72
9
 73
5
 74
0
 42
0.0000001
 43
0.0000001
 44
0.0000000001
 40
0.0
 40
0.0
 40
0.0
 40
0.0
 40
0.6189517529
 40
1.0
 40
1.0
 40
1.0
 40
1.0
 10
131.9951655244
 20
102.9645567436
 30
0.0
 10
132.1276217549
 20
103.1723268255
 30
0.0
 10
132.3897111471
 20
103.4803852465
 30
0.0
 10
132.7123543528
 20
103.7178509364
 30
0.0
 10
132.8436936618
 20
103.793749642
 30
0.0
  0
SPLINE
  5
502
100
AcDbEntity
  8
0
100
AcDbSpline
 62
7
  6
CONTINUOUS
 70
0
 71
3
 72
13
 73
9
 74
0
 42
0.0000001
 43
0.0000001
 44
0.0000000001
 40
0.0
 40
0.0
 40
0.0
 40
0.0
 40
0.0992408128
 40
0.2087093603
 40
0.3298799722
 40
0.4613480807
 40
0.7377005468
 40
1.0
 40
1.0
 40
1.0
 40
1.0
 10
131.9951655249
 20
102.964556743
 30
0.0
 10
131.9359800961
 20
102.9185453637
 30
0.0
 10
131.7913683523
 20
102.8463964003
 30
0.0
 10
131.5413509732
 20
102.8116196654
 30
0.0
 10
131.2672335367
 20
102.8447235743
 30
0.0
 10
130.8874510355
 20
102.9765132361
 30
0.0
 10
130.4645070144
 20
103.2732279419
 30
0.0
 10
130.2225300038
 20
103.6157342394
 30
0.0
 10
130.1494542878
 20
103.7999072271
 30
0.0
  0
SPLINE
  5
503
100
AcDbEntity
  8
0
100
AcDbSpline
 62
7
  6
CONTINUOUS
 70
0
 71
3
 72
13
 73
9
 74
0
 42
0.0000001
 43
0.0000001
 44
0.0000000001
 40
0.0
 40
0.0
 40
0.0
 40
0.0
 40
0.4193332277
 40
0.5549478558
 40
0.6462375549
 40
0.7130631716
 40
0.7832053345
 40
1.0
 40
1.0
 40
1.0
 40
1.0
 10
106.629476866
 20
155.6188131563
 30
0.0
 10
106.6371702607
 20
155.6089192883
 30
0.0
 10
106.6462648527
 20
155.5945086431
 30
0.0
 10
106.6512789344
 20
155.5757998066
 30
0.0
 10
106.6510378885
 20
155.566694972
 30
0.0
 10
106.646410971
 20
155.5608416109
 30
0.0
 10
106.6352051963
 20
155.5597078817
 30
0.0
 10
106.6273615266
 20
155.5641532307
 30
0.0
 10
106.6217500627
 20
155.5673930109
 30
0.0
  0
SPLINE
  5
504
100
AcDbEntity
  8
0
100
AcDbSpline
 62
7
  6
CONTINUOUS
 70
0
 71
3
 72
9
 73
5
 74
0
 42
0.0000001
 43
0.0000001
 44
0.0000000001
 40
0.0
 40
0.0
 40
0.0
 40
0.0
 40
0.5202803771
 40
1.0
 40
1.0
 40
1.0
 40
1.0
 10
106.3943958876
 20
155.8844985813
 30
0.0
 10
106.4364948208
 20
155.8396173184
 30
0.0
 10
106.5165714313
 20
155.7526136198
 30
0.0
 10
106.5946480034
 20
155.6636038088
 30
0.0
 10
106.629476866
 20
155.6188131563
 30
0.0
  0
SPLINE
  5
505
100
AcDbEntity
  8
0
100
AcDbSpline
 62
7
  6
CONTINUOUS
 70
0
 71
3
 72
9
 73
5
 74
0
 42
0.0000001
 43
0.0000001
 44
0.0000000001
 40
0.0
 40
0.0
 40
0.0
 40
0.0
 40
0.5023747427
 40
1.0
 40
1.0
 40
1.0
 40
1.0
 10
106.3028912284
 20
156.1673412938
 30
0.0
 10
106.2993376192
 20
156.1166037663
 30
0.0
 10
106.3085715415
 20
156.0132735932
 30
0.0
 10
106.3599283585
 20
155.9212440785
 30
0.0
 10
106.3943958876
 20
155.8844985813
 30
0.0
  0
SPLINE
  5
506
100
AcDbEntity
  8
0
100
AcDbSpline
 62
7
  6
CONTINUOUS
 70
0
 71
3
 72
9
 73
5
 74
0
 42
0.0000001
 43
0.0000001
 44
0.0000000001
 40
0.0
 40
0.0
 40
0.0
 40
0.0
 40
0.6023298696
 40
1.0
 40
1.0
 40
1.0
 40
1.0
 10
130.1494542884
 20
103.7999072271
 30
0.0
 10
130.3804353192
 20
104.1233961926
 30
0.0
 10
130.8573164727
 20
104.6030352268
 30
0.0
 10
131.4534525664
 20
104.9072297721
 30
0.0
 10
131.7030973569
 20
104.9881431819
 30
0.0
  0
SPLINE
  5
507
100
AcDbEntity
  8
0
100
AcDbSpline
 62
7
  6
CONTINUOUS
 70
0
 71
3
 72
18
 73
14
 74
0
 42
0.0000001
 43
0.0000001
 44
0.0000000001
 40
0.0
 40
0.0
 40
0.0
 40
0.0
 40
0.1946864136
 40
0.3826914178
 40
0.5556668332
 40
0.7071503808
 40
0.8314221829
 40
0.8819012404
 40
0.9238948862
 40
0.9569203266
 40
0.9807320154
 40
0.9951510353
 40
1.0
 40
1.0
 40
1.0
 40
1.0
 10
101.346637387
 20
159.1903310034
 30
0.0
 10
101.3141895391
 20
159.1903932716
 30
0.0
 10
101.2504068924
 20
159.190500073
 30
0.0
 10
101.1577972765
 20
159.1905213078
 30
0.0
 10
101.072379585
 20
159.1903140111
 30
0.0
 10
100.9976116565
 20
159.190096602
 30
0.0
 10
100.9431880261
 20
159.1902642066
 30
0.0
 10
100.9071451229
 20
159.1903430435
 30
0.0
 10
100.8860530846
 20
159.1905944736
 30
0.0
 10
100.8700423023
 20
159.1901981263
 30
0.0
 10
100.8571096981
 20
159.1911628566
 30
0.0
 10
100.8518027897
 20
159.1893790975
 30
0.0
 10
100.846637387
 20
159.1911391685
 30
0.0
 10
100.846637387
 20
159.1903310034
 30
0.0
  0
SPLINE
  5
508
100
AcDbEntity
  8
0
100
AcDbSpline
 62
7
  6
CONTINUOUS
 70
0
 71
3
 72
12
 73
8
 74
0
 42
0.0000001
 43
0.0000001
 44
0.0000000001
 40
0.0
 40
0.0
 40
0.0
 40
0.0
 40
0.1093485396
 40
0.2036786682
 40
0.3247523075
 40
0.6347839962
 40
1.0
 40
1.0
 40
1.0
 40
1.0
 10
106.1841908059
 20
162.9016558688
 30
0.0
 10
106.2035557906
 20
162.9016558688
 30
0.0
 10
106.2306785863
 20
162.8658035728
 30
0.0
 10
106.2523691079
 20
162.8155993461
 30
0.0
 10
106.2799381963
 20
162.725183311
 30
0.0
 10
106.301941203
 20
162.5862032978
 30
0.0
 10
106.3082325766
 20
162.46633348
 30
0.0
 10
106.3082325766
 20
162.4016558688
 30
0.0
  0
SPLINE
  5
509
100
AcDbEntity
  8
0
100
AcDbSpline
 62
7
  6
CONTINUOUS
 70
0
 71
3
 72
12
 73
8
 74
0
 42
0.0000001
 43
0.0000001
 44
0.0000000001
 40
0.0
 40
0.0
 40
0.0
 40
0.0
 40
0.190060015
 40
0.3089778215
 40
0.4413440812
 40
0.726337247
 40
1.0
 40
1.0
 40
1.0
 40
1.0
 10
130.6981092497
 20
101.3159201201
 30
0.0
 10
130.5880438916
 20
101.2441671968
 30
0.0
 10
130.3572858085
 20
101.2140602146
 30
0.0
 10
130.0592363435
 20
101.2731396083
 30
0.0
 10
129.7113832776
 20
101.4084797009
 30
0.0
 10
129.3122544536
 20
101.6812076557
 30
0.0
 10
129.0563991221
 20
101.979957207
 30
0.0
 10
128.9620084028
 20
102.1439098769
 30
0.0
  0
SPLINE
  5
50A
100
AcDbEntity
  8
0
100
AcDbSpline
 62
7
  6
CONTINUOUS
 70
0
 71
3
 72
9
 73
5
 74
0
 42
0.0000001
 43
0.0000001
 44
0.0000000001
 40
0.0
 40
0.0
 40
0.0
 40
0.0
 40
0.5016441242
 40
1.0
 40
1.0
 40
1.0
 40
1.0
 10
129.8495811121
 20
100.9729555335
 30
0.0
 10
130.0055139248
 20
100.9732314156
 30
0.0
 10
130.3192171837
 20
101.0330760561
 30
0.0
 10
130.5874492938
 20
101.2075145451
 30
0.0
 10
130.6981092496
 20
101.3159201202
 30
0.0
  0
SPLINE
  5
50B
100
AcDbEntity
  8
0
100
AcDbSpline
 62
7
  6
CONTINUOUS
 70
0
 71
3
 72
11
 73
7
 74
0
 42
0.0000001
 43
0.0000001
 44
0.0000000001
 40
0.0
 40
0.0
 40
0.0
 40
0.0
 40
0.2183907494
 40
0.4624104756
 40
0.7272799957
 40
1.0
 40
1.0
 40
1.0
 40
1.0
 10
129.8495811121
 20
100.9729555053
 30
0.0
 10
129.7383005885
 20
100.9945622924
 30
0.0
 10
129.512589856
 20
101.097029205
 30
0.0
 10
129.2416719012
 20
101.3683316068
 30
0.0
 10
129.0451971663
 20
101.7287133083
 30
0.0
 10
128.9777030324
 20
102.0032234824
 30
0.0
 10
128.962008403
 20
102.1439098769
 30
0.0
  0
SPLINE
  5
50C
100
AcDbEntity
  8
0
100
AcDbSpline
 62
7
  6
CONTINUOUS
 70
0
 71
3
 72
24
 73
20
 74
0
 42
0.0000001
 43
0.0000001
 44
0.0000000001
 40
0.0
 40
0.0
 40
0.0
 40
0.0
 40
0.0021428519
 40
0.0063389642
 40
0.0126124673
 40
0.0209657343
 40
0.0313893964
 40
0.0438706948
 40
0.0583962812
 40
0.0749525076
 40
0.1140828941
 40
0.1610724843
 40
0.215715365
 40
0.277758667
 40
0.3469185989
 40
0.4228842975
 40
0.5937720878
 40
0.7873514144
 40
1.0
 40
1.0
 40
1.0
 40
1.0
 10
76.3197498041
 20
25.7562140824
 30
0.0
 10
76.313173699
 20
25.7676177409
 30
0.0
 10
76.3068318044
 20
25.8071894663
 30
0.0
 10
76.2957592756
 20
25.8830637064
 30
0.0
 10
76.2861376131
 20
25.9987491879
 30
0.0
 10
76.2754185378
 20
26.1520853278
 30
0.0
 10
76.264947767
 20
26.343898443
 30
0.0
 10
76.2542853619
 20
26.5735704761
 30
0.0
 10
76.2436286639
 20
26.8409837713
 30
0.0
 10
76.2285146485
 20
27.2720423424
 30
0.0
 10
76.2100777607
 20
27.90253732
 30
0.0
 10
76.1888450001
 20
28.7670081264
 30
0.0
 10
76.167548013
 20
29.7722731664
 30
0.0
 10
76.1461904263
 20
30.913759126
 30
0.0
 10
76.1247943064
 20
32.1862547226
 30
0.0
 10
76.0950555907
 20
34.1273529216
 30
0.0
 10
76.0585188278
 20
36.8327636754
 30
0.0
 10
76.0160467305
 20
40.3778322089
 30
0.0
 10
75.9887764843
 20
42.8732123959
 30
0.0
 10
75.9749495505
 20
44.1794765026
 30
0.0
  0
SPLINE
  5
50D
100
AcDbEntity
  8
0
100
AcDbSpline
 62
7
  6
CONTINUOUS
 70
0
 71
3
 72
9
 73
5
 74
0
 42
0.0000001
 43
0.0000001
 44
0.0000000001
 40
0.0
 40
0.0
 40
0.0
 40
0.0
 40
0.3749641687
 40
1.0
 40
1.0
 40
1.0
 40
1.0
 10
82.3197502202
 20
25.7561746472
 30
0.0
 10
82.3167945028
 20
25.761310271
 30
0.0
 10
82.3123946506
 20
25.7767448509
 30
0.0
 10
82.309282849
 20
25.7921502744
 30
0.0
 10
82.3075998474
 20
25.8018830849
 30
0.0
  0
SPLINE
  5
50E
100
AcDbEntity
  8
0
100
AcDbSpline
 62
7
  6
CONTINUOUS
 70
0
 71
3
 72
46
 73
42
 74
0
 42
0.0000001
 43
0.0000001
 44
0.0000000001
 40
0.0
 40
0.0
 40
0.0
 40
0.0
 40
0.0019095056
 40
0.0049706258
 40
0.0091809739
 40
0.014530843
 40
0.0285961937
 40
0.0470407755
 40
0.0696918645
 40
0.096339649
 40
0.1267376305
 40
0.1606012546
 40
0.2374419861
 40
0.3240104175
 40
0.4170942934
 40
0.5132397208
 40
0.6088790986
 40
0.6553953038
 40
0.7004632916
 40
0.7436632625
 40
0.7845938023
 40
0.822874942
 40
0.8581492218
 40
0.8900909209
 40
0.9184008446
 40
0.9311115333
 40
0.942817594
 40
0.9534931426
 40
0.9631141092
 40
0.9716566267
 40
0.9791009792
 40
0.9854316188
 40
0.9906332894
 40
0.992806402
 40
0.9946930515
 40
0.9962925858
 40
0.9976044618
 40
0.9986283694
 40
0.9993645976
 40
0.9998155867
 40
1.0
 40
1.0
 40
1.0
 40
1.0
 10
82.3075998474
 20
25.8018830849
 30
0.0
 10
82.3002830321
 20
25.8441962818
 30
0.0
 10
82.2892334415
 20
25.9555846902
 30
0.0
 10
82.2744592132
 20
26.1614523115
 30
0.0
 10
82.2597840449
 20
26.4449490971
 30
0.0
 10
82.2376355841
 20
26.9757670391
 30
0.0
 10
82.2115571936
 20
27.8267950284
 30
0.0
 10
82.1816684103
 20
29.0668965518
 30
0.0
 10
82.151614335
 20
30.5900285097
 30
0.0
 10
82.1213501617
 20
32.3820040383
 30
0.0
 10
82.0909975826
 20
34.4261595584
 30
0.0
 10
82.0486273647
 20
37.599000698
 30
0.0
 10
81.9969644748
 20
42.0349926055
 30
0.0
 10
81.9369143409
 20
47.8027213802
 30
0.0
 10
81.8767119225
 20
54.0045963521
 30
0.0
 10
81.8164275893
 20
60.4104678236
 30
0.0
 10
81.7657499137
 20
65.7691650413
 30
0.0
 10
81.7246311499
 20
69.9792665406
 30
0.0
 10
81.6940865815
 20
73.0101523576
 30
0.0
 10
81.6635562186
 20
75.9154207247
 30
0.0
 10
81.6330453028
 20
78.6680571791
 30
0.0
 10
81.6025632654
 20
81.2424486456
 30
0.0
 10
81.5721189383
 20
83.6146835138
 30
0.0
 10
81.5417299748
 20
85.7626652323
 30
0.0
 10
81.5156244144
 20
87.4032426898
 30
0.0
 10
81.4944712238
 20
88.5887770001
 30
0.0
 10
81.4791908906
 20
89.3777885192
 30
0.0
 10
81.4639264327
 20
90.0973041607
 30
0.0
 10
81.4486848056
 20
90.7456609699
 30
0.0
 10
81.4334699268
 20
91.3213319468
 30
0.0
 10
81.4182988617
 20
91.822984397
 30
0.0
 10
81.4031867696
 20
92.2494630428
 30
0.0
 10
81.3900297764
 20
92.5574078911
 30
0.0
 10
81.3792277828
 20
92.7653824486
 30
0.0
 10
81.3716285685
 20
92.8924676372
 30
0.0
 10
81.3640979898
 20
92.9999776916
 30
0.0
 10
81.3565250473
 20
93.0885138562
 30
0.0
 10
81.3493079872
 20
93.1563007471
 30
0.0
 10
81.3416958871
 20
93.2075968848
 30
0.0
 10
81.3357424864
 20
93.2339547596
 30
0.0
 10
81.3290973619
 20
93.2516430216
 30
0.0
 10
81.3249502863
 20
93.2516275029
 30
0.0
  0
SPLINE
  5
50F
100
AcDbEntity
  8
0
100
AcDbSpline
 62
7
  6
CONTINUOUS
 70
0
 71
3
 72
48
 73
44
 74
0
 42
0.0000001
 43
0.0000001
 44
0.0000000001
 40
0.0
 40
0.0
 40
0.0
 40
0.0
 40
0.0001851409
 40
0.0006371127
 40
0.001374706
 40
0.0024010695
 40
0.0037169648
 40
0.005321803
 40
0.0072146253
 40
0.0093943626
 40
0.0146100245
 40
0.0209590133
 40
0.0284261558
 40
0.0369928828
 40
0.0466404797
 40
0.057347353
 40
0.0690868636
 40
0.0818318448
 40
0.1102207134
 40
0.1422466791
 40
0.1776132212
 40
0.2159895002
 40
0.2570175295
 40
0.3003156524
 40
0.3454786997
 40
0.3920866679
 40
0.4878869751
 40
0.5841507871
 40
0.677294805
 40
0.7638521696
 40
0.803641792
 40
0.8406015064
 40
0.8743884798
 40
0.9046866179
 40
0.9312132915
 40
0.9537228724
 40
0.9720030964
 40
0.9795042173
 40
0.9858872883
 40
0.9911377781
 40
0.9952455719
 40
0.9982013234
 40
1.0
 40
1.0
 40
1.0
 40
1.0
 10
80.1249502102
 20
25.7517164111
 30
0.0
 10
80.1207862252
 20
25.7517223392
 30
0.0
 10
80.1141628555
 20
25.7694476731
 30
0.0
 10
80.1081683029
 20
25.7958836873
 30
0.0
 10
80.1005575532
 20
25.8472892804
 30
0.0
 10
80.0933224432
 20
25.9152623192
 30
0.0
 10
80.0857421614
 20
26.0040744618
 30
0.0
 10
80.0782000287
 20
26.1119467226
 30
0.0
 10
80.0705901006
 20
26.23945506
 30
0.0
 10
80.0597728891
 20
26.4480582879
 30
0.0
 10
80.046590694
 20
26.7569178599
 30
0.0
 10
80.0314567925
 20
27.1846899917
 30
0.0
 10
80.0162655997
 20
27.6878751707
 30
0.0
 10
80.0010255193
 20
28.2652742529
 30
0.0
 10
79.9857584351
 20
28.9155602306
 30
0.0
 10
79.970472882
 20
29.6372218808
 30
0.0
 10
79.9551695894
 20
30.4285603984
 30
0.0
 10
79.9339805628
 20
31.6175423507
 30
0.0
 10
79.9078400868
 20
33.2627675188
 30
0.0
 10
79.8774004647
 20
35.4167641789
 30
0.0
 10
79.8469121148
 20
37.7954064019
 30
0.0
 10
79.816382082
 20
40.3765278867
 30
0.0
 10
79.7858243995
 20
43.1360491664
 30
0.0
 10
79.7552480137
 20
46.048219681
 30
0.0
 10
79.7246556642
 20
49.0858945608
 30
0.0
 10
79.6834789299
 20
53.3043448029
 30
0.0
 10
79.6327285346
 20
58.6720591841
 30
0.0
 10
79.5723592541
 20
65.0863678137
 30
0.0
 10
79.5120562084
 20
71.2927854247
 30
0.0
 10
79.4606261186
 20
76.2290725839
 30
0.0
 10
79.418716939
 20
79.9017513846
 30
0.0
 10
79.3882017613
 20
82.3876275117
 30
0.0
 10
79.3577378142
 20
84.6600148762
 30
0.0
 10
79.3273377018
 20
86.6977310981
 30
0.0
 10
79.2970525027
 20
88.481779779
 30
0.0
 10
79.2669057068
 20
89.9954899899
 30
0.0
 10
79.2406300544
 20
91.0812890124
 30
0.0
 10
79.2189003037
 20
91.8043684764
 30
0.0
 10
79.2037945217
 20
92.2344702896
 30
0.0
 10
79.1886965086
 20
92.5881685949
 30
0.0
 10
79.1740775438
 20
92.8647987039
 30
0.0
 10
79.1592585792
 20
93.0634719231
 30
0.0
 10
79.1483333493
 20
93.1700443708
 30
0.0
 10
79.1407965194
 20
93.2097899766
 30
0.0
  0
SPLINE
  5
510
100
AcDbEntity
  8
0
100
AcDbSpline
 62
7
  6
CONTINUOUS
 70
0
 71
3
 72
9
 73
5
 74
0
 42
0.0000001
 43
0.0000001
 44
0.0000000001
 40
0.0
 40
0.0
 40
0.0
 40
0.0
 40
0.3380668603
 40
1.0
 40
1.0
 40
1.0
 40
1.0
 10
79.1407965194
 20
93.2097899766
 30
0.0
 10
79.1399809793
 20
93.2140907418
 30
0.0
 10
79.1372722117
 20
93.2266828677
 30
0.0
 10
79.1344335556
 20
93.2396677301
 30
0.0
 10
79.130149023
 20
93.2470909218
 30
0.0
  0
SPLINE
  5
511
100
AcDbEntity
  8
0
100
AcDbSpline
 62
7
  6
CONTINUOUS
 70
0
 71
3
 72
48
 73
44
 74
0
 42
0.0000001
 43
0.0000001
 44
0.0000000001
 40
0.0
 40
0.0
 40
0.0
 40
0.0
 40
0.0001853034
 40
0.0006384177
 40
0.0013783989
 40
0.0024081797
 40
0.0037278982
 40
0.0053370323
 40
0.007234826
 40
0.0094204138
 40
0.0146511864
 40
0.0210184477
 40
0.0285057692
 40
0.0370961133
 40
0.0467711677
 40
0.0575069341
 40
0.0692777525
 40
0.0820576761
 40
0.1105209651
 40
0.1426300531
 40
0.1780839848
 40
0.2165528711
 40
0.2576749585
 40
0.301067103
 40
0.3463226126
 40
0.3930182355
 40
0.4889738018
 40
0.5853514504
 40
0.6785533308
 40
0.7651003782
 40
0.804855419
 40
0.8417618838
 40
0.8754730746
 40
0.9056759332
 40
0.9320858101
 40
0.9544573806
 40
0.9725817422
 40
0.9799963436
 40
0.9862886146
 40
0.9914455572
 40
0.9954545422
 40
0.9983063932
 40
1.0
 40
1.0
 40
1.0
 40
1.0
 10
72.1249492594
 20
25.751712589
 30
0.0
 10
72.120781162
 20
25.7517048143
 30
0.0
 10
72.1141349997
 20
25.7694904047
 30
0.0
 10
72.1081452647
 20
25.7959831431
 30
0.0
 10
72.1005183287
 20
25.8475690946
 30
0.0
 10
72.0932775446
 20
25.9157586284
 30
0.0
 10
72.0856836995
 20
26.0048429393
 30
0.0
 10
72.0781303609
 20
26.1130205201
 30
0.0
 10
72.0705086416
 20
26.2408832921
 30
0.0
 10
72.0596742501
 20
26.4500926863
 30
0.0
 10
72.046474598
 20
26.7598691038
 30
0.0
 10
72.0313193598
 20
27.1888932945
 30
0.0
 10
72.0161035773
 20
27.6935301535
 30
0.0
 10
72.0008408624
 20
28.2725957623
 30
0.0
 10
71.9855534986
 20
28.9247523834
 30
0.0
 10
71.9702440711
 20
29.6484654622
 30
0.0
 10
71.9549173114
 20
30.4420314777
 30
0.0
 10
71.9336997834
 20
31.6343089747
 30
0.0
 10
71.9075184104
 20
33.2840454761
 30
0.0
 10
71.877036575
 20
35.4437894553
 30
0.0
 10
71.846501327
 20
37.8286128227
 30
0.0
 10
71.8159277857
 20
40.4161838368
 30
0.0
 10
71.7853247505
 20
43.1823234922
 30
0.0
 10
71.7547032911
 20
46.1011259742
 30
0.0
 10
71.7240665873
 20
49.1453026417
 30
0.0
 10
71.6828325793
 20
53.3717625013
 30
0.0
 10
71.6320144611
 20
58.7480941669
 30
0.0
 10
71.5715597698
 20
65.1704653889
 30
0.0
 10
71.5111724251
 20
71.3811980838
 30
0.0
 10
71.4596636451
 20
76.3183214385
 30
0.0
 10
71.4176821165
 20
79.989197367
 30
0.0
 10
71.3871260984
 20
82.4716671488
 30
0.0
 10
71.3566180422
 20
84.7392590468
 30
0.0
 10
71.3261781314
 20
86.7707241529
 30
0.0
 10
71.2958565915
 20
88.5470937951
 30
0.0
 10
71.2656699159
 20
90.0517309148
 30
0.0
 10
71.2393643728
 20
91.1290916276
 30
0.0
 10
71.2175805364
 20
91.8447502343
 30
0.0
 10
71.2024666193
 20
92.2688061234
 30
0.0
 10
71.1873397663
 20
92.6161589452
 30
0.0
 10
71.1727926838
 20
92.8861715902
 30
0.0
 10
71.1578785682
 20
93.0778774881
 30
0.0
 10
71.1471191808
 20
93.179810679
 30
0.0
 10
71.139343315
 20
93.2171036181
 30
0.0
  0
SPLINE
  5
512
100
AcDbEntity
  8
0
100
AcDbSpline
 62
7
  6
CONTINUOUS
 70
0
 71
3
 72
9
 73
5
 74
0
 42
0.0000001
 43
0.0000001
 44
0.0000000001
 40
0.0
 40
0.0
 40
0.0
 40
0.0
 40
0.3307721934
 40
1.0
 40
1.0
 40
1.0
 40
1.0
 10
71.139343315
 20
93.2171036181
 30
0.0
 10
71.1386354757
 20
93.2204984049
 30
0.0
 10
71.1362736487
 20
93.2306674397
 30
0.0
 10
71.1336513561
 20
93.2410574816
 30
0.0
 10
71.1301481539
 20
93.2471364517
 30
0.0
  0
SPLINE
  5
513
100
AcDbEntity
  8
0
100
AcDbSpline
 62
7
  6
CONTINUOUS
 70
0
 71
3
 72
38
 73
34
 74
0
 42
0.0000001
 43
0.0000001
 44
0.0000000001
 40
0.0
 40
0.0
 40
0.0
 40
0.0
 40
0.0002342869
 40
0.0007356235
 40
0.001505828
 40
0.0025449143
 40
0.0038525743
 40
0.0054283984
 40
0.0093824185
 40
0.0143987806
 40
0.0204660609
 40
0.0275727025
 40
0.0357050471
 40
0.0448445045
 40
0.0549717653
 40
0.0781061287
 40
0.1049106298
 40
0.1351605676
 40
0.1685978434
 40
0.204937453
 40
0.2438689616
 40
0.2850573577
 40
0.3727757309
 40
0.4650747698
 40
0.5587619481
 40
0.6505787664
 40
0.7373209633
 40
0.8159497523
 40
0.883695705
 40
0.9381582528
 40
0.9773971074
 40
0.9908432792
 40
1.0
 40
1.0
 40
1.0
 40
1.0
 10
81.9136250762
 20
94.2712704337
 30
0.0
 10
81.916292042
 20
94.2666511135
 30
0.0
 10
81.9177499134
 20
94.2492884931
 30
0.0
 10
81.9220155545
 20
94.2157864342
 30
0.0
 10
81.9249875069
 20
94.1629721946
 30
0.0
 10
81.9287550313
 20
94.0922312006
 30
0.0
 10
81.9322763345
 20
94.0029487246
 30
0.0
 10
81.9375469531
 20
93.8473921738
 30
0.0
 10
81.9438146047
 20
93.6073550339
 30
0.0
 10
81.9510170998
 20
93.2650790955
 30
0.0
 10
81.9582451896
 20
92.8510071156
 30
0.0
 10
81.9655142983
 20
92.3659894438
 30
0.0
 10
81.9728020691
 20
91.8110209575
 30
0.0
 10
81.9801089975
 20
91.1872784294
 30
0.0
 10
81.9903264561
 20
90.2220011446
 30
0.0
 10
82.0028823149
 20
88.8545529264
 30
0.0
 10
82.0174357322
 20
87.0289791735
 30
0.0
 10
82.0320333321
 20
84.9688362412
 30
0.0
 10
82.0466701954
 20
82.6916061177
 30
0.0
 10
82.0613355136
 20
80.2167220397
 30
0.0
 10
82.0760248563
 20
77.5653680833
 30
0.0
 10
82.09605976
 20
73.7443029343
 30
0.0
 10
82.1207505015
 20
68.7082450992
 30
0.0
 10
82.149890589
 20
62.4769728707
 30
0.0
 10
82.1790824809
 20
56.1523919268
 30
0.0
 10
82.2082994804
 20
49.9543233174
 30
0.0
 10
82.237481551
 20
44.0990873492
 30
0.0
 10
82.2666261789
 20
38.7918730535
 30
0.0
 10
82.2954433476
 20
34.2195651645
 30
0.0
 10
82.3242042095
 20
30.5440652084
 30
0.0
 10
82.3489246722
 20
28.1047791914
 30
0.0
 10
82.3709823011
 20
26.6970263917
 30
0.0
 10
82.3820071925
 20
26.1825362313
 30
0.0
 10
82.3885785002
 20
25.9741718448
 30
0.0
  0
SPLINE
  5
514
100
AcDbEntity
  8
0
100
AcDbSpline
 62
7
  6
CONTINUOUS
 70
0
 71
3
 72
9
 73
5
 74
0
 42
0.0000001
 43
0.0000001
 44
0.0000000001
 40
0.0
 40
0.0
 40
0.0
 40
0.0
 40
0.6350666696
 40
1.0
 40
1.0
 40
1.0
 40
1.0
 10
82.3885785002
 20
25.9741718448
 30
0.0
 10
82.3908777488
 20
25.9012667963
 30
0.0
 10
82.3952588156
 20
25.7865315433
 30
0.0
 10
82.4008805363
 20
25.6717222577
 30
0.0
 10
82.4053087577
 20
25.6300420029
 30
0.0
  0
SPLINE
  5
515
100
AcDbEntity
  8
0
100
AcDbSpline
 62
7
  6
CONTINUOUS
 70
0
 71
3
 72
9
 73
5
 74
0
 42
0.0000001
 43
0.0000001
 44
0.0000000001
 40
0.0
 40
0.0
 40
0.0
 40
0.0
 40
0.6658619427
 40
1.0
 40
1.0
 40
1.0
 40
1.0
 10
82.4053087577
 20
25.6300420029
 30
0.0
 10
82.4060716885
 20
25.6228609828
 30
0.0
 10
82.4076442954
 20
25.6122996813
 30
0.0
 10
82.4092331267
 20
25.6012233536
 30
0.0
 10
82.4110371364
 20
25.5980804989
 30
0.0
  0
ELLIPSE
  5
516
100
AcDbEntity
  8
0
100
AcDbEllipse
 62
7
  6
CONTINUOUS
 10
136.1145865794
 20
175.0016558688
 30
0.0
 11
0.0
 21
1.0
 31
0.0
 40
0.5773502692
 41
-0.0
 42
1.5707963268
  0
ELLIPSE
  5
517
100
AcDbEntity
  8
0
100
AcDbEllipse
 62
7
  6
CONTINUOUS
 10
132.0731346951
 20
172.5165814381
 30
0.0
 11
2.0131567266
 21
5.5311026482
 31
0.0
 40
0.5096773721
 41
-1.5707963268
 42
-0.9506573207
  0
ELLIPSE
  5
518
100
AcDbEntity
  8
0
100
AcDbEllipse
 62
7
  6
CONTINUOUS
 10
135.5372363102
 20
176.0016558688
 30
0.0
 11
-0.0
 21
4.0
 31
0.0
 40
0.5773502692
 41
-0.0
 42
1.5707963268
  0
ELLIPSE
  5
519
100
AcDbEntity
  8
0
100
AcDbEllipse
 62
7
  6
CONTINUOUS
 10
110.7292708953
 20
176.0016558688
 30
0.0
 11
-0.0
 21
4.0
 31
0.0
 40
1.0
 41
-1.5707963268
 42
0.0
  0
ELLIPSE
  5
51A
100
AcDbEntity
  8
0
100
AcDbEllipse
 62
7
  6
CONTINUOUS
 10
129.7637336183
 20
166.1715541272
 30
0.0
 11
2.0131567266
 21
5.5311026482
 31
0.0
 40
0.5096773721
 41
-1.5707963268
 42
-0.9506573207
  0
ENDSEC
  0
SECTION
  2
OBJECTS
  0
DICTIONARY
  5
51B
100
AcDbDictionary
  3
ACAD_GROUP
350
51C
  3
ACAD_MLINESTYLE
350
51D
  0
DICTIONARY
  5
51C
102
{ACAD_REACTORS
330
51B
102
}
100
AcDbDictionary
  0
DICTIONARY
  5
51D
102
{ACAD_REACTORS
330
51B
102
}
100
AcDbDictionary
  3
STANDARD
350
51E
  0
MLINESTYLE
  5
51E
102
{ACAD_REACTORS
330
51D
102
}
100
AcDbMlineStyle
  2
STANDARD
 70
0
  3

 62
256
 51
90.0
 52
90.0
 71
2
 49
0.5
 62
256
  6
BYLAYER
 49
-0.5
 62
256
  6
BYLAYER
  0
ENDSEC
  0
EOF
