999
DXF file: C:\Users\64ciro\Desktop\FILE 3D-2D\ARMATEC\h36lll035_3082.dxf
999
Pro/ENGINEER 2017260 by Parametric Technology Corporation
  0
SECTION
  2
HEADER
  9
$ACADVER
  1
AC1014
  9
$DWGCODEPAGE
  3
ANSI_1252
  9
$EXTMAX
 10
297.0
 20
210.0
 30
0.0
  9
$EXTMIN
 10
0.0
 20
0.0
 30
0.0
  9
$LIMMIN
 10
0.0
 20
0.0
  9
$LIMMAX
 10
297.0
 20
210.0
  9
$VIEWCTR
 10
148.5
 20
105.0
  9
$VIEWSIZE
 40
210.0
  9
$CLAYER
  8
0
  9
$LTSCALE
 40
16.335
  9
$CELTYPE
  6
BYLAYER
  9
$DIMSCALE
 40
1.0
  9
$DIMASZ
 40
1.5
  9
$DIMEXO
 40
0.0625
  9
$DIMDLI
 40
11.286
  9
$DIMEXE
 40
0.125
  9
$DIMCEN
 40
2.673
  9
$DIMLFAC
 40
1.0
  9
$DIMBLK
  1
_CLOSED
  9
$DIMALT
 70
0
  9
$DIMALTF
 40
25.4
  9
$DIMTXT
 40
2.4
  9
$DIMTOL
 70
1
  9
$DIMLIM
 70
0
  9
$DIMTFAC
 40
1.0
  9
$DIMTP
 40
0.01
  9
$DIMTM
 40
0.01
  9
$DIMGAP
 40
0.625
  9
$AUNITS
 70
0
  9
$PDMODE
 70
3
  9
$PDSIZE
 40
0.3125
  9
$HANDSEED
  5
531
  9
$TILEMODE
 70
1
  9
$MEASUREMENT
 70
1
  0
ENDSEC
  0
SECTION
  2
CLASSES
  0
ENDSEC
  0
SECTION
  2
TABLES
  0
TABLE
  2
VPORT
  5
8
100
AcDbSymbolTable
 70
2
  0
VPORT
  5
1F4
100
AcDbSymbolTableRecord
100
AcDbViewportTableRecord
  2
*ACTIVE
 70
0
 10
0.0
 20
0.0
 11
1.0
 21
1.0
 12
148.5
 22
105.0
 13
0.0
 23
0.0
 14
1.0
 24
1.0
 15
0.0
 25
0.0
 16
0.0
 26
0.0
 36
1.0
 17
0.0
 27
0.0
 37
0.0
 40
210.0
 41
1.4142857143
 42
50.0
 43
0.0
 44
0.0
 50
0.0
 51
0.0
 71
0
 72
100
 73
1
 74
1
 75
0
 76
0
 77
0
 78
0
  0
ENDTAB
  0
TABLE
  2
LTYPE
  5
5
100
AcDbSymbolTable
 70
6
  0
LTYPE
  5
14
100
AcDbSymbolTableRecord
100
AcDbLinetypeTableRecord
  2
BYBLOCK
 70
0
  3

 72
65
 73
0
 40
0.0
  0
LTYPE
  5
15
100
AcDbSymbolTableRecord
100
AcDbLinetypeTableRecord
  2
BYLAYER
 70
0
  3

 72
65
 73
0
 40
0.0
  0
LTYPE
  5
16
100
AcDbSymbolTableRecord
100
AcDbLinetypeTableRecord
  2
CONTINUOUS
 70
64
  3
Solid line
 72
65
 73
0
 40
0.0
  0
LTYPE
  5
1F5
100
AcDbSymbolTableRecord
100
AcDbLinetypeTableRecord
  2
CENTER
 70
64
  3
____ _ ____ _ ____ _ ____ _ ____ _ ____ _ ____
 72
65
 73
4
 40
0.6
 49
0.375
 74
0
 49
-0.075
 74
0
 49
0.075
 74
0
 49
-0.075
 74
0
  0
LTYPE
  5
1F6
100
AcDbSymbolTableRecord
100
AcDbLinetypeTableRecord
  2
HIDDEN
 70
64
  3
- - - - - - - - - - - - - - - - - - - -
 72
65
 73
2
 40
0.2
 49
0.1
 74
0
 49
-0.1
 74
0
  0
LTYPE
  5
1F7
100
AcDbSymbolTableRecord
100
AcDbLinetypeTableRecord
  2
PHANTOM
 70
64
  3
_____ _ _ _____ _ _ _____ _ _ _____
 72
65
 73
6
 40
0.8
 49
0.45
 74
0
 49
-0.05
 74
0
 49
0.1
 74
0
 49
-0.05
 74
0
 49
0.1
 74
0
 49
-0.05
 74
0
  0
LTYPE
  5
1F8
100
AcDbSymbolTableRecord
100
AcDbLinetypeTableRecord
  2
DOT
 70
64
  3
. . . . . . . . . . . . . . . . . . . .
 72
65
 73
2
 40
0.2
 49
0.1
 74
0
 49
-0.1
 74
0
  0
LTYPE
  5
1F9
100
AcDbSymbolTableRecord
100
AcDbLinetypeTableRecord
  2
DASHED
 70
64
  3
- - - - - - - - - - - - - - - - - - - -
 72
65
 73
2
 40
0.2
 49
0.1
 74
0
 49
-0.1
 74
0
  0
ENDTAB
  0
TABLE
  2
LAYER
  5
2
100
AcDbSymbolTable
 70
36
  0
LAYER
  5
10
100
AcDbSymbolTableRecord
100
AcDbLayerTableRecord
  2
0
 70
0
 62
7
  6
CONTINUOUS
  0
LAYER
  5
1FA
100
AcDbSymbolTableRecord
100
AcDbLayerTableRecord
  2
DEFAULT_1
 70
0
 62
7
  6
CENTER
  0
LAYER
  5
1FB
100
AcDbSymbolTableRecord
100
AcDbLayerTableRecord
  2
DEFAULT_2
 70
0
 62
8
  6
HIDDEN
  0
LAYER
  5
1FC
100
AcDbSymbolTableRecord
100
AcDbLayerTableRecord
  2
DEFAULT_3
 70
0
 62
7
  6
PHANTOM
  0
LAYER
  5
1FD
100
AcDbSymbolTableRecord
100
AcDbLayerTableRecord
  2
ASSI
 70
0
 62
7
  6
CONTINUOUS
  0
LAYER
  5
1FE
100
AcDbSymbolTableRecord
100
AcDbLayerTableRecord
  2
COSMETICA
 70
0
 62
7
  6
CONTINUOUS
  0
LAYER
  5
1FF
100
AcDbSymbolTableRecord
100
AcDbLayerTableRecord
  2
COSMETICHE
 70
0
 62
7
  6
CONTINUOUS
  0
LAYER
  5
200
100
AcDbSymbolTableRecord
100
AcDbLayerTableRecord
  2
CSYS
 70
0
 62
7
  6
CONTINUOUS
  0
LAYER
  5
201
100
AcDbSymbolTableRecord
100
AcDbLayerTableRecord
  2
CURVE
 70
0
 62
7
  6
CONTINUOUS
  0
LAYER
  5
202
100
AcDbSymbolTableRecord
100
AcDbLayerTableRecord
  2
DETTAGLI
 70
0
 62
7
  6
CONTINUOUS
  0
LAYER
  5
203
100
AcDbSymbolTableRecord
100
AcDbLayerTableRecord
  2
FILETTI
 70
0
 62
7
  6
CONTINUOUS
  0
LAYER
  5
204
100
AcDbSymbolTableRecord
100
AcDbLayerTableRecord
  2
GEOM
 70
0
 62
7
  6
CONTINUOUS
  0
LAYER
  5
205
100
AcDbSymbolTableRecord
100
AcDbLayerTableRecord
  2
GEOMETRIA_SOLIDA
 70
0
 62
7
  6
CONTINUOUS
  0
LAYER
  5
206
100
AcDbSymbolTableRecord
100
AcDbLayerTableRecord
  2
LAY0001
 70
0
 62
7
  6
CONTINUOUS
  0
LAYER
  5
207
100
AcDbSymbolTableRecord
100
AcDbLayerTableRecord
  2
LAY0002
 70
0
 62
7
  6
CONTINUOUS
  0
LAYER
  5
208
100
AcDbSymbolTableRecord
100
AcDbLayerTableRecord
  2
NOGEOM
 70
0
 62
7
  6
CONTINUOUS
  0
LAYER
  5
209
100
AcDbSymbolTableRecord
100
AcDbLayerTableRecord
  2
PIANI
 70
0
 62
7
  6
CONTINUOUS
  0
LAYER
  5
20A
100
AcDbSymbolTableRecord
100
AcDbLayerTableRecord
  2
QUOTE
 70
0
 62
7
  6
CONTINUOUS
  0
LAYER
  5
20B
100
AcDbSymbolTableRecord
100
AcDbLayerTableRecord
  2
RACCORDI
 70
0
 62
7
  6
CONTINUOUS
  0
LAYER
  5
20C
100
AcDbSymbolTableRecord
100
AcDbLayerTableRecord
  2
RIF
 70
0
 62
7
  6
CONTINUOUS
  0
LAYER
  5
20D
100
AcDbSymbolTableRecord
100
AcDbLayerTableRecord
  2
SMUSSI
 70
0
 62
7
  6
CONTINUOUS
  0
LAYER
  5
20E
100
AcDbSymbolTableRecord
100
AcDbLayerTableRecord
  2
TABELLE
 70
0
 62
7
  6
CONTINUOUS
  0
LAYER
  5
20F
100
AcDbSymbolTableRecord
100
AcDbLayerTableRecord
  2
XSEC_DATUMS
 70
0
 62
7
  6
CONTINUOUS
  0
ENDTAB
  0
TABLE
  2
STYLE
  5
3
100
AcDbSymbolTable
 70
1
  0
STYLE
  5
11
100
AcDbSymbolTableRecord
100
AcDbTextStyleTableRecord
  2
STANDARD
 70
0
 40
0.0
 41
0.8
 50
0.0
 71
0
 42
0.2
  3
txt
  4

  0
STYLE
  5
210
100
AcDbSymbolTableRecord
100
AcDbTextStyleTableRecord
  2
TEXTSTYLE_1
 70
0
 40
0.0
 41
0.8
 50
0.0
 71
0
 42
0.2
  3
gdt
  4

  0
ENDTAB
  0
TABLE
  2
VIEW
  5
6
100
AcDbSymbolTable
 70
0
  0
ENDTAB
  0
TABLE
  2
UCS
  5
7
100
AcDbSymbolTable
 70
0
  0
ENDTAB
  0
TABLE
  2
APPID
  5
9
100
AcDbSymbolTable
 70
1
  0
APPID
  5
211
100
AcDbSymbolTableRecord
100
AcDbRegAppTableRecord
  2
ACAD
 70
0
  0
ENDTAB
  0
TABLE
  2
BLOCK_RECORD
  5
1
100
AcDbSymbolTable
 70
0
  0
BLOCK_RECORD
  5
1F
100
AcDbSymbolTableRecord
100
AcDbBlockTableRecord
  2
*MODEL_SPACE
  0
BLOCK_RECORD
  5
1B
100
AcDbSymbolTableRecord
100
AcDbBlockTableRecord
  2
*PAPER_SPACE
  0
ENDTAB
  0
TABLE
  2
DIMSTYLE
  5
A
100
AcDbSymbolTable
 70
1
  0
DIMSTYLE
105
212
100
AcDbSymbolTableRecord
100
AcDbDimStyleTableRecord
  2
STANDARD
 70
0
  3

  4

  5
_CLOSED
  6
_CLOSED
  7
_CLOSED
 40
1.0
 41
1.5
 42
0.0625
 43
0.38
 44
0.125
 45
0.0
 46
0.0
 47
0.01
 48
0.01
140
2.4
141
0.09
142
0.0
143
25.4
144
1.0
145
0.0
146
1.0
147
0.625
 71
1.0
 72
0.0
 73
0
 74
0
 75
0
 76
0
 77
1
 78
8
 79
2
170
0
171
1
172
0
173
0
174
0
175
0
176
0
177
0
178
0
270
2
179
2
271
2
272
2
273
2
274
2
275
0
280
0
281
0
282
0
283
1
284
8
285
0
286
0
287
3
288
0
340
11
  0
ENDTAB
  0
ENDSEC
  0
SECTION
  2
BLOCKS
  0
BLOCK
  5
20
100
AcDbEntity
  8
0
100
AcDbBlockBegin
  2
*MODEL_SPACE
 70
0
 10
0.0
 20
0.0
 30
0.0
  3
*MODEL_SPACE
  1

  0
ENDBLK
  5
21
100
AcDbEntity
  8
0
100
AcDbBlockEnd
  0
BLOCK
  5
1C
100
AcDbEntity
  8
0
100
AcDbBlockBegin
  2
*PAPER_SPACE
 70
0
 10
0.0
 20
0.0
 30
0.0
  3
*PAPER_SPACE
  1

  0
ENDBLK
  5
1D
100
AcDbEntity
  8
0
100
AcDbBlockEnd
  0
ENDSEC
  0
SECTION
  2
ENTITIES
  0
LINE
  5
213
100
AcDbEntity
  8
0
100
AcDbLine
 62
7
  6
CONTINUOUS
 10
0.0
 20
0.0
 11
0.0
 21
210.0
  0
LINE
  5
214
100
AcDbEntity
  8
0
100
AcDbLine
 62
7
  6
CONTINUOUS
 10
0.0
 20
0.0
 11
297.0
 21
0.0
  0
LINE
  5
215
100
AcDbEntity
  8
0
100
AcDbLine
 62
7
  6
CONTINUOUS
 10
0.0
 20
210.0
 11
297.0
 21
210.0
  0
LINE
  5
216
100
AcDbEntity
  8
0
100
AcDbLine
 62
7
  6
CONTINUOUS
 10
297.0
 20
0.0
 11
297.0
 21
210.0
  0
LINE
  5
217
100
AcDbEntity
  8
0
100
AcDbLine
 62
7
  6
CONTINUOUS
 10
59.1742730575
 20
94.5592382481
 11
59.1742730575
 21
48.9592382481
  0
LINE
  5
218
100
AcDbEntity
  8
0
100
AcDbLine
 62
7
  6
CONTINUOUS
 10
59.8742730575
 20
48.2592382481
 11
59.8742730575
 21
95.2592382481
  0
LINE
  5
219
100
AcDbEntity
  8
0
100
AcDbLine
 62
7
  6
CONTINUOUS
 10
76.2559815025
 20
50.8440848924
 11
76.2636325842
 21
50.8367382481
  0
LINE
  5
21A
100
AcDbEntity
  8
0
100
AcDbLine
 62
7
  6
CONTINUOUS
 10
78.0699815025
 20
50.8440848924
 11
78.0776325842
 21
50.8367382481
  0
LINE
  5
21B
100
AcDbEntity
  8
0
100
AcDbLine
 62
7
  6
CONTINUOUS
 10
79.8839815025
 20
50.8440848924
 11
79.8916325842
 21
50.8367382481
  0
LINE
  5
21C
100
AcDbEntity
  8
0
100
AcDbLine
 62
7
  6
CONTINUOUS
 10
81.6979815024
 20
50.8440848924
 11
81.7056325841
 21
50.8367382481
  0
LINE
  5
21D
100
AcDbEntity
  8
0
100
AcDbLine
 62
7
  6
CONTINUOUS
 10
76.1742730575
 20
51.0009897963
 11
76.2559815025
 21
50.8440848924
  0
LINE
  5
21E
100
AcDbEntity
  8
0
100
AcDbLine
 62
7
  6
CONTINUOUS
 10
77.4638514383
 20
52.0080169999
 11
78.0699815025
 21
50.8440848924
  0
LINE
  5
21F
100
AcDbEntity
  8
0
100
AcDbLine
 62
7
  6
CONTINUOUS
 10
79.2778514383
 20
52.0080169999
 11
79.8839815025
 21
50.8440848924
  0
LINE
  5
220
100
AcDbEntity
  8
GEOM
100
AcDbLine
 62
7
  6
CONTINUOUS
 10
61.3855979229
 20
95.2592382481
 11
61.3855979229
 21
48.2592382481
  0
LINE
  5
221
100
AcDbEntity
  8
GEOM
100
AcDbLine
 62
7
  6
CONTINUOUS
 10
61.8186106248
 20
95.2592382481
 11
61.8186106248
 21
90.8065253679
  0
LINE
  5
222
100
AcDbEntity
  8
GEOM
100
AcDbLine
 62
7
  6
CONTINUOUS
 10
61.8186106248
 20
85.9459698441
 11
61.8186106248
 21
75.1961700193
  0
LINE
  5
223
100
AcDbEntity
  8
GEOM
100
AcDbLine
 62
7
  6
CONTINUOUS
 10
61.8186106248
 20
68.3223064769
 11
61.8186106248
 21
57.5725066521
  0
LINE
  5
224
100
AcDbEntity
  8
GEOM
100
AcDbLine
 62
7
  6
CONTINUOUS
 10
61.8186106248
 20
52.7119511283
 11
61.8186106248
 21
48.2592382481
  0
LINE
  5
225
100
AcDbEntity
  8
0
100
AcDbLine
 62
7
  6
CONTINUOUS
 10
62.5114309479
 20
95.2592382481
 11
62.5114309479
 21
94.3029878567
  0
LINE
  5
226
100
AcDbEntity
  8
0
100
AcDbLine
 62
7
  6
CONTINUOUS
 10
62.5114309479
 20
82.4495073552
 11
62.5114309479
 21
80.1409146914
  0
LINE
  5
227
100
AcDbEntity
  8
0
100
AcDbLine
 62
7
  6
CONTINUOUS
 10
62.5114309479
 20
63.3775618048
 11
62.5114309479
 21
61.068969141
  0
LINE
  5
228
100
AcDbEntity
  8
0
100
AcDbLine
 62
7
  6
CONTINUOUS
 10
62.5114309479
 20
49.2154886394
 11
62.5114309479
 21
48.2592382481
  0
LINE
  5
229
100
AcDbEntity
  8
0
100
AcDbLine
 62
7
  6
CONTINUOUS
 10
83.5119815025
 20
50.8440848924
 11
83.5196325842
 21
50.8367382481
  0
LINE
  5
22A
100
AcDbEntity
  8
0
100
AcDbLine
 62
7
  6
CONTINUOUS
 10
81.0918514383
 20
52.0080169999
 11
81.6979815024
 21
50.8440848924
  0
LINE
  5
22B
100
AcDbEntity
  8
0
100
AcDbLine
 62
7
  6
CONTINUOUS
 10
82.9058514383
 20
52.0080169999
 11
83.5119815025
 21
50.8440848924
  0
LINE
  5
22C
100
AcDbEntity
  8
0
100
AcDbLine
 62
7
  6
CONTINUOUS
 10
75.0484400326
 20
95.2592382481
 11
75.0484400326
 21
94.3029878567
  0
LINE
  5
22D
100
AcDbEntity
  8
0
100
AcDbLine
 62
7
  6
CONTINUOUS
 10
75.0484400326
 20
82.4495073552
 11
75.0484400326
 21
80.1409146914
  0
LINE
  5
22E
100
AcDbEntity
  8
0
100
AcDbLine
 62
7
  6
CONTINUOUS
 10
75.0484400326
 20
63.3775618048
 11
75.0484400326
 21
61.068969141
  0
LINE
  5
22F
100
AcDbEntity
  8
0
100
AcDbLine
 62
7
  6
CONTINUOUS
 10
75.0484400326
 20
49.2154886394
 11
75.0484400326
 21
48.2592382481
  0
LINE
  5
230
100
AcDbEntity
  8
0
100
AcDbLine
 62
7
  6
CONTINUOUS
 10
106.0206439074
 20
44.2278673982
 11
101.6357196669
 21
48.6127916387
  0
LINE
  5
231
100
AcDbEntity
  8
0
100
AcDbLine
 62
7
  6
CONTINUOUS
 10
76.3730542034
 20
91.5104594963
 11
76.1742730575
 21
91.8921671717
  0
LINE
  5
232
100
AcDbEntity
  8
0
100
AcDbLine
 62
7
  6
CONTINUOUS
 10
76.1742730575
 20
48.7592382481
 11
76.1742730575
 21
94.7592382481
  0
LINE
  5
233
100
AcDbEntity
  8
0
100
AcDbLine
 62
7
  6
CONTINUOUS
 10
142.72192735
 20
42.7592382481
 11
137.7892730575
 21
42.7592382481
  0
LINE
  5
234
100
AcDbEntity
  8
0
100
AcDbLine
 62
7
  6
CONTINUOUS
 10
137.2821662763
 20
43.0592382481
 11
131.3963798387
 21
43.0592382481
  0
LINE
  5
235
100
AcDbEntity
  8
0
100
AcDbLine
 62
7
  6
CONTINUOUS
 10
76.1742730575
 20
94.7592382481
 11
75.8855979229
 21
95.2592382481
  0
LINE
  5
236
100
AcDbEntity
  8
0
100
AcDbLine
 62
7
  6
CONTINUOUS
 10
78.1870542034
 20
91.5104594963
 11
77.5809241392
 21
92.6743916038
  0
LINE
  5
237
100
AcDbEntity
  8
0
100
AcDbLine
 62
7
  6
CONTINUOUS
 10
80.0010542033
 20
91.5104594963
 11
79.3949241392
 21
92.6743916038
  0
LINE
  5
238
100
AcDbEntity
  8
0
100
AcDbLine
 62
7
  6
CONTINUOUS
 10
81.8150542034
 20
91.5104594963
 11
81.2089241392
 21
92.6743916038
  0
LINE
  5
239
100
AcDbEntity
  8
0
100
AcDbLine
 62
7
  6
CONTINUOUS
 10
83.6892730575
 20
48.7592382481
 11
83.6892730575
 21
94.7592382481
  0
LINE
  5
23A
100
AcDbEntity
  8
0
100
AcDbLine
 62
7
  6
CONTINUOUS
 10
84.1986741343
 20
48.8925715784
 11
84.1986741343
 21
49.3705151396
  0
LINE
  5
23B
100
AcDbEntity
  8
0
100
AcDbLine
 62
7
  6
CONTINUOUS
 10
84.1986741343
 20
61.8096112383
 11
84.1986741343
 21
62.9634690696
  0
LINE
  5
23C
100
AcDbEntity
  8
0
100
AcDbLine
 62
7
  6
CONTINUOUS
 10
84.1986741343
 20
80.5550074266
 11
84.1986741343
 21
81.708865259
  0
LINE
  5
23D
100
AcDbEntity
  8
0
100
AcDbLine
 62
7
  6
CONTINUOUS
 10
84.1986741343
 20
94.1479613573
 11
84.1986741343
 21
94.6259049179
  0
LINE
  5
23E
100
AcDbEntity
  8
0
100
AcDbLine
 62
7
  6
CONTINUOUS
 10
103.6892730575
 20
156.1731999041
 11
104.9817747233
 21
157.5592382481
  0
LINE
  5
23F
100
AcDbEntity
  8
0
100
AcDbLine
 62
7
  6
CONTINUOUS
 10
114.070470904
 20
165.4019726582
 11
114.6892730575
 21
165.7592382481
  0
LINE
  5
240
100
AcDbEntity
  8
0
100
AcDbLine
 62
7
  6
CONTINUOUS
 10
114.070470904
 20
162.5566731966
 11
112.9892730575
 21
161.9324433288
  0
LINE
  5
241
100
AcDbEntity
  8
0
100
AcDbLine
 62
7
  6
CONTINUOUS
 10
130.2821662763
 20
43.7592382481
 11
107.1520147573
 21
43.7592382481
  0
LINE
  5
242
100
AcDbEntity
  8
0
100
AcDbLine
 62
7
  6
CONTINUOUS
 10
153.6892730575
 20
47.7592382481
 11
144.0087569719
 21
47.7592382481
  0
LINE
  5
243
100
AcDbEntity
  8
0
100
AcDbLine
 62
7
  6
CONTINUOUS
 10
177.5042730575
 20
48.2592382481
 11
175.9929481921
 21
48.2592382481
  0
LINE
  5
244
100
AcDbEntity
  8
GEOM
100
AcDbLine
 62
7
  6
CONTINUOUS
 10
175.9929481921
 20
48.2592382481
 11
174.8671151672
 21
48.2592382481
  0
LINE
  5
245
100
AcDbEntity
  8
0
100
AcDbLine
 62
7
  6
CONTINUOUS
 10
174.8671151672
 20
48.2592382481
 11
161.4929481921
 21
48.2592382481
  0
LINE
  5
246
100
AcDbEntity
  8
GEOM
100
AcDbLine
 62
7
  6
CONTINUOUS
 10
62.5114309479
 20
48.2592382481
 11
61.3855979229
 21
48.2592382481
  0
LINE
  5
247
100
AcDbEntity
  8
0
100
AcDbLine
 62
7
  6
CONTINUOUS
 10
59.8742730575
 20
48.2592382481
 11
61.3855979229
 21
48.2592382481
  0
LINE
  5
248
100
AcDbEntity
  8
0
100
AcDbLine
 62
7
  6
CONTINUOUS
 10
62.5114309479
 20
48.2592382481
 11
75.8855979229
 21
48.2592382481
  0
LINE
  5
249
100
AcDbEntity
  8
0
100
AcDbLine
 62
7
  6
CONTINUOUS
 10
152.8232476537
 20
48.6956466961
 11
144.0087569719
 21
48.6956466961
  0
LINE
  5
24A
100
AcDbEntity
  8
0
100
AcDbLine
 62
7
  6
CONTINUOUS
 10
102.63173062
 20
48.7592382481
 11
83.6892730575
 21
48.7592382481
  0
LINE
  5
24B
100
AcDbEntity
  8
0
100
AcDbLine
 62
7
  6
CONTINUOUS
 10
102.6317305783
 20
48.8925712904
 11
84.1986741339
 21
48.8925715784
  0
LINE
  5
24C
100
AcDbEntity
  8
0
100
AcDbLine
 62
7
  6
CONTINUOUS
 10
174.8671151672
 20
49.2154886394
 11
162.3301060824
 21
49.2154886394
  0
LINE
  5
24D
100
AcDbEntity
  8
0
100
AcDbLine
 62
7
  6
CONTINUOUS
 10
62.5114309479
 20
49.2154886394
 11
75.0484400326
 21
49.2154886394
  0
LINE
  5
24E
100
AcDbEntity
  8
0
100
AcDbLine
 62
7
  6
CONTINUOUS
 10
84.1986741354
 20
49.3705151396
 11
102.631701622
 21
49.3705142957
  0
LINE
  5
24F
100
AcDbEntity
  8
0
100
AcDbLine
 62
7
  6
CONTINUOUS
 10
84.1616506751
 20
49.7839524405
 11
102.6317022457
 21
49.7839511552
  0
LINE
  5
250
100
AcDbEntity
  8
0
100
AcDbLine
 62
7
  6
CONTINUOUS
 10
160.6144497479
 20
50.8367382481
 11
160.3115699608
 21
50.8367382481
  0
LINE
  5
251
100
AcDbEntity
  8
0
100
AcDbLine
 62
7
  6
CONTINUOUS
 10
158.8004434552
 20
50.8367382481
 11
158.4975666187
 21
50.8367382481
  0
LINE
  5
252
100
AcDbEntity
  8
0
100
AcDbLine
 62
7
  6
CONTINUOUS
 10
156.9864419648
 20
50.8367382481
 11
156.6835712656
 21
50.8367382481
  0
LINE
  5
253
100
AcDbEntity
  8
0
100
AcDbLine
 62
7
  6
CONTINUOUS
 10
155.172447915
 20
50.8367382481
 11
153.6892730575
 21
50.8367382481
  0
LINE
  5
254
100
AcDbEntity
  8
0
100
AcDbLine
 62
7
  6
CONTINUOUS
 10
83.6892730575
 20
50.8367382481
 11
83.5196325842
 21
50.8367382481
  0
LINE
  5
255
100
AcDbEntity
  8
0
100
AcDbLine
 62
7
  6
CONTINUOUS
 10
82.1082730575
 20
50.8367382481
 11
81.7056325841
 21
50.8367382481
  0
LINE
  5
256
100
AcDbEntity
  8
0
100
AcDbLine
 62
7
  6
CONTINUOUS
 10
80.2942730575
 20
50.8367382481
 11
79.8916325842
 21
50.8367382481
  0
LINE
  5
257
100
AcDbEntity
  8
0
100
AcDbLine
 62
7
  6
CONTINUOUS
 10
78.4802730575
 20
50.8367382481
 11
78.0776325842
 21
50.8367382481
  0
LINE
  5
258
100
AcDbEntity
  8
0
100
AcDbLine
 62
7
  6
CONTINUOUS
 10
76.6662730575
 20
50.8367382481
 11
76.2636325842
 21
50.8367382481
  0
LWPOLYLINE
  5
259
100
AcDbEntity
  8
0
100
AcDbPolyline
 62
7
  6
CONTINUOUS
 90
7
 70
0
 10
101.2821710529
 20
48.7592370526
 10
101.3488647587
 20
48.7547721016
 10
101.414882625
 20
48.7413092943
 10
101.4785006222
 20
48.7190886913
 10
101.5385618128
 20
48.6885099479
 10
101.5939729862
 20
48.6501249407
 10
101.6357317189
 20
48.6128050884
  0
LINE
  5
25A
100
AcDbEntity
  8
0
100
AcDbLine
 62
7
  6
CONTINUOUS
 10
77.5809241392
 20
92.6743916038
 11
77.5732730575
 21
92.6817382481
  0
LINE
  5
25B
100
AcDbEntity
  8
0
100
AcDbLine
 62
7
  6
CONTINUOUS
 10
79.3949241392
 20
92.6743916038
 11
79.3872730575
 21
92.6817382481
  0
LINE
  5
25C
100
AcDbEntity
  8
0
100
AcDbLine
 62
7
  6
CONTINUOUS
 10
81.2089241392
 20
92.6743916038
 11
81.2012730575
 21
92.6817382481
  0
LINE
  5
25D
100
AcDbEntity
  8
0
100
AcDbLine
 62
7
  6
CONTINUOUS
 10
131.0428264481
 20
43.2056848575
 11
130.6357196669
 21
43.6127916387
  0
LINE
  5
25E
100
AcDbEntity
  8
0
100
AcDbLine
 62
7
  6
CONTINUOUS
 10
77.1629815025
 20
92.6743916038
 11
76.5568514383
 21
91.5104594963
  0
LINE
  5
25F
100
AcDbEntity
  8
0
100
AcDbLine
 62
7
  6
CONTINUOUS
 10
78.9769815025
 20
92.6743916038
 11
78.3708514383
 21
91.5104594963
  0
LINE
  5
260
100
AcDbEntity
  8
0
100
AcDbLine
 62
7
  6
CONTINUOUS
 10
80.7909815024
 20
92.6743916038
 11
80.1848514383
 21
91.5104594963
  0
LINE
  5
261
100
AcDbEntity
  8
0
100
AcDbLine
 62
7
  6
CONTINUOUS
 10
103.7892730575
 20
143.6901783558
 11
103.5892730575
 21
143.3437681943
  0
LINE
  5
262
100
AcDbEntity
  8
0
100
AcDbLine
 62
7
  6
CONTINUOUS
 10
109.6985414893
 20
152.0949432141
 11
109.6892730575
 21
152.085285242
  0
LINE
  5
263
100
AcDbEntity
  8
0
100
AcDbLine
 62
7
  6
CONTINUOUS
 10
110.3892730575
 20
154.2592382481
 11
110.2784967554
 21
154.148461946
  0
LINE
  5
264
100
AcDbEntity
  8
0
100
AcDbLine
 62
7
  6
CONTINUOUS
 10
107.3892730575
 20
150.7592382481
 11
108.0892730575
 21
151.4592382481
  0
LINE
  5
265
100
AcDbEntity
  8
0
100
AcDbLine
 62
7
  6
CONTINUOUS
 10
110.4994425129
 20
153.8493374174
 11
109.6985414571
 21
153.4319430075
  0
LINE
  5
266
100
AcDbEntity
  8
0
100
AcDbLine
 62
7
  6
CONTINUOUS
 10
110.4994426068
 20
152.5123376608
 11
109.6985414893
 21
152.0949432141
  0
LINE
  5
267
100
AcDbEntity
  8
0
100
AcDbLine
 62
7
  6
CONTINUOUS
 10
83.0897936372
 20
51.6548038712
 11
82.5381119905
 21
51.6548038712
  0
LINE
  5
268
100
AcDbEntity
  8
0
100
AcDbLine
 62
7
  6
CONTINUOUS
 10
77.2719528209
 20
52.0002382481
 11
77.4719528209
 21
52.0002382481
  0
LINE
  5
269
100
AcDbEntity
  8
0
100
AcDbLine
 62
7
  6
CONTINUOUS
 10
79.0859528208
 20
52.0002382481
 11
79.2859528208
 21
52.0002382481
  0
LINE
  5
26A
100
AcDbEntity
  8
0
100
AcDbLine
 62
7
  6
CONTINUOUS
 10
80.8999528208
 20
52.0002382481
 11
81.0999528208
 21
52.0002382481
  0
LINE
  5
26B
100
AcDbEntity
  8
0
100
AcDbLine
 62
7
  6
CONTINUOUS
 10
82.7139528208
 20
52.0002382481
 11
82.9139528208
 21
52.0002382481
  0
LINE
  5
26C
100
AcDbEntity
  8
0
100
AcDbLine
 62
7
  6
CONTINUOUS
 10
137.7892730575
 20
42.7592382481
 11
137.6357196669
 21
42.9127916387
  0
LINE
  5
26D
100
AcDbEntity
  8
0
100
AcDbLine
 62
7
  6
CONTINUOUS
 10
112.8802322134
 20
69.1284738137
 11
110.6623879585
 21
73.4812382481
  0
LINE
  5
26E
100
AcDbEntity
  8
0
100
AcDbLine
 62
7
  6
CONTINUOUS
 10
113.4694534882
 20
70.2848856777
 11
111.840830508
 21
73.4812382481
  0
LINE
  5
26F
100
AcDbEntity
  8
0
100
AcDbLine
 62
7
  6
CONTINUOUS
 10
102.631703504
 20
61.2076132956
 11
102.6317034545
 21
61.8096128476
  0
LINE
  5
270
100
AcDbEntity
  8
0
100
AcDbLine
 62
7
  6
CONTINUOUS
 10
102.6317016331
 20
49.7839511552
 11
102.631701622
 21
49.3705142957
  0
LINE
  5
271
100
AcDbEntity
  8
0
100
AcDbLine
 62
7
  6
CONTINUOUS
 10
102.63170088
 20
93.7345253765
 11
102.6317009032
 21
94.1479622736
  0
LINE
  5
272
100
AcDbEntity
  8
0
100
AcDbLine
 62
7
  6
CONTINUOUS
 10
102.6317042078
 20
82.310863246
 11
102.6317041474
 21
81.7088637541
  0
LINE
  5
273
100
AcDbEntity
  8
0
100
AcDbLine
 62
7
  6
CONTINUOUS
 10
102.63173062
 20
48.7592382481
 11
102.6317305783
 21
48.8925712904
  0
LINE
  5
274
100
AcDbEntity
  8
0
100
AcDbLine
 62
7
  6
CONTINUOUS
 10
102.6317296532
 20
63.6814917834
 11
102.6317297097
 21
62.96346969
  0
LINE
  5
275
100
AcDbEntity
  8
0
100
AcDbLine
 62
7
  6
CONTINUOUS
 10
102.6317295967
 20
79.8369847141
 11
102.6317296532
 21
80.5550068112
  0
LINE
  5
276
100
AcDbEntity
  8
0
100
AcDbLine
 62
7
  6
CONTINUOUS
 10
102.6317300527
 20
94.7592382481
 11
102.6317299607
 21
94.6259052195
  0
LINE
  5
277
100
AcDbEntity
  8
0
100
AcDbLine
 62
7
  6
CONTINUOUS
 10
102.7821662763
 20
94.6305837988
 11
102.7821662763
 21
94.1426624212
  0
LINE
  5
278
100
AcDbEntity
  8
0
100
AcDbLine
 62
7
  6
CONTINUOUS
 10
102.7821662763
 20
81.7207810274
 11
102.7821662763
 21
80.5428342188
  0
LINE
  5
279
100
AcDbEntity
  8
0
100
AcDbLine
 62
7
  6
CONTINUOUS
 10
102.7821662763
 20
62.9756422786
 11
102.7821662763
 21
61.7976955713
  0
LINE
  5
27A
100
AcDbEntity
  8
0
100
AcDbLine
 62
7
  6
CONTINUOUS
 10
102.7821662763
 20
49.3758141706
 11
102.7821662763
 21
48.8878927636
  0
LINE
  5
27B
100
AcDbEntity
  8
0
100
AcDbLine
 62
7
  6
CONTINUOUS
 10
103.1357196669
 20
94.9268976099
 11
103.1357196669
 21
94.0876567838
  0
LINE
  5
27C
100
AcDbEntity
  8
0
100
AcDbLine
 62
7
  6
CONTINUOUS
 10
103.1357196999
 20
82.1953652729
 11
103.1357196669
 21
80.1748069569
  0
LINE
  5
27D
100
AcDbEntity
  8
0
100
AcDbLine
 62
7
  6
CONTINUOUS
 10
103.1357196669
 20
63.3505068674
 11
103.1357196669
 21
61.3241748671
  0
LINE
  5
27E
100
AcDbEntity
  8
0
100
AcDbLine
 62
7
  6
CONTINUOUS
 10
103.1357196669
 20
49.4313497005
 11
103.1357196669
 21
48.592945178
  0
LINE
  5
27F
100
AcDbEntity
  8
0
100
AcDbLine
 62
7
  6
CONTINUOUS
 10
103.3892730575
 20
147.0592382481
 11
103.3892730575
 21
143.6901783558
  0
LINE
  5
280
100
AcDbEntity
  8
0
100
AcDbLine
 62
7
  6
CONTINUOUS
 10
103.6892730575
 20
142.5592382481
 11
103.6892730575
 21
143.2860331673
  0
LINE
  5
281
100
AcDbEntity
  8
0
100
AcDbLine
 62
7
  6
CONTINUOUS
 10
103.6892730575
 20
147.4592382481
 11
103.6892730575
 21
157.5592382481
  0
LINE
  5
282
100
AcDbEntity
  8
0
100
AcDbLine
 62
7
  6
CONTINUOUS
 10
103.7892730575
 20
147.4592382481
 11
103.7892730575
 21
143.6901783558
  0
LINE
  5
283
100
AcDbEntity
  8
0
100
AcDbLine
 62
7
  6
CONTINUOUS
 10
106.0206439074
 20
44.2278673982
 11
106.0206439074
 21
99.290609098
  0
LINE
  5
284
100
AcDbEntity
  8
0
100
AcDbLine
 62
7
  6
CONTINUOUS
 10
106.6892730575
 20
147.4592382481
 11
106.6892730575
 21
157.0592382481
  0
LINE
  5
285
100
AcDbEntity
  8
0
100
AcDbLine
 62
7
  6
CONTINUOUS
 10
120.5433750238
 20
160.7592382481
 11
120.4634372746
 21
160.5592382481
  0
LINE
  5
286
100
AcDbEntity
  8
0
100
AcDbLine
 62
7
  6
CONTINUOUS
 10
124.6892730575
 20
160.7592382481
 11
124.5890484036
 21
160.5592382481
  0
LINE
  5
287
100
AcDbEntity
  8
0
100
AcDbLine
 62
7
  6
CONTINUOUS
 10
122.2159845713
 20
160.7592382481
 11
122.1154204962
 21
160.5592382481
  0
LINE
  5
288
100
AcDbEntity
  8
0
100
AcDbLine
 62
7
  6
CONTINUOUS
 10
82.6049815025
 20
92.6743916038
 11
81.9988514383
 21
91.5104594963
  0
LINE
  5
289
100
AcDbEntity
  8
0
100
AcDbLine
 62
7
  6
CONTINUOUS
 10
124.3956121553
 20
160.7592382481
 11
124.2843826232
 21
160.5592382481
  0
LINE
  5
28A
100
AcDbEntity
  8
0
100
AcDbLine
 62
7
  6
CONTINUOUS
 10
123.5433750238
 20
160.7592382481
 11
123.4320285352
 21
160.5592382481
  0
LINE
  5
28B
100
AcDbEntity
  8
0
100
AcDbLine
 62
7
  6
CONTINUOUS
 10
152.5319137446
 20
178.3876653728
 11
134.9963798387
 21
160.8521314669
  0
LINE
  5
28C
100
AcDbEntity
  8
0
100
AcDbLine
 62
7
  6
CONTINUOUS
 10
152.8232476537
 20
60.8817043031
 11
144.0087569719
 21
60.8817043031
  0
LINE
  5
28D
100
AcDbEntity
  8
0
100
AcDbLine
 62
7
  6
CONTINUOUS
 10
174.8671151672
 20
61.068969141
 11
162.3301060824
 21
61.068969141
  0
LINE
  5
28E
100
AcDbEntity
  8
0
100
AcDbLine
 62
7
  6
CONTINUOUS
 10
62.5114309479
 20
61.068969141
 11
75.0484400326
 21
61.068969141
  0
LINE
  5
28F
100
AcDbEntity
  8
0
100
AcDbLine
 62
7
  6
CONTINUOUS
 10
102.6317036916
 20
61.2076132956
 11
84.1616504143
 21
61.2076121202
  0
LINE
  5
290
100
AcDbEntity
  8
0
100
AcDbLine
 62
7
  6
CONTINUOUS
 10
102.6317034545
 20
61.8096128476
 11
84.1986741352
 21
61.8096112383
  0
LINE
  5
291
100
AcDbEntity
  8
0
100
AcDbLine
 62
7
  6
CONTINUOUS
 10
84.1986741339
 20
62.9634690696
 11
102.6317297097
 21
62.96346969
  0
LINE
  5
292
100
AcDbEntity
  8
0
100
AcDbLine
 62
7
  6
CONTINUOUS
 10
152.8232476537
 20
63.1423942783
 11
144.0087569719
 21
63.1423942783
  0
LINE
  5
293
100
AcDbEntity
  8
0
100
AcDbLine
 62
7
  6
CONTINUOUS
 10
174.8671151672
 20
63.3775618048
 11
162.3301060824
 21
63.3775618048
  0
LINE
  5
294
100
AcDbEntity
  8
0
100
AcDbLine
 62
7
  6
CONTINUOUS
 10
62.5114309479
 20
63.3775618048
 11
75.0484400326
 21
63.3775618048
  0
LINE
  5
295
100
AcDbEntity
  8
0
100
AcDbLine
 62
7
  6
CONTINUOUS
 10
84.1616656102
 20
63.6814910437
 11
102.6317294926
 21
63.6814917834
  0
LINE
  5
296
100
AcDbEntity
  8
0
100
AcDbLine
 62
7
  6
CONTINUOUS
 10
129.1423879585
 20
65.5012382481
 11
108.1423879585
 21
65.5012382481
  0
LINE
  5
297
100
AcDbEntity
  8
0
100
AcDbLine
 62
7
  6
CONTINUOUS
 10
128.0923879585
 20
66.5512382481
 11
109.1923879585
 21
66.5512382481
  0
LINE
  5
298
100
AcDbEntity
  8
0
100
AcDbLine
 62
7
  6
CONTINUOUS
 10
107.1520147573
 20
43.7592382481
 11
107.1520147573
 21
99.7592382481
  0
LINE
  5
299
100
AcDbEntity
  8
0
100
AcDbLine
 62
7
  6
CONTINUOUS
 10
107.3892730575
 20
147.528661815
 11
107.3892730575
 21
150.7592382481
  0
LINE
  5
29A
100
AcDbEntity
  8
0
100
AcDbLine
 62
7
  6
CONTINUOUS
 10
107.7416705803
 20
147.0592382481
 11
107.7416705803
 21
141.4082605821
  0
LINE
  5
29B
100
AcDbEntity
  8
0
100
AcDbLine
 62
7
  6
CONTINUOUS
 10
108.0323148938
 20
147.0592382481
 11
108.0323148938
 21
141.4082605821
  0
LINE
  5
29C
100
AcDbEntity
  8
0
100
AcDbLine
 62
7
  6
CONTINUOUS
 10
108.1423879585
 20
65.5012382481
 11
108.1423879585
 21
78.1012382481
  0
LINE
  5
29D
100
AcDbEntity
  8
0
100
AcDbLine
 62
7
  6
CONTINUOUS
 10
108.1892730575
 20
140.2860331673
 11
108.1892730575
 21
100.7592382481
  0
LINE
  5
29E
100
AcDbEntity
  8
0
100
AcDbLine
 62
7
  6
CONTINUOUS
 10
109.1923879585
 20
66.5512382481
 11
109.1923879585
 21
77.0512382481
  0
LINE
  5
29F
100
AcDbEntity
  8
0
100
AcDbLine
 62
7
  6
CONTINUOUS
 10
109.6892730575
 20
153.4222850687
 11
109.6892730575
 21
153.1181926286
  0
LINE
  5
2A0
100
AcDbEntity
  8
0
100
AcDbLine
 62
7
  6
CONTINUOUS
 10
109.6892730575
 20
152.085285242
 11
109.6892730575
 21
151.7811914857
  0
LINE
  5
2A1
100
AcDbEntity
  8
0
100
AcDbLine
 62
7
  6
CONTINUOUS
 10
110.4892730926
 20
154.0387387299
 11
110.4892730926
 21
153.8440370231
  0
LINE
  5
2A2
100
AcDbEntity
  8
0
100
AcDbLine
 62
7
  6
CONTINUOUS
 10
110.4892731501
 20
152.7017389353
 11
110.4892731501
 21
152.5070372475
  0
LINE
  5
2A3
100
AcDbEntity
  8
0
100
AcDbLine
 62
7
  6
CONTINUOUS
 10
111.6892730575
 20
154.2592382481
 11
111.6892730575
 21
157.5592382481
  0
LINE
  5
2A4
100
AcDbEntity
  8
0
100
AcDbLine
 62
7
  6
CONTINUOUS
 10
111.8351710913
 20
157.1818879789
 11
111.8351710913
 21
154.2592382481
  0
LINE
  5
2A5
100
AcDbEntity
  8
0
100
AcDbLine
 62
7
  6
CONTINUOUS
 10
112.6892730575
 20
161.4128280866
 11
112.6892730575
 21
160.7592382481
  0
LINE
  5
2A6
100
AcDbEntity
  8
0
100
AcDbLine
 62
7
  6
CONTINUOUS
 10
114.070470904
 20
162.5566731966
 11
114.070470904
 21
165.4019726582
  0
LINE
  5
2A7
100
AcDbEntity
  8
0
100
AcDbLine
 62
7
  6
CONTINUOUS
 10
116.8351710913
 20
160.7592382481
 11
116.8171755847
 21
160.5592382481
  0
LINE
  5
2A8
100
AcDbEntity
  8
0
100
AcDbLine
 62
7
  6
CONTINUOUS
 10
118.6892730575
 20
160.7592382481
 11
118.6377864981
 21
160.5592382481
  0
LINE
  5
2A9
100
AcDbEntity
  8
0
100
AcDbLine
 62
7
  6
CONTINUOUS
 10
76.6739241392
 20
50.8440848924
 11
77.2800542034
 21
52.0080169999
  0
LINE
  5
2AA
100
AcDbEntity
  8
0
100
AcDbLine
 62
7
  6
CONTINUOUS
 10
137.1177001823
 20
158.7308111233
 11
154.3603408694
 21
175.9734518105
  0
LINE
  5
2AB
100
AcDbEntity
  8
0
100
AcDbLine
 62
7
  6
CONTINUOUS
 10
129.9892730575
 20
147.7785023168
 11
129.7771410232
 21
147.5663702824
  0
LINE
  5
2AC
100
AcDbEntity
  8
0
100
AcDbLine
 62
7
  6
CONTINUOUS
 10
122.2592730575
 20
68.1262382481
 11
121.2092730575
 21
68.1262382481
  0
LINE
  5
2AD
100
AcDbEntity
  8
0
100
AcDbLine
 62
7
  6
CONTINUOUS
 10
119.7392730575
 20
68.1262382481
 11
118.6892730575
 21
68.1262382481
  0
LINE
  5
2AE
100
AcDbEntity
  8
0
100
AcDbLine
 62
7
  6
CONTINUOUS
 10
114.4907642755
 20
68.1262382481
 11
113.312321726
 21
68.1262382481
  0
LINE
  5
2AF
100
AcDbEntity
  8
0
100
AcDbLine
 62
7
  6
CONTINUOUS
 10
125.1992730575
 20
71.7592382481
 11
124.5692730575
 21
71.7592382481
  0
LINE
  5
2B0
100
AcDbEntity
  8
0
100
AcDbLine
 62
7
  6
CONTINUOUS
 10
126.2492730575
 20
72.8512382481
 11
125.1992730575
 21
72.8512382481
  0
LINE
  5
2B1
100
AcDbEntity
  8
0
100
AcDbLine
 62
7
  6
CONTINUOUS
 10
122.2592730575
 20
73.4812382481
 11
121.2092730575
 21
73.4812382481
  0
LINE
  5
2B2
100
AcDbEntity
  8
0
100
AcDbLine
 62
7
  6
CONTINUOUS
 10
119.7392730575
 20
73.4812382481
 11
118.6892730575
 21
73.4812382481
  0
LINE
  5
2B3
100
AcDbEntity
  8
0
100
AcDbLine
 62
7
  6
CONTINUOUS
 10
117.2192730575
 20
73.4812382481
 11
116.040830508
 21
73.4812382481
  0
LINE
  5
2B4
100
AcDbEntity
  8
0
100
AcDbLine
 62
7
  6
CONTINUOUS
 10
111.840830508
 20
73.4812382481
 11
110.6623879585
 21
73.4812382481
  0
LINE
  5
2B5
100
AcDbEntity
  8
0
100
AcDbLine
 62
7
  6
CONTINUOUS
 10
156.6759202646
 20
50.8440848145
 11
156.6835711788
 21
50.8367382481
  0
LINE
  5
2B6
100
AcDbEntity
  8
0
100
AcDbLine
 62
7
  6
CONTINUOUS
 10
158.4899155378
 20
50.8440848909
 11
158.4975664903
 21
50.8367382481
  0
LINE
  5
2B7
100
AcDbEntity
  8
0
100
AcDbLine
 62
7
  6
CONTINUOUS
 10
160.3039188264
 20
50.8440849419
 11
160.311569302
 21
50.8367382481
  0
LINE
  5
2B8
100
AcDbEntity
  8
0
100
AcDbLine
 62
7
  6
CONTINUOUS
 10
115.1625615438
 20
160.7592382481
 11
115.1798186157
 21
160.5592382481
  0
LINE
  5
2B9
100
AcDbEntity
  8
0
100
AcDbLine
 62
7
  6
CONTINUOUS
 10
115.0216540342
 20
157.5592382481
 11
115.0216540342
 21
156.1731999041
  0
LINE
  5
2BA
100
AcDbEntity
  8
0
100
AcDbLine
 62
7
  6
CONTINUOUS
 10
116.3026063909
 20
137.4925715814
 11
116.3026063909
 21
136.4259049148
  0
LINE
  5
2BB
100
AcDbEntity
  8
0
100
AcDbLine
 62
7
  6
CONTINUOUS
 10
116.3798719808
 20
162.5566731966
 11
116.3798719808
 21
165.4019726582
  0
LINE
  5
2BC
100
AcDbEntity
  8
0
100
AcDbLine
 62
7
  6
CONTINUOUS
 10
116.5592730575
 20
122.7192382481
 11
116.5592730575
 21
119.1192382481
  0
LINE
  5
2BD
100
AcDbEntity
  8
0
100
AcDbLine
 62
7
  6
CONTINUOUS
 10
116.7692730575
 20
137.4925715814
 11
116.7692730575
 21
136.4259049148
  0
LINE
  5
2BE
100
AcDbEntity
  8
0
100
AcDbLine
 62
7
  6
CONTINUOUS
 10
117.1192730575
 20
122.1592382481
 11
117.1192730575
 21
120.9692382481
  0
LINE
  5
2BF
100
AcDbEntity
  8
0
100
AcDbLine
 62
7
  6
CONTINUOUS
 10
117.1192730575
 20
120.4092382481
 11
117.1192730575
 21
119.1192382481
  0
LINE
  5
2C0
100
AcDbEntity
  8
0
100
AcDbLine
 62
7
  6
CONTINUOUS
 10
117.3292730575
 20
116.4971598831
 11
117.3292730575
 21
113.7592382481
  0
LINE
  5
2C1
100
AcDbEntity
  8
0
100
AcDbLine
 62
7
  6
CONTINUOUS
 10
117.8892730575
 20
117.3592382481
 11
117.8892730575
 21
113.7592382481
  0
LINE
  5
2C2
100
AcDbEntity
  8
0
100
AcDbLine
 62
7
  6
CONTINUOUS
 10
117.9592730575
 20
121.8792382481
 11
117.9592730575
 21
121.2492382481
  0
LINE
  5
2C3
100
AcDbEntity
  8
0
100
AcDbLine
 62
7
  6
CONTINUOUS
 10
118.5192730575
 20
121.8792382481
 11
118.5192730575
 21
121.2492382481
  0
LINE
  5
2C4
100
AcDbEntity
  8
0
100
AcDbLine
 62
7
  6
CONTINUOUS
 10
118.5226063909
 20
138.4925715814
 11
118.5226063909
 21
135.4259049148
  0
LINE
  5
2C5
100
AcDbEntity
  8
0
100
AcDbLine
 62
7
  6
CONTINUOUS
 10
118.6892730575
 20
116.2392382481
 11
118.6892730575
 21
114.8792382481
  0
LINE
  5
2C6
100
AcDbEntity
  8
0
100
AcDbLine
 62
7
  6
CONTINUOUS
 10
118.6892730575
 20
68.1262382481
 11
118.6892730575
 21
73.4812382481
  0
LINE
  5
2C7
100
AcDbEntity
  8
0
100
AcDbLine
 62
7
  6
CONTINUOUS
 10
118.6892730575
 20
74.5312382481
 11
118.6892730575
 21
75.5812382481
  0
LINE
  5
2C8
100
AcDbEntity
  8
0
100
AcDbLine
 62
7
  6
CONTINUOUS
 10
118.8892730575
 20
122.7192382481
 11
118.8892730575
 21
119.1192382481
  0
LINE
  5
2C9
100
AcDbEntity
  8
0
100
AcDbLine
 62
7
  6
CONTINUOUS
 10
118.9892730575
 20
138.4925715814
 11
118.9892730575
 21
137.1592382481
  0
LINE
  5
2CA
100
AcDbEntity
  8
0
100
AcDbLine
 62
7
  6
CONTINUOUS
 10
118.9892730575
 20
136.7061735526
 11
118.9892730575
 21
134.9592382481
  0
LINE
  5
2CB
100
AcDbEntity
  8
0
100
AcDbLine
 62
7
  6
CONTINUOUS
 10
119.2492730575
 20
116.2392382481
 11
119.2492730575
 21
115.8491867003
  0
LINE
  5
2CC
100
AcDbEntity
  8
0
100
AcDbLine
 62
7
  6
CONTINUOUS
 10
119.4492730575
 20
121.1127281124
 11
119.4492730575
 21
119.1192382481
  0
LINE
  5
2CD
100
AcDbEntity
  8
0
100
AcDbLine
 62
7
  6
CONTINUOUS
 10
119.7392730575
 20
68.1262382481
 11
119.7392730575
 21
73.4812382481
  0
LINE
  5
2CE
100
AcDbEntity
  8
0
100
AcDbLine
 62
7
  6
CONTINUOUS
 10
119.7392730575
 20
74.5312382481
 11
119.7392730575
 21
75.5812382481
  0
LINE
  5
2CF
100
AcDbEntity
  8
0
100
AcDbLine
 62
7
  6
CONTINUOUS
 10
120.2892730575
 20
122.7192382481
 11
120.2892730575
 21
120.7257483837
  0
LINE
  5
2D0
100
AcDbEntity
  8
0
100
AcDbLine
 62
7
  6
CONTINUOUS
 10
120.8492730575
 20
122.7192382481
 11
120.8492730575
 21
119.1192382481
  0
LINE
  5
2D1
100
AcDbEntity
  8
0
100
AcDbLine
 62
7
  6
CONTINUOUS
 10
120.9986741343
 20
162.5566731966
 11
120.9986741343
 21
165.4019726582
  0
LINE
  5
2D2
100
AcDbEntity
  8
0
100
AcDbLine
 62
7
  6
CONTINUOUS
 10
121.1892730575
 20
142.5592382481
 11
121.1892730575
 21
149.5592382481
  0
LINE
  5
2D3
100
AcDbEntity
  8
0
100
AcDbLine
 62
7
  6
CONTINUOUS
 10
121.2092730575
 20
68.1262382481
 11
121.2092730575
 21
68.3992382481
  0
LINE
  5
2D4
100
AcDbEntity
  8
0
100
AcDbLine
 62
7
  6
CONTINUOUS
 10
121.2092730575
 20
71.4585392178
 11
121.2092730575
 21
73.4812382481
  0
LINE
  5
2D5
100
AcDbEntity
  8
0
100
AcDbLine
 62
7
  6
CONTINUOUS
 10
122.2592730575
 20
72.4312382481
 11
122.2592730575
 21
73.4812382481
  0
LINE
  5
2D6
100
AcDbEntity
  8
0
100
AcDbLine
 62
7
  6
CONTINUOUS
 10
132.6892730575
 20
156.2966253454
 11
127.6892730575
 21
142.5592382481
  0
LINE
  5
2D7
100
AcDbEntity
  8
0
100
AcDbLine
 62
7
  6
CONTINUOUS
 10
78.4879241392
 20
50.8440848924
 11
79.0940542034
 21
52.0080169999
  0
LINE
  5
2D8
100
AcDbEntity
  8
0
100
AcDbLine
 62
7
  6
CONTINUOUS
 10
80.3019241392
 20
50.8440848924
 11
80.9080542033
 21
52.0080169999
  0
LINE
  5
2D9
100
AcDbEntity
  8
0
100
AcDbLine
 62
7
  6
CONTINUOUS
 10
82.1159241392
 20
50.8440848924
 11
82.7220542034
 21
52.0080169999
  0
LINE
  5
2DA
100
AcDbEntity
  8
0
100
AcDbLine
 62
7
  6
CONTINUOUS
 10
76.1742730575
 20
48.7592382481
 11
75.8855979229
 21
48.2592382481
  0
LINE
  5
2DB
100
AcDbEntity
  8
0
100
AcDbLine
 62
7
  6
CONTINUOUS
 10
117.2492730575
 20
117.3592382481
 11
116.4233229892
 21
116.1796593043
  0
LINE
  5
2DC
100
AcDbEntity
  8
0
100
AcDbLine
 62
7
  6
CONTINUOUS
 10
117.3292730575
 20
116.4971598831
 11
116.882048134
 21
115.8584565
  0
LINE
  5
2DD
100
AcDbEntity
  8
0
100
AcDbLine
 62
7
  6
CONTINUOUS
 10
129.5392730575
 20
140.6613108423
 11
129.3392730575
 21
140.5458407885
  0
LINE
  5
2DE
100
AcDbEntity
  8
0
100
AcDbLine
 62
7
  6
CONTINUOUS
 10
119.7392730575
 20
74.5312382481
 11
118.6892730575
 21
74.5312382481
  0
LINE
  5
2DF
100
AcDbEntity
  8
0
100
AcDbLine
 62
7
  6
CONTINUOUS
 10
119.7392730575
 20
75.5812382481
 11
118.6892730575
 21
75.5812382481
  0
LINE
  5
2E0
100
AcDbEntity
  8
0
100
AcDbLine
 62
7
  6
CONTINUOUS
 10
128.0923879585
 20
77.0512382481
 11
109.1923879585
 21
77.0512382481
  0
LINE
  5
2E1
100
AcDbEntity
  8
0
100
AcDbLine
 62
7
  6
CONTINUOUS
 10
129.1423879585
 20
78.1012382481
 11
108.1423879585
 21
78.1012382481
  0
LINE
  5
2E2
100
AcDbEntity
  8
0
100
AcDbLine
 62
7
  6
CONTINUOUS
 10
102.6317300313
 20
79.8369847141
 11
84.1616654324
 21
79.8369854525
  0
LINE
  5
2E3
100
AcDbEntity
  8
0
100
AcDbLine
 62
7
  6
CONTINUOUS
 10
174.8671151672
 20
80.1409146914
 11
162.3301060824
 21
80.1409146914
  0
LINE
  5
2E4
100
AcDbEntity
  8
0
100
AcDbLine
 62
7
  6
CONTINUOUS
 10
62.5114309479
 20
80.1409146914
 11
75.0484400326
 21
80.1409146914
  0
LINE
  5
2E5
100
AcDbEntity
  8
0
100
AcDbLine
 62
7
  6
CONTINUOUS
 10
152.8232476537
 20
80.3760822179
 11
144.0087569719
 21
80.3760822179
  0
LINE
  5
2E6
100
AcDbEntity
  8
0
100
AcDbLine
 62
7
  6
CONTINUOUS
 10
102.6317296532
 20
80.5550068112
 11
84.1986741339
 21
80.5550074266
  0
LINE
  5
2E7
100
AcDbEntity
  8
0
100
AcDbLine
 62
7
  6
CONTINUOUS
 10
84.1986741352
 20
81.708865259
 11
102.6317041474
 21
81.7088637541
  0
LINE
  5
2E8
100
AcDbEntity
  8
0
100
AcDbLine
 62
7
  6
CONTINUOUS
 10
123.308075211
 20
162.5566731966
 11
123.308075211
 21
165.4019726582
  0
LINE
  5
2E9
100
AcDbEntity
  8
0
100
AcDbLine
 62
7
  6
CONTINUOUS
 10
124.6892730575
 20
161.4128280866
 11
124.6892730575
 21
160.7592382481
  0
LINE
  5
2EA
100
AcDbEntity
  8
0
100
AcDbLine
 62
7
  6
CONTINUOUS
 10
125.1992730575
 20
71.7592382481
 11
125.1992730575
 21
72.8512382481
  0
LINE
  5
2EB
100
AcDbEntity
  8
0
100
AcDbLine
 62
7
  6
CONTINUOUS
 10
126.2492730575
 20
71.4519381744
 11
126.2492730575
 21
72.8512382481
  0
LINE
  5
2EC
100
AcDbEntity
  8
0
100
AcDbLine
 62
7
  6
CONTINUOUS
 10
128.0923879585
 20
66.5512382481
 11
128.0923879585
 21
77.0512382481
  0
LINE
  5
2ED
100
AcDbEntity
  8
0
100
AcDbLine
 62
7
  6
CONTINUOUS
 10
129.1423879585
 20
65.5012382481
 11
129.1423879585
 21
78.1012382481
  0
LINE
  5
2EE
100
AcDbEntity
  8
0
100
AcDbLine
 62
7
  6
CONTINUOUS
 10
129.1892730575
 20
140.2860331673
 11
129.1892730575
 21
100.7592382481
  0
LINE
  5
2EF
100
AcDbEntity
  8
0
100
AcDbLine
 62
7
  6
CONTINUOUS
 10
129.6892730575
 20
147.3542382481
 11
129.6892730575
 21
140.9211184634
  0
LINE
  5
2F0
100
AcDbEntity
  8
0
100
AcDbLine
 62
7
  6
CONTINUOUS
 10
129.9892730575
 20
147.7785023168
 11
129.9892730575
 21
148.8784363128
  0
LINE
  5
2F1
100
AcDbEntity
  8
0
100
AcDbLine
 62
7
  6
CONTINUOUS
 10
106.0206439074
 20
99.290609098
 11
101.6357196669
 21
94.9056848575
  0
LINE
  5
2F2
100
AcDbEntity
  8
0
100
AcDbLine
 62
7
  6
CONTINUOUS
 10
84.1616504989
 20
82.3108643764
 11
102.6317038363
 21
82.310863246
  0
LINE
  5
2F3
100
AcDbEntity
  8
0
100
AcDbLine
 62
7
  6
CONTINUOUS
 10
174.8671151672
 20
82.4495073552
 11
162.3301060824
 21
82.4495073552
  0
LINE
  5
2F4
100
AcDbEntity
  8
0
100
AcDbLine
 62
7
  6
CONTINUOUS
 10
62.5114309479
 20
82.4495073552
 11
75.0484400326
 21
82.4495073552
  0
LINE
  5
2F5
100
AcDbEntity
  8
0
100
AcDbLine
 62
7
  6
CONTINUOUS
 10
152.8232476537
 20
82.6367721931
 11
144.0087569719
 21
82.6367721931
  0
LINE
  5
2F6
100
AcDbEntity
  8
0
100
AcDbLine
 62
7
  6
CONTINUOUS
 10
161.2042730575
 20
48.7592382481
 11
161.4929481921
 21
48.2592382481
  0
LINE
  5
2F7
100
AcDbEntity
  8
0
100
AcDbLine
 62
7
  6
CONTINUOUS
 10
120.5092304203
 20
119.1192382481
 11
119.4492730575
 21
121.1127281124
  0
LINE
  5
2F8
100
AcDbEntity
  8
0
100
AcDbLine
 62
7
  6
CONTINUOUS
 10
120.2892730575
 20
120.7257483837
 11
119.2293156947
 21
122.7192382481
  0
LINE
  5
2F9
100
AcDbEntity
  8
0
100
AcDbLine
 62
7
  6
CONTINUOUS
 10
156.1417171881
 20
51.8699004702
 11
156.6759202646
 21
50.8440848145
  0
LINE
  5
2FA
100
AcDbEntity
  8
0
100
AcDbLine
 62
7
  6
CONTINUOUS
 10
157.955711807
 20
51.8699017381
 11
158.4899155378
 21
50.8440848909
  0
LINE
  5
2FB
100
AcDbEntity
  8
0
100
AcDbLine
 62
7
  6
CONTINUOUS
 10
113.8351710913
 20
160.7592382481
 11
113.8859914992
 21
160.5592382481
  0
LINE
  5
2FC
100
AcDbEntity
  8
0
100
AcDbLine
 62
7
  6
CONTINUOUS
 10
130.2821662763
 20
43.7592382481
 11
130.2821662763
 21
99.7592382481
  0
LINE
  5
2FD
100
AcDbEntity
  8
0
100
AcDbLine
 62
7
  6
CONTINUOUS
 10
130.6357196669
 20
43.6127916387
 11
130.6357196669
 21
99.9056848575
  0
LINE
  5
2FE
100
AcDbEntity
  8
0
100
AcDbLine
 62
7
  6
CONTINUOUS
 10
131.0428264481
 20
43.2056848575
 11
131.0428264481
 21
100.3127916387
  0
LINE
  5
2FF
100
AcDbEntity
  8
0
100
AcDbLine
 62
7
  6
CONTINUOUS
 10
131.113846577
 20
157.5592382481
 11
131.113846577
 21
151.9681766641
  0
LINE
  5
300
100
AcDbEntity
  8
0
100
AcDbLine
 62
7
  6
CONTINUOUS
 10
131.3963798387
 20
43.0592382481
 11
131.3963798387
 21
100.4592382481
  0
LINE
  5
301
100
AcDbEntity
  8
0
100
AcDbLine
 62
7
  6
CONTINUOUS
 10
132.6624781383
 20
160.5423695124
 11
132.6624781383
 21
156.2230069098
  0
LINE
  5
302
100
AcDbEntity
  8
0
100
AcDbLine
 62
7
  6
CONTINUOUS
 10
132.6892730575
 20
160.551329562
 11
132.6892730575
 21
156.2966253454
  0
LINE
  5
303
100
AcDbEntity
  8
0
100
AcDbLine
 62
7
  6
CONTINUOUS
 10
137.2821662763
 20
43.0592382481
 11
137.2821662763
 21
100.4592382481
  0
LINE
  5
304
100
AcDbEntity
  8
0
100
AcDbLine
 62
7
  6
CONTINUOUS
 10
137.6357196669
 20
42.9127916387
 11
137.6357196669
 21
100.6056848575
  0
LINE
  5
305
100
AcDbEntity
  8
0
100
AcDbLine
 62
7
  6
CONTINUOUS
 10
112.8802322134
 20
69.1284738137
 11
113.4694534882
 21
70.2848856777
  0
LINE
  5
306
100
AcDbEntity
  8
0
100
AcDbLine
 62
7
  6
CONTINUOUS
 10
113.312321726
 20
68.1262382481
 11
116.040830508
 21
73.4812382481
  0
LINE
  5
307
100
AcDbEntity
  8
0
100
AcDbLine
 62
7
  6
CONTINUOUS
 10
82.0069528208
 20
91.5182382481
 11
81.8069528208
 21
91.5182382481
  0
LINE
  5
308
100
AcDbEntity
  8
0
100
AcDbLine
 62
7
  6
CONTINUOUS
 10
80.1929528208
 20
91.5182382481
 11
79.9929528208
 21
91.5182382481
  0
LINE
  5
309
100
AcDbEntity
  8
0
100
AcDbLine
 62
7
  6
CONTINUOUS
 10
78.3789528208
 20
91.5182382481
 11
78.1789528208
 21
91.5182382481
  0
LINE
  5
30A
100
AcDbEntity
  8
0
100
AcDbLine
 62
7
  6
CONTINUOUS
 10
76.5649528209
 20
91.5182382481
 11
76.3649528209
 21
91.5182382481
  0
LINE
  5
30B
100
AcDbEntity
  8
0
100
AcDbLine
 62
7
  6
CONTINUOUS
 10
159.7074461662
 20
92.6817382481
 11
159.4045674843
 21
92.6817382481
  0
LINE
  5
30C
100
AcDbEntity
  8
0
100
AcDbLine
 62
7
  6
CONTINUOUS
 10
157.8934419448
 20
92.6817382481
 11
157.5905677504
 21
92.6817382481
  0
LINE
  5
30D
100
AcDbEntity
  8
0
100
AcDbLine
 62
7
  6
CONTINUOUS
 10
156.0794438449
 20
92.6817382481
 11
155.7765775509
 21
92.6817382481
  0
LINE
  5
30E
100
AcDbEntity
  8
0
100
AcDbLine
 62
7
  6
CONTINUOUS
 10
154.2654545046
 20
92.6817382481
 11
153.6892730575
 21
92.6817382481
  0
LINE
  5
30F
100
AcDbEntity
  8
0
100
AcDbLine
 62
7
  6
CONTINUOUS
 10
83.6892730575
 20
92.6817382481
 11
82.6126325842
 21
92.6817382481
  0
LINE
  5
310
100
AcDbEntity
  8
0
100
AcDbLine
 62
7
  6
CONTINUOUS
 10
81.2012730575
 20
92.6817382481
 11
80.7986325841
 21
92.6817382481
  0
LINE
  5
311
100
AcDbEntity
  8
0
100
AcDbLine
 62
7
  6
CONTINUOUS
 10
79.3872730575
 20
92.6817382481
 11
78.9846325842
 21
92.6817382481
  0
LINE
  5
312
100
AcDbEntity
  8
0
100
AcDbLine
 62
7
  6
CONTINUOUS
 10
77.5732730575
 20
92.6817382481
 11
77.1706325842
 21
92.6817382481
  0
LINE
  5
313
100
AcDbEntity
  8
0
100
AcDbLine
 62
7
  6
CONTINUOUS
 10
102.6317008455
 20
93.7345253765
 11
84.1616505876
 21
93.734524056
  0
LINE
  5
314
100
AcDbEntity
  8
0
100
AcDbLine
 62
7
  6
CONTINUOUS
 10
102.6317009032
 20
94.1479622736
 11
84.1986741355
 21
94.1479613573
  0
LINE
  5
315
100
AcDbEntity
  8
0
100
AcDbLine
 62
7
  6
CONTINUOUS
 10
174.8671151672
 20
94.3029878567
 11
162.3301060824
 21
94.3029878567
  0
LINE
  5
316
100
AcDbEntity
  8
0
100
AcDbLine
 62
7
  6
CONTINUOUS
 10
62.5114309479
 20
94.3029878567
 11
75.0484400326
 21
94.3029878567
  0
LINE
  5
317
100
AcDbEntity
  8
0
100
AcDbLine
 62
7
  6
CONTINUOUS
 10
84.1986741338
 20
94.6259049179
 11
102.6317299607
 21
94.6259052195
  0
LINE
  5
318
100
AcDbEntity
  8
0
100
AcDbLine
 62
7
  6
CONTINUOUS
 10
83.6892730575
 20
94.7592382481
 11
102.6317295895
 21
94.7592382481
  0
LINE
  5
319
100
AcDbEntity
  8
0
100
AcDbLine
 62
7
  6
CONTINUOUS
 10
152.8232476537
 20
94.8228298
 11
144.0087569719
 21
94.8228298
  0
LINE
  5
31A
100
AcDbEntity
  8
0
100
AcDbLine
 62
7
  6
CONTINUOUS
 10
177.5042730575
 20
95.2592382481
 11
175.9929481921
 21
95.2592382481
  0
LINE
  5
31B
100
AcDbEntity
  8
0
100
AcDbLine
 62
7
  6
CONTINUOUS
 10
59.8742730575
 20
95.2592382481
 11
61.3855979229
 21
95.2592382481
  0
LINE
  5
31C
100
AcDbEntity
  8
GEOM
100
AcDbLine
 62
7
  6
CONTINUOUS
 10
61.3855979229
 20
95.2592382481
 11
62.5114309479
 21
95.2592382481
  0
LINE
  5
31D
100
AcDbEntity
  8
0
100
AcDbLine
 62
7
  6
CONTINUOUS
 10
62.5114309479
 20
95.2592382481
 11
75.8855979229
 21
95.2592382481
  0
LINE
  5
31E
100
AcDbEntity
  8
0
100
AcDbLine
 62
7
  6
CONTINUOUS
 10
161.4929481921
 20
95.2592382481
 11
174.8671151672
 21
95.2592382481
  0
LINE
  5
31F
100
AcDbEntity
  8
GEOM
100
AcDbLine
 62
7
  6
CONTINUOUS
 10
174.8671151672
 20
95.2592382481
 11
175.9929481921
 21
95.2592382481
  0
LINE
  5
320
100
AcDbEntity
  8
0
100
AcDbLine
 62
7
  6
CONTINUOUS
 10
144.0087569719
 20
95.7592382481
 11
153.6892730575
 21
95.7592382481
  0
LINE
  5
321
100
AcDbEntity
  8
0
100
AcDbLine
 62
7
  6
CONTINUOUS
 10
116.882048134
 20
115.8584565
 11
116.4233229892
 21
116.1796593043
  0
LINE
  5
322
100
AcDbEntity
  8
0
100
AcDbLine
 62
7
  6
CONTINUOUS
 10
120.772323136
 20
134.9592382481
 11
119.6807168044
 21
136.7061735526
  0
LINE
  5
323
100
AcDbEntity
  8
0
100
AcDbLine
 62
7
  6
CONTINUOUS
 10
159.7697141669
 20
51.8699034825
 11
160.3039188264
 21
50.8440849419
  0
LINE
  5
324
100
AcDbEntity
  8
0
100
AcDbLine
 62
7
  6
CONTINUOUS
 10
110.2784967554
 20
154.148461946
 11
110.2816139218
 21
154.1416715961
  0
LINE
  5
325
100
AcDbEntity
  8
0
100
AcDbLine
 62
7
  6
CONTINUOUS
 10
112.9829339598
 20
160.7592382481
 11
113.0623430481
 21
160.5592382481
  0
LINE
  5
326
100
AcDbEntity
  8
0
100
AcDbLine
 62
7
  6
CONTINUOUS
 10
137.7892730575
 20
42.7592382481
 11
137.7892730575
 21
100.7592382481
  0
LINE
  5
327
100
AcDbEntity
  8
0
100
AcDbLine
 62
7
  6
CONTINUOUS
 10
140.6892730575
 20
100.7592382481
 11
140.6892730575
 21
42.7592382481
  0
LINE
  5
328
100
AcDbEntity
  8
0
100
AcDbLine
 62
7
  6
CONTINUOUS
 10
142.72192735
 20
42.7592382481
 11
142.72192735
 21
100.7592382481
  0
LINE
  5
329
100
AcDbEntity
  8
0
100
AcDbLine
 62
7
  6
CONTINUOUS
 10
142.7808611236
 20
42.8856221334
 11
142.7808611236
 21
100.6328543628
  0
LINE
  5
32A
100
AcDbEntity
  8
0
100
AcDbLine
 62
7
  6
CONTINUOUS
 10
144.0087569712
 20
63.1423942783
 11
144.0087569712
 21
60.8817043031
  0
LINE
  5
32B
100
AcDbEntity
  8
0
100
AcDbLine
 62
7
  6
CONTINUOUS
 10
144.0087569712
 20
48.6956466961
 11
144.0087569712
 21
47.7592382481
  0
LINE
  5
32C
100
AcDbEntity
  8
0
100
AcDbLine
 62
7
  6
CONTINUOUS
 10
144.0087569712
 20
80.3760822179
 11
144.0087569712
 21
82.6367721931
  0
LINE
  5
32D
100
AcDbEntity
  8
0
100
AcDbLine
 62
7
  6
CONTINUOUS
 10
144.0087569712
 20
94.8228298
 11
144.0087569712
 21
95.7592382481
  0
LINE
  5
32E
100
AcDbEntity
  8
0
100
AcDbLine
 62
7
  6
CONTINUOUS
 10
114.4907642755
 20
68.1262382481
 11
117.2192730575
 21
73.4812382481
  0
LINE
  5
32F
100
AcDbEntity
  8
0
100
AcDbLine
 62
7
  6
CONTINUOUS
 10
131.0428264481
 20
100.3127916387
 11
130.6357196669
 21
99.9056848575
  0
LINE
  5
330
100
AcDbEntity
  8
0
100
AcDbLine
 62
7
  6
CONTINUOUS
 10
130.2821662763
 20
99.7592382481
 11
130.1892730575
 21
99.7592382481
  0
LINE
  5
331
100
AcDbEntity
  8
0
100
AcDbLine
 62
7
  6
CONTINUOUS
 10
107.1892730575
 20
99.7592382481
 11
107.1520147573
 21
99.7592382481
  0
LINE
  5
332
100
AcDbEntity
  8
0
100
AcDbLine
 62
7
  6
CONTINUOUS
 10
137.2821662763
 20
100.4592382481
 11
131.3963798387
 21
100.4592382481
  0
LINE
  5
333
100
AcDbEntity
  8
0
100
AcDbLine
 62
7
  6
CONTINUOUS
 10
142.72192735
 20
100.7592382481
 11
137.7892730575
 21
100.7592382481
  0
LINE
  5
334
100
AcDbEntity
  8
0
100
AcDbLine
 62
7
  6
CONTINUOUS
 10
154.2731054521
 20
92.6743917313
 11
154.2654544136
 21
92.6817382481
  0
LINE
  5
335
100
AcDbEntity
  8
0
100
AcDbLine
 62
7
  6
CONTINUOUS
 10
157.9010930394
 20
92.6743915914
 11
157.8934418933
 21
92.6817382481
  0
LINE
  5
336
100
AcDbEntity
  8
0
100
AcDbLine
 62
7
  6
CONTINUOUS
 10
159.7150973006
 20
92.6743915539
 11
159.7074715583
 21
92.6817381672
  0
LINE
  5
337
100
AcDbEntity
  8
0
100
AcDbLine
 62
7
  6
CONTINUOUS
 10
121.3226063909
 20
134.9592382481
 11
120.2310000593
 21
136.7061735526
  0
LINE
  5
338
100
AcDbEntity
  8
0
100
AcDbLine
 62
7
  6
CONTINUOUS
 10
154.8073083764
 20
91.6485763512
 11
154.2731054521
 21
92.6743917313
  0
LINE
  5
339
100
AcDbEntity
  8
0
100
AcDbLine
 62
7
  6
CONTINUOUS
 10
112.6892730575
 20
160.7592382481
 11
112.7894977115
 21
160.5592382481
  0
LINE
  5
33A
100
AcDbEntity
  8
0
100
AcDbLine
 62
7
  6
CONTINUOUS
 10
142.72192735
 20
100.7592382481
 11
142.7808611236
 21
100.6328543628
  0
LINE
  5
33B
100
AcDbEntity
  8
0
100
AcDbLine
 62
7
  6
CONTINUOUS
 10
142.7808611236
 20
100.6328543628
 11
144.5431864566
 21
95.7909053044
  0
LINE
  5
33C
100
AcDbEntity
  8
0
100
AcDbLine
 62
7
  6
CONTINUOUS
 10
152.8232476537
 20
47.7592382481
 11
152.8232476537
 21
48.6956466961
  0
LINE
  5
33D
100
AcDbEntity
  8
0
100
AcDbLine
 62
7
  6
CONTINUOUS
 10
152.8232476537
 20
60.8817043031
 11
152.8232476537
 21
63.1423942783
  0
LINE
  5
33E
100
AcDbEntity
  8
0
100
AcDbLine
 62
7
  6
CONTINUOUS
 10
152.8232476537
 20
80.3760822179
 11
152.8232476537
 21
82.6367721931
  0
LINE
  5
33F
100
AcDbEntity
  8
0
100
AcDbLine
 62
7
  6
CONTINUOUS
 10
152.8232476537
 20
94.8228298
 11
152.8232476537
 21
95.7592382481
  0
LINE
  5
340
100
AcDbEntity
  8
0
100
AcDbLine
 62
7
  6
CONTINUOUS
 10
137.7892730575
 20
100.7592382481
 11
137.6357196669
 21
100.6056848575
  0
LINE
  5
341
100
AcDbEntity
  8
0
100
AcDbLine
 62
7
  6
CONTINUOUS
 10
109.6985414939
 20
151.7715335089
 11
109.6892730575
 21
151.7811914857
  0
LINE
  5
342
100
AcDbEntity
  8
0
100
AcDbLine
 62
7
  6
CONTINUOUS
 10
156.6212982381
 20
91.6485754767
 11
156.0870948772
 21
92.6743916504
  0
LINE
  5
343
100
AcDbEntity
  8
0
100
AcDbLine
 62
7
  6
CONTINUOUS
 10
158.4352972224
 20
91.6485739191
 11
157.9010930394
 21
92.6743915914
  0
LINE
  5
344
100
AcDbEntity
  8
0
100
AcDbLine
 62
7
  6
CONTINUOUS
 10
160.2493024648
 20
91.6485720917
 11
159.7150973006
 21
92.6743915539
  0
LINE
  5
345
100
AcDbEntity
  8
0
100
AcDbLine
 62
7
  6
CONTINUOUS
 10
153.6892730575
 20
47.7592382481
 11
153.6892730575
 21
95.7592382481
  0
LINE
  5
346
100
AcDbEntity
  8
0
100
AcDbLine
 62
7
  6
CONTINUOUS
 10
156.1892730575
 20
176.3592382481
 11
156.1892730575
 21
176.5592382481
  0
LINE
  5
347
100
AcDbEntity
  8
0
100
AcDbLine
 62
7
  6
CONTINUOUS
 10
156.1892730575
 20
176.89591329
 11
156.1892730575
 21
179.2225632062
  0
LINE
  5
348
100
AcDbEntity
  8
0
100
AcDbLine
 62
7
  6
CONTINUOUS
 10
156.1892730575
 20
179.5592382481
 11
156.1892730575
 21
179.7592382481
  0
LINE
  5
349
100
AcDbEntity
  8
0
100
AcDbLine
 62
7
  6
CONTINUOUS
 10
157.4892730575
 20
175.0592382481
 11
157.4892730575
 21
181.0592382481
  0
LINE
  5
34A
100
AcDbEntity
  8
0
100
AcDbLine
 62
7
  6
CONTINUOUS
 10
117.8892730575
 20
113.7592382481
 11
117.3292730575
 21
113.7592382481
  0
LINE
  5
34B
100
AcDbEntity
  8
0
100
AcDbLine
 62
7
  6
CONTINUOUS
 10
120.9292730575
 20
116.2392382481
 11
120.3692730575
 21
116.2392382481
  0
LINE
  5
34C
100
AcDbEntity
  8
0
100
AcDbLine
 62
7
  6
CONTINUOUS
 10
117.8892730575
 20
117.3592382481
 11
117.2492730575
 21
117.3592382481
  0
LINE
  5
34D
100
AcDbEntity
  8
0
100
AcDbLine
 62
7
  6
CONTINUOUS
 10
120.8492730575
 20
119.1192382481
 11
120.5092304203
 21
119.1192382481
  0
LINE
  5
34E
100
AcDbEntity
  8
0
100
AcDbLine
 62
7
  6
CONTINUOUS
 10
119.4492730575
 20
119.1192382481
 11
118.8892730575
 21
119.1192382481
  0
LINE
  5
34F
100
AcDbEntity
  8
0
100
AcDbLine
 62
7
  6
CONTINUOUS
 10
117.1192730575
 20
119.1192382481
 11
116.5592730575
 21
119.1192382481
  0
LINE
  5
350
100
AcDbEntity
  8
0
100
AcDbLine
 62
7
  6
CONTINUOUS
 10
117.6792729459
 20
120.4092382481
 11
117.1192730575
 21
120.4092382481
  0
LINE
  5
351
100
AcDbEntity
  8
0
100
AcDbLine
 62
7
  6
CONTINUOUS
 10
107.8392730575
 20
140.6613108423
 11
108.0392730575
 21
140.5458407885
  0
LINE
  5
352
100
AcDbEntity
  8
0
100
AcDbLine
 62
7
  6
CONTINUOUS
 10
103.5892730575
 20
143.3437681943
 11
107.8007643914
 21
140.912262539
  0
LINE
  5
353
100
AcDbEntity
  8
0
100
AcDbLine
 62
7
  6
CONTINUOUS
 10
103.7892730575
 20
143.6901783558
 11
107.7416705803
 21
141.4082605821
  0
LINE
  5
354
100
AcDbEntity
  8
0
100
AcDbLine
 62
7
  6
CONTINUOUS
 10
121.1892730575
 20
149.5592382481
 11
113.7291523684
 21
157.5592382481
  0
LINE
  5
355
100
AcDbEntity
  8
0
100
AcDbLine
 62
7
  6
CONTINUOUS
 10
161.2042730575
 20
48.7592382481
 11
161.2042730575
 21
94.7592382481
  0
LINE
  5
356
100
AcDbEntity
  8
0
100
AcDbLine
 62
7
  6
CONTINUOUS
 10
162.3301060824
 20
48.2592382481
 11
162.3301060824
 21
49.2154886394
  0
LINE
  5
357
100
AcDbEntity
  8
0
100
AcDbLine
 62
7
  6
CONTINUOUS
 10
162.3301060824
 20
61.068969141
 11
162.3301060824
 21
63.3775618048
  0
LINE
  5
358
100
AcDbEntity
  8
0
100
AcDbLine
 62
7
  6
CONTINUOUS
 10
162.3301060824
 20
80.1409146914
 11
162.3301060824
 21
82.4495073552
  0
LINE
  5
359
100
AcDbEntity
  8
0
100
AcDbLine
 62
7
  6
CONTINUOUS
 10
162.3301060824
 20
94.3029878567
 11
162.3301060824
 21
95.2592382481
  0
LINE
  5
35A
100
AcDbEntity
  8
0
100
AcDbLine
 62
7
  6
CONTINUOUS
 10
166.3459759578
 20
181.0592382481
 11
166.3459759578
 21
181.0992382481
  0
LINE
  5
35B
100
AcDbEntity
  8
0
100
AcDbLine
 62
7
  6
CONTINUOUS
 10
168.2300338429
 20
181.0592382481
 11
168.2300338429
 21
181.0992382481
  0
LINE
  5
35C
100
AcDbEntity
  8
0
100
AcDbLine
 62
7
  6
CONTINUOUS
 10
142.7808611236
 20
42.8856221334
 11
144.5431864566
 21
47.7275711917
  0
LINE
  5
35D
100
AcDbEntity
  8
0
100
AcDbLine
 62
7
  6
CONTINUOUS
 10
155.7689265996
 20
92.6743917295
 11
155.2347236768
 21
91.6485763521
  0
LINE
  5
35E
100
AcDbEntity
  8
0
100
AcDbLine
 62
7
  6
CONTINUOUS
 10
157.5829167061
 20
92.6743916403
 11
157.0487133509
 21
91.6485754774
  0
LINE
  5
35F
100
AcDbEntity
  8
0
100
AcDbLine
 62
7
  6
CONTINUOUS
 10
159.3969163734
 20
92.6743915766
 11
158.8627121983
 21
91.6485739196
  0
LWPOLYLINE
  5
360
100
AcDbEntity
  8
0
100
AcDbPolyline
 62
7
  6
CONTINUOUS
 90
18
 70
0
 10
155.2347761204
 20
91.6486767282
 10
155.2328754412
 20
91.6451163217
 10
155.2261136599
 20
91.6337046199
 10
155.2160509081
 20
91.6192797256
 10
155.2019149023
 20
91.6024211717
 10
155.1808776783
 20
91.5822087431
 10
155.1494491273
 20
91.5593179481
 10
155.108427353
 20
91.5387542397
 10
155.0625365978
 20
91.5255759557
 10
155.0124594141
 20
91.5219033574
 10
154.9607523011
 20
91.5298016142
 10
154.9161152577
 20
91.5464098898
 10
154.8808758028
 20
91.5670007631
 10
154.8531009471
 20
91.5893837513
 10
154.8330529548
 20
91.6104375091
 10
154.8203890122
 20
91.6269837781
 10
154.8126754373
 20
91.6389625146
 10
154.8073103488
 20
91.6485725631
  0
LWPOLYLINE
  5
361
100
AcDbEntity
  8
0
100
AcDbPolyline
 62
7
  6
CONTINUOUS
 90
18
 70
0
 10
157.0487657956
 20
91.6486758554
 10
157.0468651591
 20
91.6451155272
 10
157.0401034041
 20
91.6337038588
 10
157.0300406882
 20
91.6192790006
 10
157.0159047254
 20
91.6024204774
 10
156.9948675381
 20
91.5822080573
 10
156.9634390056
 20
91.5593172447
 10
156.9224172303
 20
91.5387535064
 10
156.8765264573
 20
91.5255751937
 10
156.8264492358
 20
91.5219025759
 10
156.7747420748
 20
91.5298008346
 10
156.730105001
 20
91.546409127
 10
156.6948655422
 20
91.5670000136
 10
156.6670906976
 20
91.5893830067
 10
156.6470427232
 20
91.6104367602
 10
156.6343788028
 20
91.6269830127
 10
156.626665252
 20
91.638961721
 10
156.6213002112
 20
91.6485716875
  0
LWPOLYLINE
  5
362
100
AcDbEntity
  8
0
100
AcDbPolyline
 62
7
  6
CONTINUOUS
 90
18
 70
0
 10
158.8627646438
 20
91.6486742991
 10
158.8608640387
 20
91.6451140288
 10
158.8541023034
 20
91.6337023857
 10
158.8440396142
 20
91.619277555
 10
158.8299036834
 20
91.6024190556
 10
158.8088665239
 20
91.5822066429
 10
158.7774380061
 20
91.5593158185
 10
158.7364162313
 20
91.5387520589
 10
158.6905254462
 20
91.5255737249
 10
158.6404481974
 20
91.5219010916
 10
158.588741001
 20
91.52979935
 10
158.5441039043
 20
91.5464076529
 10
158.5088644416
 20
91.5669985479
 10
158.4810896038
 20
91.5893815437
 10
158.4610416415
 20
91.6104352934
 10
158.4483777368
 20
91.6269815334
 10
158.4406642031
 20
91.6389602209
 10
158.4352991958
 20
91.6485701292
  0
LINE
  5
363
100
AcDbEntity
  8
0
100
AcDbLine
 62
7
  6
CONTINUOUS
 10
161.2042730575
 20
94.7592382481
 11
161.4929481921
 21
95.2592382481
  0
LINE
  5
364
100
AcDbEntity
  8
0
100
AcDbLine
 62
7
  6
CONTINUOUS
 10
155.7689265996
 20
92.6743917295
 11
155.7765774597
 21
92.6817382481
  0
LINE
  5
365
100
AcDbEntity
  8
0
100
AcDbLine
 62
7
  6
CONTINUOUS
 10
117.6792730575
 20
120.9692382481
 11
117.1192730575
 21
120.9692382481
  0
LINE
  5
366
100
AcDbEntity
  8
0
100
AcDbLine
 62
7
  6
CONTINUOUS
 10
117.6792730575
 20
122.1592382481
 11
117.1192730575
 21
122.1592382481
  0
LINE
  5
367
100
AcDbEntity
  8
0
100
AcDbLine
 62
7
  6
CONTINUOUS
 10
120.8492730575
 20
122.7192382481
 11
120.2892730575
 21
122.7192382481
  0
LINE
  5
368
100
AcDbEntity
  8
0
100
AcDbLine
 62
7
  6
CONTINUOUS
 10
119.2293156947
 20
122.7192382481
 11
118.8892730575
 21
122.7192382481
  0
LINE
  5
369
100
AcDbEntity
  8
0
100
AcDbLine
 62
7
  6
CONTINUOUS
 10
117.679272941
 20
122.7192382481
 11
116.5592730575
 21
122.7192382481
  0
LINE
  5
36A
100
AcDbEntity
  8
0
100
AcDbLine
 62
7
  6
CONTINUOUS
 10
109.6985414939
 20
151.7715335089
 11
110.2977930372
 21
151.4592382481
  0
LINE
  5
36B
100
AcDbEntity
  8
0
100
AcDbLine
 62
7
  6
CONTINUOUS
 10
124.3956121553
 20
160.7592382481
 11
124.5872512749
 21
160.5592382481
  0
LINE
  5
36C
100
AcDbEntity
  8
0
100
AcDbLine
 62
7
  6
CONTINUOUS
 10
169.3604687434
 20
181.0592382481
 11
169.3604687434
 21
181.0992382481
  0
LINE
  5
36D
100
AcDbEntity
  8
0
100
AcDbLine
 62
7
  6
CONTINUOUS
 10
173.8633676153
 20
181.0592382481
 11
173.8633676153
 21
181.0992382481
  0
LINE
  5
36E
100
AcDbEntity
  8
0
100
AcDbLine
 62
7
  6
CONTINUOUS
 10
174.8671151672
 20
48.2592382481
 11
174.8671151672
 21
49.2154886394
  0
LINE
  5
36F
100
AcDbEntity
  8
0
100
AcDbLine
 62
7
  6
CONTINUOUS
 10
174.8671151672
 20
61.068969141
 11
174.8671151672
 21
63.3775618048
  0
LINE
  5
370
100
AcDbEntity
  8
0
100
AcDbLine
 62
7
  6
CONTINUOUS
 10
174.8671151672
 20
80.1409146914
 11
174.8671151672
 21
82.4495073552
  0
LINE
  5
371
100
AcDbEntity
  8
0
100
AcDbLine
 62
7
  6
CONTINUOUS
 10
174.8671151672
 20
94.3029878567
 11
174.8671151672
 21
95.2592382481
  0
LINE
  5
372
100
AcDbEntity
  8
0
100
AcDbLine
 62
7
  6
CONTINUOUS
 10
175.0126428586
 20
181.0592382481
 11
175.0126428586
 21
181.0992382481
  0
LINE
  5
373
100
AcDbEntity
  8
GEOM
100
AcDbLine
 62
7
  6
CONTINUOUS
 10
175.5599354902
 20
48.2592382481
 11
175.5599354902
 21
52.7119511283
  0
LINE
  5
374
100
AcDbEntity
  8
GEOM
100
AcDbLine
 62
7
  6
CONTINUOUS
 10
175.5599354902
 20
57.5725066521
 11
175.5599354902
 21
68.3223064769
  0
LINE
  5
375
100
AcDbEntity
  8
GEOM
100
AcDbLine
 62
7
  6
CONTINUOUS
 10
175.5599354902
 20
75.1961700193
 11
175.5599354902
 21
85.9459698441
  0
LINE
  5
376
100
AcDbEntity
  8
GEOM
100
AcDbLine
 62
7
  6
CONTINUOUS
 10
175.5599354902
 20
90.8065253679
 11
175.5599354902
 21
95.2592382481
  0
LINE
  5
377
100
AcDbEntity
  8
GEOM
100
AcDbLine
 62
7
  6
CONTINUOUS
 10
175.9929481921
 20
48.2592382481
 11
175.9929481921
 21
95.2592382481
  0
LINE
  5
378
100
AcDbEntity
  8
0
100
AcDbLine
 62
7
  6
CONTINUOUS
 10
142.72192735
 20
42.7592382481
 11
142.7808611236
 21
42.8856221334
  0
LINE
  5
379
100
AcDbEntity
  8
0
100
AcDbLine
 62
7
  6
CONTINUOUS
 10
161.1972833865
 20
92.6482002416
 11
160.6767173547
 21
91.648572092
  0
LWPOLYLINE
  5
37A
100
AcDbEntity
  8
0
100
AcDbPolyline
 62
7
  6
CONTINUOUS
 90
18
 70
0
 10
160.6767698006
 20
91.6486724723
 10
160.674869216
 20
91.6451122396
 10
160.6681074934
 20
91.6337006135
 10
160.6580448218
 20
91.6192758015
 10
160.6439089123
 20
91.6024173186
 10
160.6228717717
 20
91.582204912
 10
160.5914432647
 20
91.5593140811
 10
160.5504214919
 20
91.5387503084
 10
160.5045307004
 20
91.5255719602
 10
160.4544534348
 20
91.5218993153
 10
160.4027462158
 20
91.5297975712
 10
160.3581091036
 20
91.5464058786
 10
160.3228696368
 20
91.5669967774
 10
160.2950948015
 20
91.5893797741
 10
160.2750468455
 20
91.6104335211
 10
160.2623829497
 20
91.6269797531
 10
160.2546694261
 20
91.6389584276
 10
160.2493044385
 20
91.6485683013
  0
LINE
  5
37B
100
AcDbEntity
  8
0
100
AcDbLine
 62
7
  6
CONTINUOUS
 10
157.5829167061
 20
92.6743916403
 11
157.5905669775
 21
92.681738248
  0
LINE
  5
37C
100
AcDbEntity
  8
0
100
AcDbLine
 62
7
  6
CONTINUOUS
 10
159.3969163734
 20
92.6743915766
 11
159.4045674327
 21
92.6817382481
  0
LINE
  5
37D
100
AcDbEntity
  8
0
100
AcDbLine
 62
7
  6
CONTINUOUS
 10
121.3226063909
 20
134.9592382481
 11
120.772323136
 21
134.9592382481
  0
LINE
  5
37E
100
AcDbEntity
  8
0
100
AcDbLine
 62
7
  6
CONTINUOUS
 10
118.9892730575
 20
134.9592382481
 11
117.7692730575
 21
134.9592382481
  0
LINE
  5
37F
100
AcDbEntity
  8
0
100
AcDbLine
 62
7
  6
CONTINUOUS
 10
118.5226063909
 20
135.4259049148
 11
117.7692730575
 21
135.4259049148
  0
LINE
  5
380
100
AcDbEntity
  8
0
100
AcDbLine
 62
7
  6
CONTINUOUS
 10
109.6985414898
 20
153.1085346562
 11
110.4871015553
 21
152.6975724812
  0
LINE
  5
381
100
AcDbEntity
  8
0
100
AcDbLine
 62
7
  6
CONTINUOUS
 10
110.2816139218
 20
154.1416715961
 11
110.4871015055
 21
154.0345722906
  0
LINE
  5
382
100
AcDbEntity
  8
0
100
AcDbLine
 62
7
  6
CONTINUOUS
 10
112.6892730575
 20
160.7592382481
 11
113.0322366218
 21
160.5592382481
  0
LINE
  5
383
100
AcDbEntity
  8
0
100
AcDbLine
 62
7
  6
CONTINUOUS
 10
177.0474254471
 20
181.0592382481
 11
177.0474254471
 21
181.0992382481
  0
LINE
  5
384
100
AcDbEntity
  8
0
100
AcDbLine
 62
7
  6
CONTINUOUS
 10
177.5042730575
 20
95.2592382481
 11
177.5042730575
 21
48.2592382481
  0
LINE
  5
385
100
AcDbEntity
  8
0
100
AcDbLine
 62
7
  6
CONTINUOUS
 10
177.9305773862
 20
181.0592382481
 11
177.9305773862
 21
181.0992382481
  0
LINE
  5
386
100
AcDbEntity
  8
0
100
AcDbLine
 62
7
  6
CONTINUOUS
 10
178.0860121753
 20
181.0592382481
 11
178.0860121753
 21
181.0992382481
  0
LINE
  5
387
100
AcDbEntity
  8
0
100
AcDbLine
 62
7
  6
CONTINUOUS
 10
178.2042730575
 20
94.5592382481
 11
178.2042730575
 21
48.9592382481
  0
LINE
  5
388
100
AcDbEntity
  8
0
100
AcDbLine
 62
7
  6
CONTINUOUS
 10
178.3533129931
 20
181.0592382481
 11
178.3533129931
 21
181.0992382481
  0
LINE
  5
389
100
AcDbEntity
  8
0
100
AcDbLine
 62
7
  6
CONTINUOUS
 10
179.4566642549
 20
181.0592382481
 11
179.4566642549
 21
181.0992382481
  0
LINE
  5
38A
100
AcDbEntity
  8
0
100
AcDbLine
 62
7
  6
CONTINUOUS
 10
180.2620990779
 20
181.0592382481
 11
180.2620990779
 21
181.0992382481
  0
LINE
  5
38B
100
AcDbEntity
  8
0
100
AcDbLine
 62
7
  6
CONTINUOUS
 10
181.1099252533
 20
181.0592382481
 11
181.1099252533
 21
181.0992382481
  0
LINE
  5
38C
100
AcDbEntity
  8
0
100
AcDbLine
 62
7
  6
CONTINUOUS
 10
181.9577511382
 20
181.0592382481
 11
181.9577511382
 21
181.0992382481
  0
LINE
  5
38D
100
AcDbEntity
  8
0
100
AcDbLine
 62
7
  6
CONTINUOUS
 10
182.4784729875
 20
181.0592382481
 11
182.4784729875
 21
181.0992382481
  0
LINE
  5
38E
100
AcDbEntity
  8
0
100
AcDbLine
 62
7
  6
CONTINUOUS
 10
183.6816645842
 20
181.0592382481
 11
183.6816645842
 21
181.0992382481
  0
LINE
  5
38F
100
AcDbEntity
  8
0
100
AcDbLine
 62
7
  6
CONTINUOUS
 10
155.1800989076
 20
50.8440848081
 11
155.7143019879
 21
51.8699004711
  0
LINE
  5
390
100
AcDbEntity
  8
0
100
AcDbLine
 62
7
  6
CONTINUOUS
 10
119.6807168044
 20
136.7061735526
 11
118.9892730575
 21
136.7061735526
  0
LINE
  5
391
100
AcDbEntity
  8
0
100
AcDbLine
 62
7
  6
CONTINUOUS
 10
120.0559397242
 20
137.1592382481
 11
118.9892730575
 21
137.1592382481
  0
LINE
  5
392
100
AcDbEntity
  8
0
100
AcDbLine
 62
7
  6
CONTINUOUS
 10
120.0559397242
 20
138.4925715814
 11
118.9892730575
 21
138.4925715814
  0
LINE
  5
393
100
AcDbEntity
  8
0
100
AcDbLine
 62
7
  6
CONTINUOUS
 10
118.5226063909
 20
138.4925715814
 11
117.7692730575
 21
138.4925715814
  0
LINE
  5
394
100
AcDbEntity
  8
0
100
AcDbLine
 62
7
  6
CONTINUOUS
 10
120.0559397242
 20
138.9592382481
 11
117.7692730575
 21
138.9592382481
  0
LINE
  5
395
100
AcDbEntity
  8
0
100
AcDbLine
 62
7
  6
CONTINUOUS
 10
129.1892730575
 20
140.2860331673
 11
108.1892730575
 21
140.2860331673
  0
LINE
  5
396
100
AcDbEntity
  8
0
100
AcDbLine
 62
7
  6
CONTINUOUS
 10
129.3392730575
 20
140.5458407885
 11
108.0392730575
 21
140.5458407885
  0
LINE
  5
397
100
AcDbEntity
  8
0
100
AcDbLine
 62
7
  6
CONTINUOUS
 10
107.8392730575
 20
140.6613108423
 11
129.5392730575
 21
140.6613108423
  0
LINE
  5
398
100
AcDbEntity
  8
0
100
AcDbLine
 62
7
  6
CONTINUOUS
 10
107.9944741553
 20
140.9211184634
 11
129.6892730575
 21
140.9211184634
  0
LINE
  5
399
100
AcDbEntity
  8
0
100
AcDbLine
 62
7
  6
CONTINUOUS
 10
107.7416705803
 20
141.4082605821
 11
108.0323148938
 21
141.4082605821
  0
LINE
  5
39A
100
AcDbEntity
  8
0
100
AcDbLine
 62
7
  6
CONTINUOUS
 10
103.6892730575
 20
142.5592382481
 11
104.9481187843
 21
142.5592382481
  0
LINE
  5
39B
100
AcDbEntity
  8
0
100
AcDbLine
 62
7
  6
CONTINUOUS
 10
121.1892730575
 20
142.5592382481
 11
127.6892730575
 21
142.5592382481
  0
LINE
  5
39C
100
AcDbEntity
  8
0
100
AcDbLine
 62
7
  6
CONTINUOUS
 10
103.3892730575
 20
143.6901783558
 11
103.7892730575
 21
143.6901783558
  0
LINE
  5
39D
100
AcDbEntity
  8
0
100
AcDbLine
 62
7
  6
CONTINUOUS
 10
123.308075211
 20
162.5566731966
 11
124.3892730575
 21
161.9324433288
  0
LINE
  5
39E
100
AcDbEntity
  8
0
100
AcDbLine
 62
7
  6
CONTINUOUS
 10
123.308075211
 20
165.4019726582
 11
122.6892730575
 21
165.7592382481
  0
LINE
  5
39F
100
AcDbEntity
  8
0
100
AcDbLine
 62
7
  6
CONTINUOUS
 10
184.9675339591
 20
181.0592382481
 11
184.9675339591
 21
181.0992382481
  0
LINE
  5
3A0
100
AcDbEntity
  8
0
100
AcDbLine
 62
7
  6
CONTINUOUS
 10
184.9816645067
 20
181.0592382481
 11
184.9816645067
 21
181.0992382481
  0
LINE
  5
3A1
100
AcDbEntity
  8
0
100
AcDbLine
 62
7
  6
CONTINUOUS
 10
185.7192730575
 20
181.0592382481
 11
185.7192730575
 21
181.0992382481
  0
LINE
  5
3A2
100
AcDbEntity
  8
0
100
AcDbLine
 62
7
  6
CONTINUOUS
 10
186.1827511769
 20
181.0592382481
 11
186.1827511769
 21
181.0992382481
  0
LINE
  5
3A3
100
AcDbEntity
  8
0
100
AcDbLine
 62
7
  6
CONTINUOUS
 10
189.3479682785
 20
181.0592382481
 11
189.3479682785
 21
181.0992382481
  0
LINE
  5
3A4
100
AcDbEntity
  8
0
100
AcDbLine
 62
7
  6
CONTINUOUS
 10
191.7925338429
 20
181.0592382481
 11
191.7925338429
 21
181.0992382481
  0
LINE
  5
3A5
100
AcDbEntity
  8
0
100
AcDbLine
 62
7
  6
CONTINUOUS
 10
156.994093031
 20
50.844084878
 11
157.528296769
 21
51.8699017387
  0
LINE
  5
3A6
100
AcDbEntity
  8
0
100
AcDbLine
 62
7
  6
CONTINUOUS
 10
158.8080945725
 20
50.8440849262
 11
159.3422992403
 21
51.8699034828
  0
LINE
  5
3A7
100
AcDbEntity
  8
0
100
AcDbLine
 62
7
  6
CONTINUOUS
 10
160.622100894
 20
50.844084953
 11
161.1563065376
 21
51.8699052903
  0
LWPOLYLINE
  5
3A8
100
AcDbEntity
  8
0
100
AcDbPolyline
 62
7
  6
CONTINUOUS
 90
18
 70
0
 10
155.7143039607
 20
51.8699042597
 10
155.7196690236
 20
51.8795142642
 10
155.7273825856
 20
51.8914929858
 10
155.7400465162
 20
51.908039246
 10
155.7600944989
 20
51.9290930017
 10
155.7878693485
 20
51.9514759926
 10
155.8231088053
 20
51.9720668732
 10
155.8677458648
 20
51.988675158
 10
155.9194530034
 20
51.9965734161
 10
155.9695302074
 20
51.9929008075
 10
156.0154209722
 20
51.9797225082
 10
156.0564427472
 20
51.9591587837
 10
156.0878712884
 20
51.9362679792
 10
156.108908493
 20
51.9160555549
 10
156.1230444759
 20
51.8991970172
 10
156.1331072086
 20
51.884772142
 10
156.1398689759
 20
51.8733604579
 10
156.1417696324
 20
51.8698000931
  0
LWPOLYLINE
  5
3A9
100
AcDbEntity
  8
0
100
AcDbPolyline
 62
7
  6
CONTINUOUS
 90
18
 70
0
 10
157.5282987422
 20
51.8699055283
 10
157.5336637645
 20
51.8795154627
 10
157.5413773059
 20
51.8914941597
 10
157.5540412176
 20
51.9080404054
 10
157.5740891852
 20
51.9290941569
 10
157.6018640259
 20
51.9514771516
 10
157.6371034866
 20
51.972068043
 10
157.6817405728
 20
51.9886763414
 10
157.7334477531
 20
51.9965746003
 10
157.7835249895
 20
51.9929019742
 10
157.8294157693
 20
51.97972365
 10
157.8704375446
 20
51.9591599
 10
157.9018660692
 20
51.9362690808
 10
157.9229032415
 20
51.9160566645
 10
157.937039187
 20
51.8991981541
 10
157.9471018884
 20
51.8847733107
 10
157.9538636327
 20
51.873361656
 10
157.9557642521
 20
51.8698013593
  0
LWPOLYLINE
  5
3AA
100
AcDbEntity
  8
0
100
AcDbPolyline
 62
7
  6
CONTINUOUS
 90
18
 70
0
 10
159.3423012139
 20
51.8699072731
 10
159.3476662096
 20
51.8795171611
 10
159.3553797374
 20
51.8914958411
 10
159.3680436368
 20
51.9080420765
 10
159.3880915952
 20
51.9290958247
 10
159.4158664312
 20
51.9514788211
 10
159.451105896
 20
51.9720697186
 10
159.4957430013
 20
51.9886780245
 10
159.5474502106
 20
51.9965762818
 10
159.5975274691
 20
51.9929036423
 10
159.6434182582
 20
51.9797253003
 10
159.6844400322
 20
51.9591615332
 10
159.7158685441
 20
51.9362707049
 10
159.736905693
 20
51.9160582955
 10
159.7510416118
 20
51.8991998053
 10
159.761104291
 20
51.884774985
 10
159.7678660192
 20
51.8733633515
 10
159.7697666126
 20
51.8698031025
  0
LWPOLYLINE
  5
3AB
100
AcDbEntity
  8
0
100
AcDbPolyline
 62
7
  6
CONTINUOUS
 90
6
 70
0
 10
161.1563085114
 20
51.8699090808
 10
161.1616734944
 20
51.8795189462
 10
161.1693870155
 20
51.8914976171
 10
161.1820509094
 20
51.9080438469
 10
161.2020988645
 20
51.9290975931
 10
161.2042730575
 20
51.9308497171
  0
LINE
  5
3AC
100
AcDbEntity
  8
0
100
AcDbLine
 62
7
  6
CONTINUOUS
 10
103.3892730575
 20
147.0592382481
 11
108.0323148938
 21
147.0592382481
  0
LINE
  5
3AD
100
AcDbEntity
  8
0
100
AcDbLine
 62
7
  6
CONTINUOUS
 10
129.6892730575
 20
147.3542382481
 11
129.4345103308
 21
147.3542382481
  0
LINE
  5
3AE
100
AcDbEntity
  8
0
100
AcDbLine
 62
7
  6
CONTINUOUS
 10
121.1892730575
 20
147.3542382481
 11
108.0163026824
 21
147.3542382481
  0
LINE
  5
3AF
100
AcDbEntity
  8
0
100
AcDbLine
 62
7
  6
CONTINUOUS
 10
107.6368322136
 20
147.4592382481
 11
107.409913334
 21
147.4592382481
  0
LINE
  5
3B0
100
AcDbEntity
  8
0
100
AcDbLine
 62
7
  6
CONTINUOUS
 10
107.1874876424
 20
147.4592382481
 11
103.7892730575
 21
147.4592382481
  0
LINE
  5
3B1
100
AcDbEntity
  8
0
100
AcDbLine
 62
7
  6
CONTINUOUS
 10
107.3762907569
 20
147.528661815
 11
107.1892730575
 21
147.528661815
  0
LINE
  5
3B2
100
AcDbEntity
  8
0
100
AcDbLine
 62
7
  6
CONTINUOUS
 10
107.9310340942
 20
147.5663702824
 11
121.1892730575
 21
147.5663702824
  0
LINE
  5
3B3
100
AcDbEntity
  8
0
100
AcDbLine
 62
7
  6
CONTINUOUS
 10
129.5117200771
 20
147.5663702824
 11
129.7771410232
 21
147.5663702824
  0
LINE
  5
3B4
100
AcDbEntity
  8
0
100
AcDbLine
 62
7
  6
CONTINUOUS
 10
107.6772852293
 20
147.7785069493
 11
121.1892730575
 21
147.7785023168
  0
LINE
  5
3B5
100
AcDbEntity
  8
0
100
AcDbLine
 62
7
  6
CONTINUOUS
 10
129.5889298233
 20
147.7785023168
 11
129.9892730575
 21
147.7785023168
  0
LINE
  5
3B6
100
AcDbEntity
  8
0
100
AcDbLine
 62
7
  6
CONTINUOUS
 10
103.6892730575
 20
149.5592382481
 11
106.6892730575
 21
149.5592382481
  0
LINE
  5
3B7
100
AcDbEntity
  8
0
100
AcDbLine
 62
7
  6
CONTINUOUS
 10
120.0702549542
 20
150.7592382481
 11
107.3892730575
 21
150.7592382481
  0
LINE
  5
3B8
100
AcDbEntity
  8
0
100
AcDbLine
 62
7
  6
CONTINUOUS
 10
119.4174943939
 20
151.4592382481
 11
108.0892730575
 21
151.4592382481
  0
LINE
  5
3B9
100
AcDbEntity
  8
0
100
AcDbLine
 62
7
  6
CONTINUOUS
 10
112.9829339598
 20
160.7592382481
 11
113.8269285447
 21
160.5592382481
  0
LINE
  5
3BA
100
AcDbEntity
  8
0
100
AcDbLine
 62
7
  6
CONTINUOUS
 10
123.5433750238
 20
160.7592382481
 11
124.250857855
 21
160.5592382481
  0
LINE
  5
3BB
100
AcDbEntity
  8
0
100
AcDbLine
 62
7
  6
CONTINUOUS
 10
191.9479692858
 20
181.0592382481
 11
191.9479692858
 21
181.0992382481
  0
LINE
  5
3BC
100
AcDbEntity
  8
0
100
AcDbLine
 62
7
  6
CONTINUOUS
 10
193.2592730575
 20
181.0592382481
 11
193.2592730575
 21
181.0992382481
  0
LINE
  5
3BD
100
AcDbEntity
  8
0
100
AcDbLine
 62
7
  6
CONTINUOUS
 10
193.5023167413
 20
181.0592382481
 11
193.5023167413
 21
181.0992382481
  0
LINE
  5
3BE
100
AcDbEntity
  8
0
100
AcDbLine
 62
7
  6
CONTINUOUS
 10
194.1800888127
 20
181.0592382481
 11
194.1800888127
 21
181.0992382481
  0
LINE
  5
3BF
100
AcDbEntity
  8
0
100
AcDbLine
 62
7
  6
CONTINUOUS
 10
196.4555773717
 20
181.0592382481
 11
196.4555773717
 21
181.0992382481
  0
LINE
  5
3C0
100
AcDbEntity
  8
0
100
AcDbLine
 62
7
  6
CONTINUOUS
 10
198.6316642743
 20
181.0592382481
 11
198.6316642743
 21
181.0992382481
  0
LINE
  5
3C1
100
AcDbEntity
  8
0
100
AcDbLine
 62
7
  6
CONTINUOUS
 10
198.8492730575
 20
181.0592382481
 11
198.8492730575
 21
181.0992382481
  0
LINE
  5
3C2
100
AcDbEntity
  8
0
100
AcDbLine
 62
7
  6
CONTINUOUS
 10
155.1800989076
 20
50.8440848081
 11
155.1724478282
 21
50.8367382481
  0
LINE
  5
3C3
100
AcDbEntity
  8
0
100
AcDbLine
 62
7
  6
CONTINUOUS
 10
156.994093031
 20
50.844084878
 11
156.9864418365
 21
50.8367382481
  0
LINE
  5
3C4
100
AcDbEntity
  8
0
100
AcDbLine
 62
7
  6
CONTINUOUS
 10
117.459212713
 20
153.5592382481
 11
111.4898478365
 21
153.5592382481
  0
LINE
  5
3C5
100
AcDbEntity
  8
0
100
AcDbLine
 62
7
  6
CONTINUOUS
 10
110.3892730575
 20
154.2592382481
 11
116.8064521527
 21
154.2592382481
  0
LINE
  5
3C6
100
AcDbEntity
  8
0
100
AcDbLine
 62
7
  6
CONTINUOUS
 10
111.6892730575
 20
157.1818879789
 11
111.8351710913
 21
157.1818879789
  0
LINE
  5
3C7
100
AcDbEntity
  8
0
100
AcDbLine
 62
7
  6
CONTINUOUS
 10
104.9817747233
 20
157.5592382481
 11
113.7291523684
 21
157.5592382481
  0
LINE
  5
3C8
100
AcDbEntity
  8
0
100
AcDbLine
 62
7
  6
CONTINUOUS
 10
115.0216540342
 20
157.5592382481
 11
131.113846577
 21
157.5592382481
  0
LINE
  5
3C9
100
AcDbEntity
  8
0
100
AcDbLine
 62
7
  6
CONTINUOUS
 10
132.6892730575
 20
157.5592382481
 11
134.2892730575
 21
157.5592382481
  0
LINE
  5
3CA
100
AcDbEntity
  8
0
100
AcDbLine
 62
7
  6
CONTINUOUS
 10
116.8351710913
 20
160.7592382481
 11
118.5348290625
 21
160.5592382481
  0
LINE
  5
3CB
100
AcDbEntity
  8
0
100
AcDbLine
 62
7
  6
CONTINUOUS
 10
118.6892730575
 20
160.7592382481
 11
120.3649635913
 21
160.5592382481
  0
LINE
  5
3CC
100
AcDbEntity
  8
0
100
AcDbLine
 62
7
  6
CONTINUOUS
 10
115.1625615438
 20
160.7592382481
 11
116.7198125881
 21
160.5592382481
  0
LINE
  5
3CD
100
AcDbEntity
  8
0
100
AcDbLine
 62
7
  6
CONTINUOUS
 10
120.5433750238
 20
160.7592382481
 11
122.0310698554
 21
160.5592382481
  0
LINE
  5
3CE
100
AcDbEntity
  8
0
100
AcDbLine
 62
7
  6
CONTINUOUS
 10
113.8351710913
 20
160.7592382481
 11
115.0975806264
 21
160.5592382481
  0
LINE
  5
3CF
100
AcDbEntity
  8
0
100
AcDbLine
 62
7
  6
CONTINUOUS
 10
122.2159845713
 20
160.7592382481
 11
123.3700577652
 21
160.5592382481
  0
LINE
  5
3D0
100
AcDbEntity
  8
0
100
AcDbLine
 62
7
  6
CONTINUOUS
 10
200.3131872397
 20
181.0592382481
 11
200.3131872397
 21
181.0992382481
  0
LINE
  5
3D1
100
AcDbEntity
  8
0
100
AcDbLine
 62
7
  6
CONTINUOUS
 10
200.4686203581
 20
181.0592382481
 11
200.4686203581
 21
181.0992382481
  0
LINE
  5
3D2
100
AcDbEntity
  8
0
100
AcDbLine
 62
7
  6
CONTINUOUS
 10
201.7827502471
 20
181.0592382481
 11
201.7827502471
 21
181.0992382481
  0
LINE
  5
3D3
100
AcDbEntity
  8
0
100
AcDbLine
 62
7
  6
CONTINUOUS
 10
203.6620997172
 20
181.0592382481
 11
203.6620997172
 21
181.0992382481
  0
LINE
  5
3D4
100
AcDbEntity
  8
0
100
AcDbLine
 62
7
  6
CONTINUOUS
 10
204.4396420579
 20
181.0592382481
 11
204.4396420579
 21
181.0992382481
  0
LINE
  5
3D5
100
AcDbEntity
  8
0
100
AcDbLine
 62
7
  6
CONTINUOUS
 10
204.6794898492
 20
181.0592382481
 11
204.6794898492
 21
181.0992382481
  0
LINE
  5
3D6
100
AcDbEntity
  8
0
100
AcDbLine
 62
7
  6
CONTINUOUS
 10
205.9512286764
 20
181.0592382481
 11
205.9512286764
 21
181.0992382481
  0
LINE
  5
3D7
100
AcDbEntity
  8
0
100
AcDbLine
 62
7
  6
CONTINUOUS
 10
158.8080945725
 20
50.8440849262
 11
158.8004427964
 21
50.8367382481
  0
LINE
  5
3D8
100
AcDbEntity
  8
0
100
AcDbLine
 62
7
  6
CONTINUOUS
 10
160.622100894
 20
50.844084953
 11
160.6144381232
 21
50.836738265
  0
LINE
  5
3D9
100
AcDbEntity
  8
0
100
AcDbLine
 62
7
  6
CONTINUOUS
 10
134.2892730575
 20
160.5592382481
 11
132.6892730575
 21
160.5592382481
  0
LINE
  5
3DA
100
AcDbEntity
  8
0
100
AcDbLine
 62
7
  6
CONTINUOUS
 10
106.6892730575
 20
160.5592382481
 11
132.6624781383
 21
160.5592382481
  0
LINE
  5
3DB
100
AcDbEntity
  8
0
100
AcDbLine
 62
7
  6
CONTINUOUS
 10
124.6892730575
 20
160.7592382481
 11
112.6892730667
 21
160.7592382481
  0
LINE
  5
3DC
100
AcDbEntity
  8
0
100
AcDbLine
 62
7
  6
CONTINUOUS
 10
112.6892730575
 20
161.4128280866
 11
124.6892730575
 21
161.4128280866
  0
LINE
  5
3DD
100
AcDbEntity
  8
0
100
AcDbLine
 62
7
  6
CONTINUOUS
 10
112.9892730575
 20
161.9324433288
 11
124.3892730575
 21
161.9324433288
  0
LINE
  5
3DE
100
AcDbEntity
  8
0
100
AcDbLine
 62
7
  6
CONTINUOUS
 10
114.6893201334
 20
165.7592382481
 11
122.6892259817
 21
165.7592382481
  0
LINE
  5
3DF
100
AcDbEntity
  8
0
100
AcDbLine
 62
7
  6
CONTINUOUS
 10
216.8004746862
 20
181.0592382481
 11
216.8004746862
 21
181.0992382481
  0
LINE
  5
3E0
100
AcDbEntity
  8
0
100
AcDbLine
 62
7
  6
CONTINUOUS
 10
217.013704614
 20
181.0592382481
 11
217.013704614
 21
181.0992382481
  0
LINE
  5
3E1
100
AcDbEntity
  8
0
100
AcDbLine
 62
7
  6
CONTINUOUS
 10
217.5777740541
 20
181.0592382481
 11
217.5777740541
 21
181.0992382481
  0
LINE
  5
3E2
100
AcDbEntity
  8
0
100
AcDbLine
 62
7
  6
CONTINUOUS
 10
218.1382302861
 20
181.0592382481
 11
218.1382302861
 21
181.0992382481
  0
LINE
  5
3E3
100
AcDbEntity
  8
0
100
AcDbLine
 62
7
  6
CONTINUOUS
 10
218.3472892633
 20
181.0592382481
 11
218.3472892633
 21
181.0992382481
  0
LINE
  5
3E4
100
AcDbEntity
  8
0
100
AcDbLine
 62
7
  6
CONTINUOUS
 10
218.6130612758
 20
181.0592382481
 11
218.6130612758
 21
181.0992382481
  0
LINE
  5
3E5
100
AcDbEntity
  8
0
100
AcDbLine
 62
7
  6
CONTINUOUS
 10
218.6264054781
 20
181.0592382481
 11
218.6264054781
 21
181.0992382481
  0
LINE
  5
3E6
100
AcDbEntity
  8
0
100
AcDbLine
 62
7
  6
CONTINUOUS
 10
218.9600103398
 20
181.0592382481
 11
218.9600103398
 21
181.0992382481
  0
LINE
  5
3E7
100
AcDbEntity
  8
0
100
AcDbLine
 62
7
  6
CONTINUOUS
 10
219.675036902
 20
181.0592382481
 11
219.675036902
 21
181.0992382481
  0
LINE
  5
3E8
100
AcDbEntity
  8
0
100
AcDbLine
 62
7
  6
CONTINUOUS
 10
219.7773423877
 20
181.0592382481
 11
219.7773423877
 21
181.0992382481
  0
LINE
  5
3E9
100
AcDbEntity
  8
0
100
AcDbLine
 62
7
  6
CONTINUOUS
 10
219.9319126495
 20
181.0592382481
 11
219.9319126495
 21
181.0992382481
  0
LINE
  5
3EA
100
AcDbEntity
  8
0
100
AcDbLine
 62
7
  6
CONTINUOUS
 10
220.0119776679
 20
181.0592382481
 11
220.0119776679
 21
181.0992382481
  0
LINE
  5
3EB
100
AcDbEntity
  8
0
100
AcDbLine
 62
7
  6
CONTINUOUS
 10
220.3455825296
 20
181.0592382481
 11
220.3455825296
 21
181.0992382481
  0
LINE
  5
3EC
100
AcDbEntity
  8
0
100
AcDbLine
 62
7
  6
CONTINUOUS
 10
221.0606090918
 20
181.0592382481
 11
221.0606090918
 21
181.0992382481
  0
LINE
  5
3ED
100
AcDbEntity
  8
0
100
AcDbLine
 62
7
  6
CONTINUOUS
 10
221.1629145776
 20
181.0592382481
 11
221.1629145776
 21
181.0992382481
  0
LINE
  5
3EE
100
AcDbEntity
  8
0
100
AcDbLine
 62
7
  6
CONTINUOUS
 10
222.6481697811
 20
181.0592382481
 11
222.6481697811
 21
181.0992382481
  0
LINE
  5
3EF
100
AcDbEntity
  8
0
100
AcDbLine
 62
7
  6
CONTINUOUS
 10
157.4892730575
 20
175.0592382481
 11
242.6892730575
 21
175.0592382481
  0
LINE
  5
3F0
100
AcDbEntity
  8
0
100
AcDbLine
 62
7
  6
CONTINUOUS
 10
155.7745544318
 20
176.5592382481
 11
156.2070435345
 21
176.5592382481
  0
LINE
  5
3F1
100
AcDbEntity
  8
0
100
AcDbLine
 62
7
  6
CONTINUOUS
 10
156.1892730575
 20
177.5592382481
 11
245.1892730575
 21
177.5592382481
  0
LINE
  5
3F2
100
AcDbEntity
  8
0
100
AcDbLine
 62
7
  6
CONTINUOUS
 10
156.1892730575
 20
178.5592382481
 11
245.1892730575
 21
178.5592382481
  0
LINE
  5
3F3
100
AcDbEntity
  8
0
100
AcDbLine
 62
7
  6
CONTINUOUS
 10
156.2070435345
 20
179.5592382481
 11
155.3603408694
 21
179.5592382481
  0
LINE
  5
3F4
100
AcDbEntity
  8
0
100
AcDbLine
 62
7
  6
CONTINUOUS
 10
157.4892730575
 20
181.0592382481
 11
242.6892730575
 21
181.0592382481
  0
LINE
  5
3F5
100
AcDbEntity
  8
0
100
AcDbLine
 62
7
  6
CONTINUOUS
 10
166.3459759578
 20
181.0992382481
 11
177.8287868693
 21
181.0992382481
  0
LINE
  5
3F6
100
AcDbEntity
  8
0
100
AcDbLine
 62
7
  6
CONTINUOUS
 10
177.9305773862
 20
181.0992382481
 11
180.2620990779
 21
181.0992382481
  0
LINE
  5
3F7
100
AcDbEntity
  8
0
100
AcDbLine
 62
7
  6
CONTINUOUS
 10
180.3497592457
 20
181.0992382481
 11
184.9675339591
 21
181.0992382481
  0
LINE
  5
3F8
100
AcDbEntity
  8
0
100
AcDbLine
 62
7
  6
CONTINUOUS
 10
185.0789490006
 20
181.0992382481
 11
185.7192730575
 21
181.0992382481
  0
LINE
  5
3F9
100
AcDbEntity
  8
0
100
AcDbLine
 62
7
  6
CONTINUOUS
 10
186.1827511769
 20
181.0992382481
 11
191.9479692858
 21
181.0992382481
  0
LINE
  5
3FA
100
AcDbEntity
  8
0
100
AcDbLine
 62
7
  6
CONTINUOUS
 10
191.9495971145
 20
181.0992382481
 11
193.2592730575
 21
181.0992382481
  0
LINE
  5
3FB
100
AcDbEntity
  8
0
100
AcDbLine
 62
7
  6
CONTINUOUS
 10
193.5023167413
 20
181.0992382481
 11
198.6316642743
 21
181.0992382481
  0
LINE
  5
3FC
100
AcDbEntity
  8
0
100
AcDbLine
 62
7
  6
CONTINUOUS
 10
198.8492730575
 20
181.0992382481
 11
200.3117730575
 21
181.0992382481
  0
LINE
  5
3FD
100
AcDbEntity
  8
0
100
AcDbLine
 62
7
  6
CONTINUOUS
 10
200.3131872397
 20
181.0992382481
 11
205.9512286764
 21
181.0992382481
  0
LINE
  5
3FE
100
AcDbEntity
  8
0
100
AcDbLine
 62
7
  6
CONTINUOUS
 10
216.8004746862
 20
181.0992382481
 11
218.3472892633
 21
181.0992382481
  0
LINE
  5
3FF
100
AcDbEntity
  8
0
100
AcDbLine
 62
7
  6
CONTINUOUS
 10
218.6264054781
 20
181.0992382481
 11
219.9319126495
 21
181.0992382481
  0
LINE
  5
400
100
AcDbEntity
  8
0
100
AcDbLine
 62
7
  6
CONTINUOUS
 10
220.0119776679
 20
181.0992382481
 11
221.1629145776
 21
181.0992382481
  0
LINE
  5
401
100
AcDbEntity
  8
0
100
AcDbLine
 62
7
  6
CONTINUOUS
 10
222.6481697811
 20
181.0992382481
 11
226.9592730575
 21
181.0992382481
  0
LINE
  5
402
100
AcDbEntity
  8
0
100
AcDbLine
 62
7
  6
CONTINUOUS
 10
224.4811697811
 20
181.0592382481
 11
224.4811697811
 21
181.0992382481
  0
LINE
  5
403
100
AcDbEntity
  8
0
100
AcDbLine
 62
7
  6
CONTINUOUS
 10
226.9592730575
 20
181.0592382481
 11
226.9592730575
 21
181.0992382481
  0
LINE
  5
404
100
AcDbEntity
  8
0
100
AcDbLine
 62
7
  6
CONTINUOUS
 10
234.1892730575
 20
175.0592382481
 11
234.1892730575
 21
181.0592382481
  0
LINE
  5
405
100
AcDbEntity
  8
0
100
AcDbLine
 62
7
  6
CONTINUOUS
 10
245.1892730575
 20
177.5592382481
 11
245.1892730575
 21
178.5592382481
  0
ARC
  5
406
100
AcDbEntity
  8
0
100
AcDbCircle
 62
7
  6
CONTINUOUS
 10
85.5146368056
 20
59.1504176765
 40
4.7270511502
100
AcDbArc
 50
106.6258560902
 51
112.7149558663
  0
ARC
  5
407
100
AcDbEntity
  8
0
100
AcDbCircle
 62
7
  6
CONTINUOUS
 10
84.3787575472
 20
64.7530247422
 40
1.7969114711
100
AcDbArc
 50
247.4353024936
 51
264.2482587047
  0
ARC
  5
408
100
AcDbEntity
  8
0
100
AcDbCircle
 62
7
  6
CONTINUOUS
 10
59.8742730575
 20
48.9592382481
 40
0.7
100
AcDbArc
 50
180.0
 51
270.0
  0
ARC
  5
409
100
AcDbEntity
  8
0
100
AcDbCircle
 62
7
  6
CONTINUOUS
 10
85.5054951713
 20
84.3424462617
 40
4.6998951255
100
AcDbArc
 50
247.267274209
 51
253.3915942087
  0
ARC
  5
40A
100
AcDbEntity
  8
0
100
AcDbCircle
 62
7
  6
CONTINUOUS
 10
84.1612466283
 20
93.8495079464
 40
0.9096754973
100
AcDbArc
 50
89.9443152193
 51
115.9704551192
  0
ARC
  5
40B
100
AcDbEntity
  8
0
100
AcDbCircle
 62
7
  6
CONTINUOUS
 10
84.1613969335
 20
93.8515050394
 40
0.907946452
100
AcDbArc
 50
116.0341701378
 51
121.3295789745
  0
ARC
  5
40C
100
AcDbEntity
  8
0
100
AcDbCircle
 62
7
  6
CONTINUOUS
 10
59.8742730575
 20
94.5592382481
 40
0.7
100
AcDbArc
 50
90.0
 51
180.0
  0
ARC
  5
40D
100
AcDbEntity
  8
0
100
AcDbCircle
 62
7
  6
CONTINUOUS
 10
128.6385688181
 20
70.954055934
 40
45.3552794238
100
AcDbArc
 50
168.7054912018
 51
172.3281081319
  0
ARC
  5
40E
100
AcDbEntity
  8
0
100
AcDbCircle
 62
7
  6
CONTINUOUS
 10
135.3517895362
 20
68.6565567239
 40
33.0613540724
100
AcDbArc
 50
188.6988660765
 51
189.8942021455
  0
ARC
  5
40F
100
AcDbEntity
  8
0
100
AcDbCircle
 62
7
  6
CONTINUOUS
 10
125.6402730575
 20
68.1262382481
 40
3.381
100
AcDbArc
 50
79.6230044397
 51
180.0
  0
ARC
  5
410
100
AcDbEntity
  8
0
100
AcDbCircle
 62
7
  6
CONTINUOUS
 10
124.5692730575
 20
68.3992382481
 40
3.36
100
AcDbArc
 50
90.0
 51
180.0
  0
ARC
  5
411
100
AcDbEntity
  8
0
100
AcDbCircle
 62
7
  6
CONTINUOUS
 10
102.6330506768
 20
46.5140866899
 40
2.3784849668
100
AcDbArc
 50
86.4055685207
 51
90.031800106
  0
ARC
  5
412
100
AcDbEntity
  8
0
100
AcDbCircle
 62
7
  6
CONTINUOUS
 10
123.1516427595
 20
70.4148798189
 40
2.205
100
AcDbArc
 50
113.8725051961
 51
151.75030876
  0
ARC
  5
413
100
AcDbEntity
  8
0
100
AcDbCircle
 62
7
  6
CONTINUOUS
 10
102.6333763118
 20
51.4614822741
 40
2.0909686491
100
AcDbArc
 50
269.9541109098
 51
274.0805240644
  0
ARC
  5
414
100
AcDbEntity
  8
0
100
AcDbCircle
 62
7
  6
CONTINUOUS
 10
107.1520147573
 20
45.3592382481
 40
1.6
100
AcDbArc
 50
225.0
 51
270.0
  0
ARC
  5
415
100
AcDbEntity
  8
0
100
AcDbCircle
 62
7
  6
CONTINUOUS
 10
102.6324226751
 20
60.8628927337
 40
0.946720387
100
AcDbArc
 50
80.8992562458
 51
90.0435274335
  0
ARC
  5
416
100
AcDbEntity
  8
0
100
AcDbCircle
 62
7
  6
CONTINUOUS
 10
102.1605661923
 20
49.1703756328
 40
0.6827712621
100
AcDbArc
 50
333.1136583954
 51
335.5617277096
  0
ARC
  5
417
100
AcDbEntity
  8
0
100
AcDbCircle
 62
7
  6
CONTINUOUS
 10
137.2821662763
 20
42.5592382481
 40
0.5
100
AcDbArc
 50
45.0
 51
90.0
  0
ARC
  5
418
100
AcDbEntity
  8
0
100
AcDbCircle
 62
7
  6
CONTINUOUS
 10
131.3963798387
 20
43.5592382481
 40
0.5
100
AcDbArc
 50
225.0
 51
270.0
  0
ARC
  5
419
100
AcDbEntity
  8
0
100
AcDbCircle
 62
7
  6
CONTINUOUS
 10
130.2821662763
 20
43.2592382481
 40
0.5
100
AcDbArc
 50
45.0
 51
90.0
  0
ARC
  5
41A
100
AcDbEntity
  8
0
100
AcDbCircle
 62
7
  6
CONTINUOUS
 10
128.6372831642
 20
72.5642193174
 40
45.35397908
100
AcDbArc
 50
187.671863004
 51
191.29457763
  0
ARC
  5
41B
100
AcDbEntity
  8
0
100
AcDbCircle
 62
7
  6
CONTINUOUS
 10
135.433517758
 20
74.8485234926
 40
33.1441685241
100
AcDbArc
 50
170.1072616798
 51
171.2996100064
  0
ARC
  5
41C
100
AcDbEntity
  8
0
100
AcDbCircle
 62
7
  6
CONTINUOUS
 10
102.633275379
 20
96.9971378679
 40
2.371233152
100
AcDbArc
 50
269.9626582584
 51
273.5999984456
  0
ARC
  5
41D
100
AcDbEntity
  8
0
100
AcDbCircle
 62
7
  6
CONTINUOUS
 10
102.6330788076
 20
92.0485393726
 40
2.0994233532
100
AcDbArc
 50
85.9277967555
 51
90.0376046635
  0
ARC
  5
41E
100
AcDbEntity
  8
0
100
AcDbCircle
 62
7
  6
CONTINUOUS
 10
107.1520147573
 20
98.1592382481
 40
1.6
100
AcDbArc
 50
90.0
 51
135.0
  0
ARC
  5
41F
100
AcDbEntity
  8
0
100
AcDbCircle
 62
7
  6
CONTINUOUS
 10
107.1892730495
 20
100.7592382513
 40
1.0000000014
100
AcDbArc
 50
269.9999976221
 51
0.000000118
  0
ARC
  5
420
100
AcDbEntity
  8
0
100
AcDbCircle
 62
7
  6
CONTINUOUS
 10
130.1892730663
 20
100.7592382515
 40
1.0000000015
100
AcDbArc
 50
179.9999998717
 51
270.0000026437
  0
ARC
  5
421
100
AcDbEntity
  8
0
100
AcDbCircle
 62
7
  6
CONTINUOUS
 10
102.6328100695
 20
79.6326773519
 40
0.9223300921
100
AcDbArc
 50
80.6808544662
 51
90.0671162209
  0
ARC
  5
422
100
AcDbEntity
  8
0
100
AcDbCircle
 62
7
  6
CONTINUOUS
 10
102.6317247023
 20
95.5410694431
 40
0.7819490151
100
AcDbArc
 50
272.8602405609
 51
280.2237074966
  0
ARC
  5
423
100
AcDbEntity
  8
0
100
AcDbCircle
 62
7
  6
CONTINUOUS
 10
102.1602838081
 20
94.3478356913
 40
0.6831415142
100
AcDbArc
 50
24.4493588913
 51
26.8960818633
  0
ARC
  5
424
100
AcDbEntity
  8
0
100
AcDbCircle
 62
7
  6
CONTINUOUS
 10
137.2821662763
 20
100.9592382481
 40
0.5
100
AcDbArc
 50
270.0
 51
315.0
  0
ARC
  5
425
100
AcDbEntity
  8
0
100
AcDbCircle
 62
7
  6
CONTINUOUS
 10
131.3963798387
 20
99.9592382481
 40
0.5
100
AcDbArc
 50
90.0
 51
135.0
  0
ARC
  5
426
100
AcDbEntity
  8
0
100
AcDbCircle
 62
7
  6
CONTINUOUS
 10
130.2821662763
 20
100.2592382481
 40
0.5
100
AcDbArc
 50
270.0
 51
315.0
  0
ARC
  5
427
100
AcDbEntity
  8
0
100
AcDbCircle
 62
7
  6
CONTINUOUS
 10
101.2821924246
 20
95.2592382481
 40
0.4999995447
100
AcDbArc
 50
270.011321922
 51
314.9977824913
  0
ARC
  5
428
100
AcDbEntity
  8
0
100
AcDbCircle
 62
7
  6
CONTINUOUS
 10
63.4231018976
 20
166.6865759226
 40
55.5831179998
100
AcDbArc
 50
353.6709999501
 51
353.8783855052
  0
ARC
  5
429
100
AcDbEntity
  8
0
100
AcDbCircle
 62
7
  6
CONTINUOUS
 10
104.2719918396
 20
140.3106456724
 40
7.7312141378
100
AcDbArc
 50
63.4700135582
 51
64.8702818421
  0
ARC
  5
42A
100
AcDbEntity
  8
0
100
AcDbCircle
 62
7
  6
CONTINUOUS
 10
105.4171554667
 20
133.5096001804
 40
7.6937043183
100
AcDbArc
 50
71.0606218973
 51
71.3892688561
  0
ARC
  5
42B
100
AcDbEntity
  8
0
100
AcDbCircle
 62
7
  6
CONTINUOUS
 10
117.7692730575
 20
137.4925715814
 40
1.4666666667
100
AcDbArc
 50
90.0
 51
180.0
  0
ARC
  5
42C
100
AcDbEntity
  8
0
100
AcDbCircle
 62
7
  6
CONTINUOUS
 10
117.7692730575
 20
136.4259049148
 40
1.4666666667
100
AcDbArc
 50
180.0
 51
270.0
  0
ARC
  5
42D
100
AcDbEntity
  8
0
100
AcDbCircle
 62
7
  6
CONTINUOUS
 10
120.0559397242
 20
137.8259049148
 40
1.1333333333
100
AcDbArc
 50
278.8857694273
 51
90.0
  0
ARC
  5
42E
100
AcDbEntity
  8
0
100
AcDbCircle
 62
7
  6
CONTINUOUS
 10
119.8092730575
 20
116.2392382481
 40
1.12
100
AcDbArc
 50
0.0
 51
180.0
  0
ARC
  5
42F
100
AcDbEntity
  8
0
100
AcDbCircle
 62
7
  6
CONTINUOUS
 10
119.8092730575
 20
114.8792382481
 40
1.12
100
AcDbArc
 50
180.0
 51
120.0
  0
ARC
  5
430
100
AcDbEntity
  8
0
100
AcDbCircle
 62
7
  6
CONTINUOUS
 10
117.7692730575
 20
136.4259049148
 40
1.0
100
AcDbArc
 50
180.0
 51
270.0
  0
ARC
  5
431
100
AcDbEntity
  8
0
100
AcDbCircle
 62
7
  6
CONTINUOUS
 10
117.7692730575
 20
137.4925715814
 40
1.0
100
AcDbArc
 50
90.0
 51
180.0
  0
ARC
  5
432
100
AcDbEntity
  8
0
100
AcDbCircle
 62
7
  6
CONTINUOUS
 10
117.6792730575
 20
121.8792382481
 40
0.84
100
AcDbArc
 50
0.0
 51
90.0000079505
  0
ARC
  5
433
100
AcDbEntity
  8
0
100
AcDbCircle
 62
7
  6
CONTINUOUS
 10
117.6792730575
 20
121.2492382481
 40
0.84
100
AcDbArc
 50
269.9999923866
 51
360.0
  0
ARC
  5
434
100
AcDbEntity
  8
0
100
AcDbCircle
 62
7
  6
CONTINUOUS
 10
120.0559397242
 20
137.8259049148
 40
0.6666666667
100
AcDbArc
 50
270.0
 51
90.0
  0
CIRCLE
  5
435
100
AcDbEntity
  8
0
100
AcDbCircle
 62
7
  6
CONTINUOUS
 10
119.8092730575
 20
114.8792382481
 40
0.56
  0
ARC
  5
436
100
AcDbEntity
  8
0
100
AcDbCircle
 62
7
  6
CONTINUOUS
 10
119.8092730575
 20
116.2392382481
 40
0.56
100
AcDbArc
 50
0.0
 51
180.0
  0
ARC
  5
437
100
AcDbEntity
  8
0
100
AcDbCircle
 62
7
  6
CONTINUOUS
 10
129.4892730575
 20
140.2860331673
 40
0.3
100
AcDbArc
 50
120.0
 51
180.0
  0
ARC
  5
438
100
AcDbEntity
  8
0
100
AcDbCircle
 62
7
  6
CONTINUOUS
 10
107.8892730575
 20
140.2860331673
 40
0.3
100
AcDbArc
 50
0.0
 51
60.0
  0
ARC
  5
439
100
AcDbEntity
  8
0
100
AcDbCircle
 62
7
  6
CONTINUOUS
 10
117.6792730575
 20
121.2492382481
 40
0.28
100
AcDbArc
 50
270.0
 51
360.0
  0
ARC
  5
43A
100
AcDbEntity
  8
0
100
AcDbCircle
 62
7
  6
CONTINUOUS
 10
117.6792730575
 20
121.8792382481
 40
0.28
100
AcDbArc
 50
0.0
 51
90.0
  0
ARC
  5
43B
100
AcDbEntity
  8
0
100
AcDbCircle
 62
7
  6
CONTINUOUS
 10
107.727810735
 20
140.6952367065
 40
0.2604675255
100
AcDbArc
 50
26.9623047307
 51
36.0400186552
  0
ARC
  5
43C
100
AcDbEntity
  8
0
100
AcDbCircle
 62
7
  6
CONTINUOUS
 10
104.6992343581
 20
141.2181525902
 40
6.7281674388
100
AcDbArc
 50
64.8823174369
 51
65.1485435069
  0
ARC
  5
43D
100
AcDbEntity
  8
0
100
AcDbCircle
 62
7
  6
CONTINUOUS
 10
104.9215481011
 20
141.698197587
 40
6.1991432439
100
AcDbArc
 50
65.1483626003
 51
65.4346969838
  0
ARC
  5
43E
100
AcDbEntity
  8
0
100
AcDbCircle
 62
7
  6
CONTINUOUS
 10
109.0650474783
 20
151.7526159519
 40
4.6768433404
100
AcDbArc
 50
247.8240802266
 51
248.1055093872
  0
ARC
  5
43F
100
AcDbEntity
  8
0
100
AcDbCircle
 62
7
  6
CONTINUOUS
 10
134.2892730575
 20
161.5592382481
 40
4.0
100
AcDbArc
 50
270.0
 51
315.0
  0
ARC
  5
440
100
AcDbEntity
  8
0
100
AcDbCircle
 62
7
  6
CONTINUOUS
 10
106.6892730575
 20
157.5592382481
 40
3.0
100
AcDbArc
 50
90.0
 51
180.0
  0
ARC
  5
441
100
AcDbEntity
  8
0
100
AcDbCircle
 62
7
  6
CONTINUOUS
 10
106.2724166579
 20
144.7950960143
 40
2.8202152856
100
AcDbArc
 50
67.1557906233
 51
68.1714335405
  0
ARC
  5
442
100
AcDbEntity
  8
0
100
AcDbCircle
 62
7
  6
CONTINUOUS
 10
134.2892730575
 20
161.5592382481
 40
1.0
100
AcDbArc
 50
270.0
 51
315.0
  0
ARC
  5
443
100
AcDbEntity
  8
0
100
AcDbCircle
 62
7
  6
CONTINUOUS
 10
113.2892730575
 20
161.4128280866
 40
0.6
100
AcDbArc
 50
120.0
 51
180.0
  0
ARC
  5
444
100
AcDbEntity
  8
0
100
AcDbCircle
 62
7
  6
CONTINUOUS
 10
124.0892730575
 20
161.4128280866
 40
0.6
100
AcDbArc
 50
0.0
 51
60.0
  0
ARC
  5
445
100
AcDbEntity
  8
0
100
AcDbCircle
 62
7
  6
CONTINUOUS
 10
107.1892730575
 20
157.0592382481
 40
0.5
100
AcDbArc
 50
90.0
 51
180.0
  0
ARC
  5
446
100
AcDbEntity
  8
0
100
AcDbCircle
 62
7
  6
CONTINUOUS
 10
103.7892730575
 20
143.6901783558
 40
0.4
100
AcDbArc
 50
180.0
 51
240.0
  0
ARC
  5
447
100
AcDbEntity
  8
0
100
AcDbCircle
 62
7
  6
CONTINUOUS
 10
103.7892730575
 20
147.0592382481
 40
0.4
100
AcDbArc
 50
90.0
 51
180.0
  0
ARC
  5
448
100
AcDbEntity
  8
0
100
AcDbCircle
 62
7
  6
CONTINUOUS
 10
107.2058948425
 20
147.743423009
 40
0.3508095494
100
AcDbArc
 50
302.9745963901
 51
305.8959838968
  0
ARC
  5
449
100
AcDbEntity
  8
0
100
AcDbCircle
 62
7
  6
CONTINUOUS
 10
107.4025088868
 20
140.7957853002
 40
0.3000002031
100
AcDbArc
 50
12.0572195682
 51
59.9998851794
  0
ARC
  5
44A
100
AcDbEntity
  8
0
100
AcDbCircle
 62
7
  6
CONTINUOUS
 10
106.9973498737
 20
147.7592382481
 40
0.3
100
AcDbArc
 50
270.0
 51
309.7727288568
  0
ARC
  5
44B
100
AcDbEntity
  8
0
100
AcDbCircle
 62
7
  6
CONTINUOUS
 10
107.9892730575
 20
140.9211184634
 40
0.3
100
AcDbArc
 50
192.2351600134
 51
240.0
  0
ARC
  5
44C
100
AcDbEntity
  8
0
100
AcDbCircle
 62
7
  6
CONTINUOUS
 10
129.3892730575
 20
140.9211184634
 40
0.3
100
AcDbArc
 50
300.0
 51
360.0
  0
ARC
  5
44D
100
AcDbEntity
  8
0
100
AcDbCircle
 62
7
  6
CONTINUOUS
 10
129.9892730575
 20
147.3542382481
 40
0.3
100
AcDbArc
 50
135.0
 51
180.0
  0
ARC
  5
44E
100
AcDbEntity
  8
0
100
AcDbCircle
 62
7
  6
CONTINUOUS
 10
107.1859821937
 20
147.7536699091
 40
0.2946957873
100
AcDbArc
 50
303.5467222528
 51
310.2239041475
  0
ARC
  5
44F
100
AcDbEntity
  8
0
100
AcDbCircle
 62
7
  6
CONTINUOUS
 10
177.5042730575
 20
48.9592382481
 40
0.7
100
AcDbArc
 50
270.0
 51
360.0
  0
ARC
  5
450
100
AcDbEntity
  8
0
100
AcDbCircle
 62
7
  6
CONTINUOUS
 10
177.5042730575
 20
94.5592382481
 40
0.7
100
AcDbArc
 50
0.0
 51
90.0
  0
ARC
  5
451
100
AcDbEntity
  8
0
100
AcDbCircle
 62
7
  6
CONTINUOUS
 10
155.3603408694
 20
175.5592382481
 40
4.0
100
AcDbArc
 50
90.0
 51
135.0
  0
ARC
  5
452
100
AcDbEntity
  8
0
100
AcDbCircle
 62
7
  6
CONTINUOUS
 10
242.6892730575
 20
178.5592382481
 40
2.5
100
AcDbArc
 50
0.0
 51
90.0
  0
ARC
  5
453
100
AcDbEntity
  8
0
100
AcDbCircle
 62
7
  6
CONTINUOUS
 10
242.6892730575
 20
177.5592382481
 40
2.5
100
AcDbArc
 50
270.0
 51
360.0
  0
ARC
  5
454
100
AcDbEntity
  8
0
100
AcDbCircle
 62
7
  6
CONTINUOUS
 10
155.7745544318
 20
174.5592382481
 40
2.0
100
AcDbArc
 50
90.0
 51
135.0
  0
ARC
  5
455
100
AcDbEntity
  8
0
100
AcDbCircle
 62
7
  6
CONTINUOUS
 10
157.4892730575
 20
176.3592382481
 40
1.3
100
AcDbArc
 50
180.0
 51
270.0
  0
ARC
  5
456
100
AcDbEntity
  8
0
100
AcDbCircle
 62
7
  6
CONTINUOUS
 10
157.4892730575
 20
179.7592382481
 40
1.3
100
AcDbArc
 50
90.0
 51
180.0
  0
SPLINE
  5
457
100
AcDbEntity
  8
0
100
AcDbSpline
 62
7
  6
CONTINUOUS
 70
0
 71
3
 72
10
 73
6
 74
0
 42
0.0000001
 43
0.0000001
 44
0.0000000001
 40
0.0
 40
0.0
 40
0.0
 40
0.0
 40
0.1783392081
 40
0.5181011522
 40
1.0
 40
1.0
 40
1.0
 40
1.0
 10
109.689274251
 20
153.1181927334
 30
0.0
 10
109.6892747974
 20
153.1173649005
 30
0.0
 10
109.6899322414
 20
153.1149503324
 30
0.0
 10
109.6932880197
 20
153.111521168
 30
0.0
 10
109.6965657599
 20
153.109568267
 30
0.0
 10
109.6985495655
 20
153.108534653
 30
0.0
  0
SPLINE
  5
458
100
AcDbEntity
  8
0
100
AcDbSpline
 62
7
  6
CONTINUOUS
 70
0
 71
3
 72
10
 73
6
 74
0
 42
0.0000001
 43
0.0000001
 44
0.0000000001
 40
0.0
 40
0.0
 40
0.0
 40
0.0
 40
0.1784034218
 40
0.5181509981
 40
1.0
 40
1.0
 40
1.0
 40
1.0
 10
109.6892819942
 20
153.4222852307
 30
0.0
 10
109.6892823984
 20
153.4231129464
 30
0.0
 10
109.6899380744
 20
153.4255267729
 30
0.0
 10
109.6932898119
 20
153.4289566795
 30
0.0
 10
109.696565167
 20
153.430909504
 30
0.0
 10
109.6985475071
 20
153.4319430017
 30
0.0
  0
SPLINE
  5
459
100
AcDbEntity
  8
0
100
AcDbSpline
 62
7
  6
CONTINUOUS
 70
0
 71
3
 72
9
 73
5
 74
0
 42
0.0000001
 43
0.0000001
 44
0.0000000001
 40
0.0
 40
0.0
 40
0.0
 40
0.0
 40
0.2284487055
 40
1.0
 40
1.0
 40
1.0
 40
1.0
 10
110.499444035
 20
152.5123376537
 30
0.0
 10
110.5000084347
 20
152.5126319388
 30
0.0
 10
110.5025010929
 20
152.5138777872
 30
0.0
 10
110.505067581
 20
152.5149717511
 30
0.0
 10
110.5070675893
 20
152.5157599871
 30
0.0
  0
SPLINE
  5
45A
100
AcDbEntity
  8
0
100
AcDbSpline
 62
7
  6
CONTINUOUS
 70
0
 71
3
 72
23
 73
19
 74
0
 42
0.0000001
 43
0.0000001
 44
0.0000000001
 40
0.0
 40
0.0
 40
0.0
 40
0.0
 40
0.0044344153
 40
0.0109623426
 40
0.0195996271
 40
0.0303435808
 40
0.0431769531
 40
0.0580762223
 40
0.0939625499
 40
0.137720926
 40
0.1890064266
 40
0.2474071372
 40
0.3124524537
 40
0.3836211044
 40
0.460337058
 40
0.6278987755
 40
0.8097395917
 40
1.0
 40
1.0
 40
1.0
 40
1.0
 10
110.5070675893
 20
152.5157599871
 30
0.0
 10
110.517586099
 20
152.519905504
 30
0.0
 10
110.5447464607
 20
152.5270018346
 30
0.0
 10
110.5938385795
 20
152.5361952173
 30
0.0
 10
110.6592749659
 20
152.5454702541
 30
0.0
 10
110.7408682494
 20
152.5548636201
 30
0.0
 10
110.8385196733
 20
152.5642989727
 30
0.0
 10
111.00016315
 20
152.5777772094
 30
0.0
 10
111.2406683581
 20
152.5941335757
 30
0.0
 10
111.5739606468
 20
152.6129231023
 30
0.0
 10
111.964730038
 20
152.6317870829
 30
0.0
 10
112.4098230974
 20
152.6507161608
 30
0.0
 10
112.9056494089
 20
152.6696826399
 30
0.0
 10
113.4482018419
 20
152.688676808
 30
0.0
 10
114.2520370359
 20
152.7148012963
 30
0.0
 10
115.3379925437
 20
152.7468946944
 30
0.0
 10
116.7133989012
 20
152.7844844941
 30
0.0
 10
117.6617804988
 20
152.8092876852
 30
0.0
 10
118.1467026726
 20
152.8218990837
 30
0.0
  0
SPLINE
  5
45B
100
AcDbEntity
  8
0
100
AcDbSpline
 62
7
  6
CONTINUOUS
 70
0
 71
3
 72
25
 73
21
 74
0
 42
0.0000001
 43
0.0000001
 44
0.0000000001
 40
0.0
 40
0.0
 40
0.0
 40
0.0
 40
0.0020117722
 40
0.0035934297
 40
0.0056435716
 40
0.0112323637
 40
0.0188661754
 40
0.0285694721
 40
0.0403496855
 40
0.0701161809
 40
0.1080714473
 40
0.1540804937
 40
0.2079510418
 40
0.2694697452
 40
0.3383775824
 40
0.4143936232
 40
0.4971960697
 40
0.5864334245
 40
0.7827394381
 40
1.0
 40
1.0
 40
1.0
 40
1.0
 10
110.4892779944
 20
154.0387387193
 30
0.0
 10
110.489275585
 20
154.0414450777
 30
0.0
 10
110.4930274734
 20
154.0457042957
 30
0.0
 10
110.4993984049
 20
154.049463347
 30
0.0
 10
110.5108260205
 20
154.0545787454
 30
0.0
 10
110.5305249123
 20
154.060397302
 30
0.0
 10
110.5606551851
 20
154.0671163128
 30
0.0
 10
110.5992477244
 20
154.0738426047
 30
0.0
 10
110.6674954484
 20
154.0836815027
 30
0.0
 10
110.7738160904
 20
154.0954658786
 30
0.0
 10
110.9262233444
 20
154.108947058
 30
0.0
 10
111.1111577206
 20
154.1224932557
 30
0.0
 10
111.3278553863
 20
154.1361120219
 30
0.0
 10
111.5754090499
 20
154.1497622138
 30
0.0
 10
111.8527923414
 20
154.163441209
 30
0.0
 10
112.1588383426
 20
154.1771364805
 30
0.0
 10
112.4922571308
 20
154.1908460065
 30
0.0
 10
112.9874185935
 20
154.2097441496
 30
0.0
 10
113.6634216568
 20
154.2330526583
 30
0.0
 10
114.2195060262
 20
154.2504281415
 30
0.0
 10
114.5116454528
 20
154.2592382481
 30
0.0
  0
SPLINE
  5
45C
100
AcDbEntity
  8
0
100
AcDbSpline
 62
7
  6
CONTINUOUS
 70
0
 71
3
 72
9
 73
5
 74
0
 42
0.0000001
 43
0.0000001
 44
0.0000000001
 40
0.0
 40
0.0
 40
0.0
 40
0.0
 40
0.2481142298
 40
1.0
 40
1.0
 40
1.0
 40
1.0
 10
117.166396359
 20
151.4592385946
 30
0.0
 10
117.348168968
 20
151.4640390961
 30
0.0
 10
118.08078885
 20
151.4832637017
 30
0.0
 10
118.8134167427
 20
151.5021807696
 30
0.0
 10
119.3642661102
 20
151.5165240574
 30
0.0
  0
SPLINE
  5
45D
100
AcDbEntity
  8
0
100
AcDbSpline
 62
7
  6
CONTINUOUS
 70
0
 71
3
 72
30
 73
26
 74
0
 42
0.0000001
 43
0.0000001
 44
0.0000000001
 40
0.0
 40
0.0
 40
0.0
 40
0.0
 40
0.2010480221
 40
0.2977970657
 40
0.3909682799
 40
0.4797995836
 40
0.5635645027
 40
0.6415803111
 40
0.7132086863
 40
0.7778648168
 40
0.8350236524
 40
0.8842185481
 40
0.9057029159
 40
0.9250518951
 40
0.9422291986
 40
0.9571995888
 40
0.9699342793
 40
0.9804135832
 40
0.988621759
 40
0.9918729208
 40
0.9945581365
 40
0.996683048
 40
0.9982605309
 40
0.9993253341
 40
1.0
 40
1.0
 40
1.0
 40
1.0
 10
117.5829979912
 20
153.4262203877
 30
0.0
 10
117.0532275333
 20
153.41359914
 30
0.0
 10
116.2685235686
 20
153.3947084271
 30
0.0
 10
115.2383374442
 20
153.3688263231
 30
0.0
 10
114.5038559119
 20
153.349670091
 30
0.0
 10
113.8036096781
 20
153.330523659
 30
0.0
 10
113.1433252859
 20
153.3113896099
 30
0.0
 10
112.5284038816
 20
153.2922738631
 30
0.0
 10
111.963874697
 20
153.2731821723
 30
0.0
 10
111.4543528979
 20
153.2541272054
 30
0.0
 10
111.0040055071
 20
153.2351200557
 30
0.0
 10
110.6674468679
 20
153.2186982841
 30
0.0
 10
110.4305270158
 20
153.2053264477
 30
0.0
 10
110.2779209549
 20
153.1957670897
 30
0.0
 10
110.1425201434
 20
153.1862281754
 30
0.0
 10
110.024600498
 20
153.176713463
 30
0.0
 10
109.9243955287
 20
153.1672422408
 30
0.0
 10
109.8421058467
 20
153.157825647
 30
0.0
 10
109.7848522666
 20
153.1495753952
 30
0.0
 10
109.7482000691
 20
153.1427142501
 30
0.0
 10
109.727479652
 20
153.1379784535
 30
0.0
 10
109.7112783449
 20
153.1333530827
 30
0.0
 10
109.699586301
 20
153.1286300701
 30
0.0
 10
109.6919980548
 20
153.1242747788
 30
0.0
 10
109.6892730773
 20
153.119971012
 30
0.0
 10
109.689274251
 20
153.1181927334
 30
0.0
  0
SPLINE
  5
45E
100
AcDbEntity
  8
0
100
AcDbSpline
 62
7
  6
CONTINUOUS
 70
0
 71
3
 72
29
 73
25
 74
0
 42
0.0000001
 43
0.0000001
 44
0.0000000001
 40
0.0
 40
0.0
 40
0.0
 40
0.0
 40
0.0007203693
 40
0.0018199714
 40
0.003428586
 40
0.0055848842
 40
0.0083034237
 40
0.0115906027
 40
0.0198804731
 40
0.0304570964
 40
0.043303588
 40
0.0583985484
 40
0.075713791
 40
0.116851488
 40
0.1663766444
 40
0.2238674446
 40
0.2888338242
 40
0.3607231783
 40
0.4389182177
 40
0.5227502676
 40
0.6115025004
 40
0.7044128729
 40
0.8006863245
 40
1.0
 40
1.0
 40
1.0
 40
1.0
 10
110.4892761429
 20
152.7017389258
 30
0.0
 10
110.4892745494
 20
152.7035374674
 30
0.0
 10
110.4917800326
 20
152.7078707296
 30
0.0
 10
110.4990787547
 20
152.7124210885
 30
0.0
 10
110.5102628716
 20
152.7172450526
 30
0.0
 10
110.5257552586
 20
152.7219973416
 30
0.0
 10
110.5455545752
 20
152.7268446534
 30
0.0
 10
110.5805559657
 20
152.7338709986
 30
0.0
 10
110.6352387444
 20
152.7423198715
 30
0.0
 10
110.7138320131
 20
152.7519628941
 30
0.0
 10
110.8095155521
 20
152.7616612545
 30
0.0
 10
110.922089184
 20
152.7714064755
 30
0.0
 10
111.105197074
 20
152.7852375962
 30
0.0
 10
111.3742676457
 20
152.8020865229
 30
0.0
 10
111.7436570882
 20
152.8214685301
 30
0.0
 10
112.1726064079
 20
152.8409231512
 30
0.0
 10
112.6574392515
 20
152.8604362694
 30
0.0
 10
113.1940004493
 20
152.8799832692
 30
0.0
 10
113.7776909046
 20
152.8995565004
 30
0.0
 10
114.403504129
 20
152.9191475478
 30
0.0
 10
115.0660735219
 20
152.9387511712
 30
0.0
 10
115.7597178963
 20
152.9583649651
 30
0.0
 10
116.7293165125
 20
152.9848308236
 30
0.0
 10
117.4670533214
 20
153.0041971749
 30
0.0
 10
117.964509931
 20
153.0171568956
 30
0.0
  0
SPLINE
  5
45F
100
AcDbEntity
  8
0
100
AcDbSpline
 62
7
  6
CONTINUOUS
 70
0
 71
3
 72
11
 73
7
 74
0
 42
0.0000001
 43
0.0000001
 44
0.0000000001
 40
0.0
 40
0.0
 40
0.0
 40
0.0
 40
0.2847101964
 40
0.5522429665
 40
0.7933553442
 40
1.0
 40
1.0
 40
1.0
 40
1.0
 10
117.1492250914
 20
153.8914786898
 30
0.0
 10
116.611908407
 20
153.8637764623
 30
0.0
 10
115.5697121921
 20
153.8096708829
 30
0.0
 10
114.0726974276
 20
153.727906617
 30
0.0
 10
112.7233883693
 20
153.6471733073
 30
0.0
 10
111.8791981721
 20
153.5892614755
 30
0.0
 10
111.4898478365
 20
153.5592382481
 30
0.0
  0
SPLINE
  5
460
100
AcDbEntity
  8
0
100
AcDbSpline
 62
7
  6
CONTINUOUS
 70
0
 71
3
 72
13
 73
9
 74
0
 42
0.0000001
 43
0.0000001
 44
0.0000000001
 40
0.0
 40
0.0
 40
0.0
 40
0.0
 40
0.0763019373
 40
0.1714956385
 40
0.2834998755
 40
0.4098601462
 40
0.6943061987
 40
1.0
 40
1.0
 40
1.0
 40
1.0
 10
111.2846960019
 20
151.4592382481
 30
0.0
 10
111.4852999121
 20
151.4713544715
 30
0.0
 10
111.9364394428
 20
151.4941496795
 30
0.0
 10
112.6825116002
 20
151.5248827898
 30
0.0
 10
113.5605209476
 20
151.5558111937
 30
0.0
 10
114.9368624713
 20
151.5989488814
 30
0.0
 10
116.8233239405
 20
151.6507998111
 30
0.0
 10
118.3771592636
 20
151.6908586196
 30
0.0
 10
119.1820454356
 20
151.7117832944
 30
0.0
  0
SPLINE
  5
461
100
AcDbEntity
  8
0
100
AcDbSpline
 62
7
  6
CONTINUOUS
 70
0
 71
3
 72
9
 73
5
 74
0
 42
0.0000001
 43
0.0000001
 44
0.0000000001
 40
0.0
 40
0.0
 40
0.0
 40
0.0
 40
0.2493884033
 40
1.0
 40
1.0
 40
1.0
 40
1.0
 10
113.2608049688
 20
157.5596734087
 30
0.0
 10
113.1405936815
 20
157.535380718
 30
0.0
 10
112.6601821469
 20
157.4300121468
 30
0.0
 10
112.1864551515
 20
157.2952644218
 30
0.0
 10
111.8351710913
 20
157.1818879789
 30
0.0
  0
SPLINE
  5
462
100
AcDbEntity
  8
0
100
AcDbSpline
 62
7
  6
CONTINUOUS
 70
0
 71
3
 72
9
 73
5
 74
0
 42
0.0000001
 43
0.0000001
 44
0.0000000001
 40
0.0
 40
0.0
 40
0.0
 40
0.0
 40
0.3814901326
 40
1.0
 40
1.0
 40
1.0
 40
1.0
 10
110.2784967554
 20
154.148461946
 30
0.0
 10
110.2798963436
 20
154.1498615342
 30
0.0
 10
110.2847105944
 20
154.1521938489
 30
0.0
 10
110.2896141129
 20
154.1537422689
 30
0.0
 10
110.2927080461
 20
154.1545941369
 30
0.0
  0
SPLINE
  5
463
100
AcDbEntity
  8
0
100
AcDbSpline
 62
7
  6
CONTINUOUS
 70
0
 71
3
 72
18
 73
14
 74
0
 42
0.0000001
 43
0.0000001
 44
0.0000000001
 40
0.0
 40
0.0
 40
0.0
 40
0.0
 40
0.012965812
 40
0.0328713254
 40
0.0597299996
 40
0.0934996019
 40
0.1341238302
 40
0.1815284123
 40
0.296270292
 40
0.4367814013
 40
0.6018694564
 40
0.7901822735
 40
1.0
 40
1.0
 40
1.0
 40
1.0
 10
110.2927080461
 20
154.1545941369
 30
0.0
 10
110.303404855
 20
154.1575393423
 30
0.0
 10
110.3312038158
 20
154.1623122826
 30
0.0
 10
110.3819068018
 20
154.1685587168
 30
0.0
 10
110.4505555011
 20
154.1748312775
 30
0.0
 10
110.5369574828
 20
154.1812275077
 30
0.0
 10
110.6409864171
 20
154.1876514947
 30
0.0
 10
110.814253607
 20
154.1968585888
 30
0.0
 10
111.0730027318
 20
154.2080328253
 30
0.0
 10
111.4324608291
 20
154.2208788629
 30
0.0
 10
111.8549059709
 20
154.2338006169
 30
0.0
 10
112.3366784512
 20
154.2467874111
 30
0.0
 10
112.6772593232
 20
154.2550543367
 30
0.0
 10
112.8567518602
 20
154.2592382481
 30
0.0
  0
SPLINE
  5
464
100
AcDbEntity
  8
0
100
AcDbSpline
 62
7
  6
CONTINUOUS
 70
0
 71
3
 72
18
 73
14
 74
0
 42
0.0000001
 43
0.0000001
 44
0.0000000001
 40
0.0
 40
0.0
 40
0.0
 40
0.0
 40
0.0127722521
 40
0.0322417304
 40
0.0585223132
 40
0.0916307955
 40
0.131554849
 40
0.1782581639
 40
0.2917329002
 40
0.4314674854
 40
0.5967279894
 40
0.7866482645
 40
1.0
 40
1.0
 40
1.0
 40
1.0
 10
109.6985475071
 20
153.4319430017
 30
0.0
 10
109.7053349461
 20
153.4354816494
 30
0.0
 10
109.7239042142
 20
153.4413981543
 30
0.0
 10
109.7580921954
 20
153.4490114551
 30
0.0
 10
109.8047693852
 20
153.4566954952
 30
0.0
 10
109.8637684978
 20
153.4644989639
 30
0.0
 10
109.9351060971
 20
153.4723380131
 30
0.0
 10
110.0545025275
 20
153.4835747429
 30
0.0
 10
110.2337386317
 20
153.4971945335
 30
0.0
 10
110.4840464889
 20
153.512814527
 30
0.0
 10
110.7802412119
 20
153.5285042675
 30
0.0
 10
111.1206043336
 20
153.5442471322
 30
0.0
 10
111.3620837941
 20
153.5542043526
 30
0.0
 10
111.4898478365
 20
153.5592382481
 30
0.0
  0
SPLINE
  5
465
100
AcDbEntity
  8
0
100
AcDbSpline
 62
7
  6
CONTINUOUS
 70
0
 71
3
 72
11
 73
7
 74
0
 42
0.0000001
 43
0.0000001
 44
0.0000000001
 40
0.0
 40
0.0
 40
0.0
 40
0.0
 40
0.1237125498
 40
0.3193316613
 40
0.6093011884
 40
1.0
 40
1.0
 40
1.0
 40
1.0
 10
109.6892730575
 20
151.7811914857
 30
0.0
 10
109.6892730575
 20
151.7829774863
 30
0.0
 10
109.6920275278
 20
151.7872983244
 30
0.0
 10
109.6996674379
 20
151.7916645978
 30
0.0
 10
109.7114442515
 20
151.7964094262
 30
0.0
 10
109.7209064318
 20
151.7990898704
 30
0.0
 10
109.7263642586
 20
151.8005133327
 30
0.0
  0
SPLINE
  5
466
100
AcDbEntity
  8
0
100
AcDbSpline
 62
7
  6
CONTINUOUS
 70
0
 71
3
 72
22
 73
18
 74
0
 42
0.0000001
 43
0.0000001
 44
0.0000000001
 40
0.0
 40
0.0
 40
0.0
 40
0.0
 40
0.0053738935
 40
0.0128520151
 40
0.022430294
 40
0.0340947592
 40
0.0635924742
 40
0.1011024027
 40
0.1463053739
 40
0.1988146061
 40
0.2581750433
 40
0.3238712282
 40
0.395334147
 40
0.4719417316
 40
0.6378927224
 40
0.8159727722
 40
1.0
 40
1.0
 40
1.0
 40
1.0
 10
109.7263642586
 20
151.8005133327
 30
0.0
 10
109.7421105285
 20
151.8046201361
 30
0.0
 10
109.7803863008
 20
151.8119669898
 30
0.0
 10
109.8476244869
 20
151.8215626975
 30
0.0
 10
109.9340701844
 20
151.8312474386
 30
0.0
 10
110.0870697965
 20
151.8454028453
 30
0.0
 10
110.32472062
 20
151.862347441
 30
0.0
 10
110.6639612686
 20
151.8817358628
 30
0.0
 10
111.0729769005
 20
151.901229755
 30
0.0
 10
111.5482159277
 20
151.9208239772
 30
0.0
 10
112.0855563846
 20
151.9404688182
 30
0.0
 10
112.6803242227
 20
151.9601521464
 30
0.0
 10
113.3273444548
 20
151.9798610439
 30
0.0
 10
114.277868131
 20
152.0068879189
 30
0.0
 10
115.5511976804
 20
152.0400973825
 30
0.0
 10
117.1497677792
 20
152.0790728512
 30
0.0
 10
118.2459810095
 20
152.1049598922
 30
0.0
 10
118.8030891986
 20
152.1181328521
 30
0.0
  0
SPLINE
  5
467
100
AcDbEntity
  8
0
100
AcDbSpline
 62
7
  6
CONTINUOUS
 70
0
 71
3
 72
23
 73
19
 74
0
 42
0.0000001
 43
0.0000001
 44
0.0000000001
 40
0.0
 40
0.0
 40
0.0
 40
0.0
 40
0.0038821109
 40
0.0097878894
 40
0.0177498274
 40
0.0277722991
 40
0.0398496405
 40
0.0539647807
 40
0.0882195117
 40
0.1303278967
 40
0.180014036
 40
0.2369536043
 40
0.3007713267
 40
0.3710433254
 40
0.4473071965
 40
0.6157428388
 40
0.801619058
 40
1.0
 40
1.0
 40
1.0
 40
1.0
 10
110.4994457047
 20
153.8493374076
 30
0.0
 10
110.5068344231
 20
153.8531903064
 30
0.0
 10
110.5270176254
 20
153.8596416459
 30
0.0
 10
110.5641499474
 20
153.8679452092
 30
0.0
 10
110.6147896966
 20
153.8763267159
 30
0.0
 10
110.6787471653
 20
153.8848364323
 30
0.0
 10
110.7560204183
 20
153.893383421
 30
0.0
 10
110.8851924114
 20
153.9056324373
 30
0.0
 10
111.0788498844
 20
153.9204780347
 30
0.0
 10
111.3488810674
 20
153.9375081057
 30
0.0
 10
111.6676841206
 20
153.9546125433
 30
0.0
 10
112.0331394629
 20
153.9717785589
 30
0.0
 10
112.4428240028
 20
153.9889793296
 30
0.0
 10
112.8940196883
 20
154.0062084532
 30
0.0
 10
113.5696877473
 20
154.0299972395
 30
0.0
 10
114.4934580372
 20
154.0592319833
 30
0.0
 10
115.6793217088
 20
154.0933753338
 30
0.0
 10
116.503828565
 20
154.1156544769
 30
0.0
 10
116.9295027789
 20
154.1269642322
 30
0.0
  0
SPLINE
  5
468
100
AcDbEntity
  8
0
100
AcDbSpline
 62
7
  6
CONTINUOUS
 70
0
 71
3
 72
9
 73
5
 74
0
 42
0.0000001
 43
0.0000001
 44
0.0000000001
 40
0.0
 40
0.0
 40
0.0
 40
0.0
 40
0.2531812973
 40
1.0
 40
1.0
 40
1.0
 40
1.0
 10
118.525599753
 20
152.4156654029
 30
0.0
 10
118.3284814275
 20
152.4110040956
 30
0.0
 10
117.549915828
 20
152.3925810773
 30
0.0
 10
116.7713546534
 20
152.3739649547
 30
0.0
 10
116.1899205938
 20
152.3596550727
 30
0.0
  0
SPLINE
  5
469
100
AcDbEntity
  8
0
100
AcDbSpline
 62
7
  6
CONTINUOUS
 70
0
 71
3
 72
23
 73
19
 74
0
 42
0.0000001
 43
0.0000001
 44
0.0000000001
 40
0.0
 40
0.0
 40
0.0
 40
0.0
 40
0.2014297403
 40
0.3887239003
 40
0.5573720052
 40
0.6334121496
 40
0.7033087357
 40
0.7666374016
 40
0.823019776
 40
0.8721170877
 40
0.9136362897
 40
0.9473357133
 40
0.9611894974
 40
0.9730211288
 40
0.9828183622
 40
0.9905725103
 40
0.996287402
 40
1.0
 40
1.0
 40
1.0
 40
1.0
 10
116.1899205938
 20
152.3596550727
 30
0.0
 10
115.7536198935
 20
152.3489171199
 30
0.0
 10
114.9116470338
 20
152.3277535579
 30
0.0
 10
113.704441608
 20
152.2951777388
 30
0.0
 10
112.7688900944
 20
152.2672565454
 30
0.0
 10
112.0876649425
 20
152.244537396
 30
0.0
 10
111.634551741
 20
152.2281094063
 30
0.0
 10
111.2240598837
 20
152.2117071388
 30
0.0
 10
110.8586718806
 20
152.1953393174
 30
0.0
 10
110.5405869283
 20
152.1790324068
 30
0.0
 10
110.2717218526
 20
152.1627934612
 30
0.0
 10
110.0792371478
 20
152.1486380649
 30
0.0
 10
109.9511001739
 20
152.1369511143
 30
0.0
 10
109.8746443691
 20
152.1288036495
 30
0.0
 10
109.8115076878
 20
152.1206935477
 30
0.0
 10
109.7616812474
 20
152.1127159935
 30
0.0
 10
109.7253640016
 20
152.1047993688
 30
0.0
 10
109.7056897087
 20
152.0986586476
 30
0.0
 10
109.6985549709
 20
152.0949436302
 30
0.0
  0
SPLINE
  5
46A
100
AcDbEntity
  8
0
100
AcDbSpline
 62
7
  6
CONTINUOUS
 70
0
 71
3
 72
11
 73
7
 74
0
 42
0.0000001
 43
0.0000001
 44
0.0000000001
 40
0.0
 40
0.0
 40
0.0
 40
0.0
 40
0.2404053342
 40
0.4855030662
 40
0.7383571529
 40
1.0
 40
1.0
 40
1.0
 40
1.0
 10
115.225171442
 20
165.7592382481
 30
0.0
 10
115.3231047028
 20
165.7592382481
 30
0.0
 10
115.5212496412
 20
165.7421640528
 30
0.0
 10
115.8139301924
 20
165.668409697
 30
0.0
 10
116.101867693
 20
165.5531341981
 30
0.0
 10
116.2875668986
 20
165.4552650222
 30
0.0
 10
116.3798719808
 20
165.4019726582
 30
0.0
  0
SPLINE
  5
46B
100
AcDbEntity
  8
0
100
AcDbSpline
 62
7
  6
CONTINUOUS
 70
0
 71
3
 72
15
 73
11
 74
0
 42
0.0000001
 43
0.0000001
 44
0.0000000001
 40
0.0
 40
0.0
 40
0.0
 40
0.0
 40
0.1308200724
 40
0.2572467341
 40
0.3797970183
 40
0.5000000228
 40
0.620203024
 40
0.7427533002
 40
0.8691799394
 40
1.0
 40
1.0
 40
1.0
 40
1.0
 10
116.3798719808
 20
162.5566731966
 30
0.0
 10
116.2875679338
 20
162.6099649629
 30
0.0
 10
116.1018659276
 20
162.707833236
 30
0.0
 10
115.8139477156
 20
162.8231102396
 30
0.0
 10
115.5212014771
 20
162.8968617035
 30
0.0
 10
115.2251713902
 20
162.9223840332
 30
0.0
 10
114.9291413137
 20
162.8968616707
 30
0.0
 10
114.6363951051
 20
162.823110206
 30
0.0
 10
114.3484769232
 20
162.7078332201
 30
0.0
 10
114.1627749426
 20
162.6099649581
 30
0.0
 10
114.070470904
 20
162.5566731966
 30
0.0
  0
SPLINE
  5
46C
100
AcDbEntity
  8
0
100
AcDbSpline
 62
7
  6
CONTINUOUS
 70
0
 71
3
 72
9
 73
5
 74
0
 42
0.0000001
 43
0.0000001
 44
0.0000000001
 40
0.0
 40
0.0
 40
0.0
 40
0.0
 40
0.253023962
 40
1.0
 40
1.0
 40
1.0
 40
1.0
 10
118.6892730575
 20
160.7592382481
 30
0.0
 10
118.7490835437
 20
160.7421055898
 30
0.0
 10
118.9857250592
 20
160.675302288
 30
0.0
 10
119.2228530395
 20
160.6102128997
 30
0.0
 10
119.3993114193
 20
160.5592382481
 30
0.0
  0
SPLINE
  5
46D
100
AcDbEntity
  8
0
100
AcDbSpline
 62
7
  6
CONTINUOUS
 70
0
 71
3
 72
10
 73
6
 74
0
 42
0.0000001
 43
0.0000001
 44
0.0000000001
 40
0.0
 40
0.0
 40
0.0
 40
0.0
 40
0.4999011814
 40
0.7499517172
 40
1.0
 40
1.0
 40
1.0
 40
1.0
 10
116.3798719808
 20
165.4019726582
 30
0.0
 10
116.7550982594
 20
165.5102911547
 30
0.0
 10
117.3271412144
 20
165.645703942
 30
0.0
 10
118.1030134769
 20
165.7425667649
 30
0.0
 10
118.4939227889
 20
165.7592382481
 30
0.0
 10
118.6892730574
 20
165.7592382481
 30
0.0
  0
SPLINE
  5
46E
100
AcDbEntity
  8
0
100
AcDbSpline
 62
7
  6
CONTINUOUS
 70
0
 71
3
 72
10
 73
6
 74
0
 42
0.0000001
 43
0.0000001
 44
0.0000000001
 40
0.0
 40
0.0
 40
0.0
 40
0.0
 40
0.2500483041
 40
0.5000988454
 40
1.0
 40
1.0
 40
1.0
 40
1.0
 10
118.6892730574
 20
165.7592382481
 30
0.0
 10
118.8846233426
 20
165.7592382481
 30
0.0
 10
119.2755326759
 20
165.742566768
 30
0.0
 10
120.0514049371
 20
165.6457039307
 30
0.0
 10
120.6234478757
 20
165.5102911489
 30
0.0
 10
120.9986741343
 20
165.4019726582
 30
0.0
  0
SPLINE
  5
46F
100
AcDbEntity
  8
0
100
AcDbSpline
 62
7
  6
CONTINUOUS
 70
0
 71
3
 72
10
 73
6
 74
0
 42
0.0000001
 43
0.0000001
 44
0.0000000001
 40
0.0
 40
0.0
 40
0.0
 40
0.0
 40
0.4999007856
 40
0.7499513904
 40
1.0
 40
1.0
 40
1.0
 40
1.0
 10
120.9986741343
 20
162.5566731966
 30
0.0
 10
120.623448152
 20
162.6649916075
 30
0.0
 10
120.0514054479
 20
162.800404301
 30
0.0
 10
119.2755332096
 20
162.8972673551
 30
0.0
 10
118.8846235818
 20
162.9139387865
 30
0.0
 10
118.6892730575
 20
162.9139387865
 30
0.0
  0
SPLINE
  5
470
100
AcDbEntity
  8
0
100
AcDbSpline
 62
7
  6
CONTINUOUS
 70
0
 71
3
 72
10
 73
6
 74
0
 42
0.0000001
 43
0.0000001
 44
0.0000000001
 40
0.0
 40
0.0
 40
0.0
 40
0.0
 40
0.2500490219
 40
0.5000997455
 40
1.0
 40
1.0
 40
1.0
 40
1.0
 10
118.6892730575
 20
162.9139387865
 30
0.0
 10
118.4939222106
 20
162.9139387865
 30
0.0
 10
118.1030121609
 20
162.8972673985
 30
0.0
 10
117.3271399469
 20
162.8004041028
 30
0.0
 10
116.7550975655
 20
162.6649914927
 30
0.0
 10
116.3798719808
 20
162.5566731966
 30
0.0
  0
SPLINE
  5
471
100
AcDbEntity
  8
0
100
AcDbSpline
 62
7
  6
CONTINUOUS
 70
0
 71
3
 72
11
 73
7
 74
0
 42
0.0000001
 43
0.0000001
 44
0.0000000001
 40
0.0
 40
0.0
 40
0.0
 40
0.0
 40
0.2616429466
 40
0.5144970929
 40
0.7595947853
 40
1.0
 40
1.0
 40
1.0
 40
1.0
 10
120.9986741343
 20
165.4019726582
 30
0.0
 10
121.0909792514
 20
165.4552650424
 30
0.0
 10
121.2766785191
 20
165.5531342372
 30
0.0
 10
121.5646160658
 20
165.6684097571
 30
0.0
 10
121.8572965923
 20
165.7421640365
 30
0.0
 10
122.0554414612
 20
165.7592382481
 30
0.0
 10
122.1533746731
 20
165.7592382481
 30
0.0
  0
SPLINE
  5
472
100
AcDbEntity
  8
0
100
AcDbSpline
 62
7
  6
CONTINUOUS
 70
0
 71
3
 72
11
 73
7
 74
0
 42
0.0000001
 43
0.0000001
 44
0.0000000001
 40
0.0
 40
0.0
 40
0.0
 40
0.0
 40
0.2404052601
 40
0.485503008
 40
0.7383572234
 40
1.0
 40
1.0
 40
1.0
 40
1.0
 10
122.1533746731
 20
165.7592382481
 30
0.0
 10
122.2513079033
 20
165.7592382481
 30
0.0
 10
122.4494528164
 20
165.7421640469
 30
0.0
 10
122.7421333946
 20
165.6684096904
 30
0.0
 10
123.0300709302
 20
165.5531341985
 30
0.0
 10
123.2157701541
 20
165.4552650077
 30
0.0
 10
123.308075211
 20
165.4019726582
 30
0.0
  0
SPLINE
  5
473
100
AcDbEntity
  8
0
100
AcDbSpline
 62
7
  6
CONTINUOUS
 70
0
 71
3
 72
15
 73
11
 74
0
 42
0.0000001
 43
0.0000001
 44
0.0000000001
 40
0.0
 40
0.0
 40
0.0
 40
0.0
 40
0.1308200724
 40
0.2572467341
 40
0.3797970183
 40
0.5000000228
 40
0.620203024
 40
0.7427533002
 40
0.8691799394
 40
1.0
 40
1.0
 40
1.0
 40
1.0
 10
123.308075211
 20
162.5566731966
 30
0.0
 10
123.2157711641
 20
162.6099649629
 30
0.0
 10
123.0300691579
 20
162.707833236
 30
0.0
 10
122.7421509458
 20
162.8231102396
 30
0.0
 10
122.4494047073
 20
162.8968617035
 30
0.0
 10
122.1533746204
 20
162.9223840332
 30
0.0
 10
121.8573445439
 20
162.8968616707
 30
0.0
 10
121.5645983353
 20
162.823110206
 30
0.0
 10
121.2766801534
 20
162.7078332201
 30
0.0
 10
121.0909781729
 20
162.6099649581
 30
0.0
 10
120.9986741343
 20
162.5566731966
 30
0.0
  0
LINE
  5
474
100
AcDbEntity
  8
0
100
AcDbLine
 62
7
  6
CONTINUOUS
 10
117.8960114165
 20
160.5592382481
 11
117.903778493
 21
160.6334944236
  0
SPLINE
  5
475
100
AcDbEntity
  8
0
100
AcDbSpline
 62
7
  6
CONTINUOUS
 70
0
 71
3
 72
11
 73
7
 74
0
 42
0.0000001
 43
0.0000001
 44
0.0000000001
 40
0.0
 40
0.0
 40
0.0
 40
0.0
 40
0.2616427032
 40
0.5144968934
 40
0.7595946658
 40
1.0
 40
1.0
 40
1.0
 40
1.0
 10
114.070470904
 20
165.4019726582
 30
0.0
 10
114.1627759352
 20
165.4552649928
 30
0.0
 10
114.3484751208
 20
165.5531341709
 30
0.0
 10
114.6364126264
 20
165.6684096541
 30
0.0
 10
114.9290932256
 20
165.7421640549
 30
0.0
 10
115.1272381814
 20
165.7592382481
 30
0.0
 10
115.225171442
 20
165.7592382481
 30
0.0
  0
SPLINE
  5
476
100
AcDbEntity
  8
0
100
AcDbSpline
 62
7
  6
CONTINUOUS
 70
0
 71
3
 72
8
 73
4
 74
0
 42
0.0000001
 43
0.0000001
 44
0.0000000001
 40
0.0
 40
0.0
 40
0.0
 40
0.0
 40
1.0
 40
1.0
 40
1.0
 40
1.0
 10
156.1892730575
 20
176.89591329
 30
0.0
 10
156.1892730575
 20
176.7835320571
 30
0.0
 10
156.1938594303
 20
176.6708434492
 30
0.0
 10
156.2070435345
 20
176.5592382481
 30
0.0
  0
SPLINE
  5
477
100
AcDbEntity
  8
0
100
AcDbSpline
 62
7
  6
CONTINUOUS
 70
0
 71
3
 72
8
 73
4
 74
0
 42
0.0000001
 43
0.0000001
 44
0.0000000001
 40
0.0
 40
0.0
 40
0.0
 40
0.0
 40
1.0
 40
1.0
 40
1.0
 40
1.0
 10
156.2070435345
 20
179.5592382481
 30
0.0
 10
156.1938594303
 20
179.447633047
 30
0.0
 10
156.1892730575
 20
179.3349444391
 30
0.0
 10
156.1892730575
 20
179.2225632062
 30
0.0
  0
SPLINE
  5
478
100
AcDbEntity
  8
GEOM
100
AcDbSpline
 62
7
  6
CONTINUOUS
 70
0
 71
3
 72
9
 73
5
 74
0
 42
0.0000001
 43
0.0000001
 44
0.0000000001
 40
0.0
 40
0.0
 40
0.0
 40
0.0
 40
0.4990731463
 40
1.0
 40
1.0
 40
1.0
 40
1.0
 10
61.8186106248
 20
52.7119511283
 30
0.0
 10
61.7704101988
 20
53.1198834593
 30
0.0
 10
61.6351535512
 20
53.9325441673
 30
0.0
 10
61.4688939735
 20
54.7385524422
 30
0.0
 10
61.3855979229
 20
55.1423464572
 30
0.0
  0
SPLINE
  5
479
100
AcDbEntity
  8
GEOM
100
AcDbSpline
 62
7
  6
CONTINUOUS
 70
0
 71
3
 72
9
 73
5
 74
0
 42
0.0000001
 43
0.0000001
 44
0.0000000001
 40
0.0
 40
0.0
 40
0.0
 40
0.0
 40
0.4999811597
 40
1.0
 40
1.0
 40
1.0
 40
1.0
 10
61.8186106248
 20
68.3223064769
 30
0.0
 10
61.770536876
 20
68.8976937323
 30
0.0
 10
61.6356345767
 20
70.0451744081
 30
0.0
 10
61.4689435676
 20
71.1878467264
 30
0.0
 10
61.3855979229
 20
71.7592356784
 30
0.0
  0
SPLINE
  5
47A
100
AcDbEntity
  8
GEOM
100
AcDbSpline
 62
7
  6
CONTINUOUS
 70
0
 71
3
 72
9
 73
5
 74
0
 42
0.0000001
 43
0.0000001
 44
0.0000000001
 40
0.0
 40
0.0
 40
0.0
 40
0.0
 40
0.5009277506
 40
1.0
 40
1.0
 40
1.0
 40
1.0
 10
61.3855979229
 20
55.1423464572
 30
0.0
 10
61.4688863451
 20
55.5461034921
 30
0.0
 10
61.6351971596
 20
56.3520232503
 30
0.0
 10
61.7704147877
 20
57.1646131434
 30
0.0
 10
61.8186106248
 20
57.5725066521
 30
0.0
  0
SPLINE
  5
47B
100
AcDbEntity
  8
GEOM
100
AcDbSpline
 62
7
  6
CONTINUOUS
 70
0
 71
3
 72
9
 73
5
 74
0
 42
0.0000001
 43
0.0000001
 44
0.0000000001
 40
0.0
 40
0.0
 40
0.0
 40
0.0
 40
0.4990720655
 40
1.0
 40
1.0
 40
1.0
 40
1.0
 10
61.8186106248
 20
85.9459698441
 30
0.0
 10
61.7704157256
 20
86.3538554007
 30
0.0
 10
61.6352061499
 20
87.1664308016
 30
0.0
 10
61.4688846669
 20
87.9723323936
 30
0.0
 10
61.3855979229
 20
88.3760818781
 30
0.0
  0
SPLINE
  5
47C
100
AcDbEntity
  8
GEOM
100
AcDbSpline
 62
7
  6
CONTINUOUS
 70
0
 71
3
 72
9
 73
5
 74
0
 42
0.0000001
 43
0.0000001
 44
0.0000000001
 40
0.0
 40
0.0
 40
0.0
 40
0.0
 40
0.5000188407
 40
1.0
 40
1.0
 40
1.0
 40
1.0
 10
61.3855979229
 20
71.7592356784
 30
0.0
 10
61.46894369
 20
72.3306254701
 30
0.0
 10
61.6356338904
 20
73.4732996147
 30
0.0
 10
61.7705368071
 20
74.6207819191
 30
0.0
 10
61.8186106248
 20
75.1961700193
 30
0.0
  0
SPLINE
  5
47D
100
AcDbEntity
  8
GEOM
100
AcDbSpline
 62
7
  6
CONTINUOUS
 70
0
 71
3
 72
9
 73
5
 74
0
 42
0.0000001
 43
0.0000001
 44
0.0000000001
 40
0.0
 40
0.0
 40
0.0
 40
0.0
 40
0.5009266702
 40
1.0
 40
1.0
 40
1.0
 40
1.0
 10
61.3855979229
 20
88.3760818781
 30
0.0
 10
61.4688954202
 20
88.7798834916
 30
0.0
 10
61.6351446755
 20
89.5859098608
 30
0.0
 10
61.7704092609
 20
90.3985850851
 30
0.0
 10
61.8186106248
 20
90.8065253679
 30
0.0
  0
SPLINE
  5
47E
100
AcDbEntity
  8
GEOM
100
AcDbSpline
 62
7
  6
CONTINUOUS
 70
0
 71
3
 72
9
 73
5
 74
0
 42
0.0000001
 43
0.0000001
 44
0.0000000001
 40
0.0
 40
0.0
 40
0.0
 40
0.0
 40
0.4981740038
 40
1.0
 40
1.0
 40
1.0
 40
1.0
 10
61.8186106248
 20
52.7119511283
 30
0.0
 10
61.8881145894
 20
52.123720125
 30
0.0
 10
62.0767997235
 20
50.9483305646
 30
0.0
 10
62.3535995652
 20
49.7909002872
 30
0.0
 10
62.5114309479
 20
49.2154886394
 30
0.0
  0
SPLINE
  5
47F
100
AcDbEntity
  8
GEOM
100
AcDbSpline
 62
7
  6
CONTINUOUS
 70
0
 71
3
 72
9
 73
5
 74
0
 42
0.0000001
 43
0.0000001
 44
0.0000000001
 40
0.0
 40
0.0
 40
0.0
 40
0.0
 40
0.5018259957
 40
1.0
 40
1.0
 40
1.0
 40
1.0
 10
62.5114309479
 20
61.068969141
 30
0.0
 10
62.3535995653
 20
60.4935574937
 30
0.0
 10
62.0767997238
 20
59.3361272164
 30
0.0
 10
61.8881145895
 20
58.160737656
 30
0.0
 10
61.8186106248
 20
57.5725066521
 30
0.0
  0
SPLINE
  5
480
100
AcDbEntity
  8
0
100
AcDbSpline
 62
7
  6
CONTINUOUS
 70
0
 71
3
 72
13
 73
9
 74
0
 42
0.0000001
 43
0.0000001
 44
0.0000000001
 40
0.0
 40
0.0
 40
0.0
 40
0.0
 40
0.2511053333
 40
0.3757128359
 40
0.5000000049
 40
0.624287174
 40
0.7488946743
 40
1.0
 40
1.0
 40
1.0
 40
1.0
 10
75.0484400326
 20
49.2154886394
 30
0.0
 10
75.3141840967
 20
50.1843214989
 30
0.0
 10
75.6313414286
 20
51.658969859
 30
0.0
 10
75.8488963003
 20
53.6488371165
 30
0.0
 10
75.9039251276
 20
55.1422289505
 30
0.0
 10
75.8488962555
 20
56.635620771
 30
0.0
 10
75.6313414643
 20
58.6254879978
 30
0.0
 10
75.3141840887
 20
60.1001363108
 30
0.0
 10
75.0484400326
 20
61.068969141
 30
0.0
  0
SPLINE
  5
481
100
AcDbEntity
  8
GEOM
100
AcDbSpline
 62
7
  6
CONTINUOUS
 70
0
 71
3
 72
9
 73
5
 74
0
 42
0.0000001
 43
0.0000001
 44
0.0000000001
 40
0.0
 40
0.0
 40
0.0
 40
0.0
 40
0.4981740038
 40
1.0
 40
1.0
 40
1.0
 40
1.0
 10
61.8186106248
 20
85.9459698441
 30
0.0
 10
61.8881145894
 20
85.3577388408
 30
0.0
 10
62.0767997235
 20
84.1823492804
 30
0.0
 10
62.3535995652
 20
83.024919003
 30
0.0
 10
62.5114309479
 20
82.4495073552
 30
0.0
  0
SPLINE
  5
482
100
AcDbEntity
  8
GEOM
100
AcDbSpline
 62
7
  6
CONTINUOUS
 70
0
 71
3
 72
9
 73
5
 74
0
 42
0.0000001
 43
0.0000001
 44
0.0000000001
 40
0.0
 40
0.0
 40
0.0
 40
0.0
 40
0.5018259957
 40
1.0
 40
1.0
 40
1.0
 40
1.0
 10
62.5114309479
 20
94.3029878567
 30
0.0
 10
62.3535995653
 20
93.7275762095
 30
0.0
 10
62.0767997238
 20
92.5701459321
 30
0.0
 10
61.8881145895
 20
91.3947563718
 30
0.0
 10
61.8186106248
 20
90.8065253679
 30
0.0
  0
SPLINE
  5
483
100
AcDbEntity
  8
0
100
AcDbSpline
 62
7
  6
CONTINUOUS
 70
0
 71
3
 72
13
 73
9
 74
0
 42
0.0000001
 43
0.0000001
 44
0.0000000001
 40
0.0
 40
0.0
 40
0.0
 40
0.0
 40
0.2511053333
 40
0.3757128359
 40
0.5000000049
 40
0.624287174
 40
0.7488946743
 40
1.0
 40
1.0
 40
1.0
 40
1.0
 10
75.0484400326
 20
82.4495073552
 30
0.0
 10
75.3141840967
 20
83.4183402147
 30
0.0
 10
75.6313414286
 20
84.8929885748
 30
0.0
 10
75.8488963003
 20
86.8828558323
 30
0.0
 10
75.9039251276
 20
88.3762476662
 30
0.0
 10
75.8488962555
 20
89.8696394868
 30
0.0
 10
75.6313414643
 20
91.8595067135
 30
0.0
 10
75.3141840887
 20
93.3341550266
 30
0.0
 10
75.0484400326
 20
94.3029878567
 30
0.0
  0
SPLINE
  5
484
100
AcDbEntity
  8
GEOM
100
AcDbSpline
 62
7
  6
CONTINUOUS
 70
0
 71
3
 72
9
 73
5
 74
0
 42
0.0000001
 43
0.0000001
 44
0.0000000001
 40
0.0
 40
0.0
 40
0.0
 40
0.0
 40
0.2500330072
 40
1.0
 40
1.0
 40
1.0
 40
1.0
 10
61.8186106248
 20
68.3223064769
 30
0.0
 10
61.8532684338
 20
67.9074914944
 30
0.0
 10
62.0162955764
 20
66.2505268033
 30
0.0
 10
62.2736972795
 20
64.6032809717
 30
0.0
 10
62.5114309479
 20
63.3775618048
 30
0.0
  0
SPLINE
  5
485
100
AcDbEntity
  8
GEOM
100
AcDbSpline
 62
7
  6
CONTINUOUS
 70
0
 71
3
 72
9
 73
5
 74
0
 42
0.0000001
 43
0.0000001
 44
0.0000000001
 40
0.0
 40
0.0
 40
0.0
 40
0.0
 40
0.7499669926
 40
1.0
 40
1.0
 40
1.0
 40
1.0
 10
62.5114309479
 20
80.1409146914
 30
0.0
 10
62.2736972795
 20
78.9151955248
 30
0.0
 10
62.0162955775
 20
77.2679496931
 30
0.0
 10
61.8532684338
 20
75.6109850021
 30
0.0
 10
61.8186106248
 20
75.1961700193
 30
0.0
  0
SPLINE
  5
486
100
AcDbEntity
  8
0
100
AcDbSpline
 62
7
  6
CONTINUOUS
 70
0
 71
3
 72
11
 73
7
 74
0
 42
0.0000001
 43
0.0000001
 44
0.0000000001
 40
0.0
 40
0.0
 40
0.0
 40
0.0
 40
0.2500085263
 40
0.5000000049
 40
0.7499914815
 40
1.0
 40
1.0
 40
1.0
 40
1.0
 10
75.0484400326
 20
63.3775618048
 30
0.0
 10
75.3160713831
 20
64.7574289402
 30
0.0
 10
75.7381011135
 20
67.5411249808
 30
0.0
 10
75.9593438102
 20
71.7592383199
 30
0.0
 10
75.738101127
 20
75.9773516179
 30
0.0
 10
75.3160713748
 20
78.7610475988
 30
0.0
 10
75.0484400326
 20
80.1409146914
 30
0.0
  0
SPLINE
  5
487
100
AcDbEntity
  8
GEOM
100
AcDbSpline
 62
7
  6
CONTINUOUS
 70
0
 71
3
 72
9
 73
5
 74
0
 42
0.0000001
 43
0.0000001
 44
0.0000000001
 40
0.0
 40
0.0
 40
0.0
 40
0.0
 40
0.4990731463
 40
1.0
 40
1.0
 40
1.0
 40
1.0
 10
175.5599354902
 20
90.8065253679
 30
0.0
 10
175.6081359162
 20
90.3985930369
 30
0.0
 10
175.7433925639
 20
89.5859323288
 30
0.0
 10
175.9096521415
 20
88.779924054
 30
0.0
 10
175.9929481921
 20
88.376130039
 30
0.0
  0
SPLINE
  5
488
100
AcDbEntity
  8
GEOM
100
AcDbSpline
 62
7
  6
CONTINUOUS
 70
0
 71
3
 72
9
 73
5
 74
0
 42
0.0000001
 43
0.0000001
 44
0.0000000001
 40
0.0
 40
0.0
 40
0.0
 40
0.0
 40
0.4999811597
 40
1.0
 40
1.0
 40
1.0
 40
1.0
 10
175.5599354902
 20
75.1961700193
 30
0.0
 10
175.608009239
 20
74.6207827639
 30
0.0
 10
175.7429115384
 20
73.4733020881
 30
0.0
 10
175.9096025475
 20
72.3306297698
 30
0.0
 10
175.9929481921
 20
71.7592408178
 30
0.0
  0
SPLINE
  5
489
100
AcDbEntity
  8
GEOM
100
AcDbSpline
 62
7
  6
CONTINUOUS
 70
0
 71
3
 72
9
 73
5
 74
0
 42
0.0000001
 43
0.0000001
 44
0.0000000001
 40
0.0
 40
0.0
 40
0.0
 40
0.0
 40
0.5009277506
 40
1.0
 40
1.0
 40
1.0
 40
1.0
 10
175.9929481921
 20
88.376130039
 30
0.0
 10
175.9096597699
 20
87.9723730041
 30
0.0
 10
175.7433489555
 20
87.1664532459
 30
0.0
 10
175.6081313274
 20
86.3538633528
 30
0.0
 10
175.5599354902
 20
85.9459698441
 30
0.0
  0
SPLINE
  5
48A
100
AcDbEntity
  8
GEOM
100
AcDbSpline
 62
7
  6
CONTINUOUS
 70
0
 71
3
 72
9
 73
5
 74
0
 42
0.0000001
 43
0.0000001
 44
0.0000000001
 40
0.0
 40
0.0
 40
0.0
 40
0.0
 40
0.4990720655
 40
1.0
 40
1.0
 40
1.0
 40
1.0
 10
175.5599354902
 20
57.5725066521
 30
0.0
 10
175.6081303895
 20
57.1646210955
 30
0.0
 10
175.7433399652
 20
56.3520456946
 30
0.0
 10
175.9096614481
 20
55.5461441026
 30
0.0
 10
175.9929481921
 20
55.1423946181
 30
0.0
  0
SPLINE
  5
48B
100
AcDbEntity
  8
GEOM
100
AcDbSpline
 62
7
  6
CONTINUOUS
 70
0
 71
3
 72
9
 73
5
 74
0
 42
0.0000001
 43
0.0000001
 44
0.0000000001
 40
0.0
 40
0.0
 40
0.0
 40
0.0
 40
0.5000188407
 40
1.0
 40
1.0
 40
1.0
 40
1.0
 10
175.9929481921
 20
71.7592408178
 30
0.0
 10
175.909602425
 20
71.1878510261
 30
0.0
 10
175.7429122247
 20
70.0451768815
 30
0.0
 10
175.608009308
 20
68.8976945771
 30
0.0
 10
175.5599354902
 20
68.3223064769
 30
0.0
  0
SPLINE
  5
48C
100
AcDbEntity
  8
GEOM
100
AcDbSpline
 62
7
  6
CONTINUOUS
 70
0
 71
3
 72
9
 73
5
 74
0
 42
0.0000001
 43
0.0000001
 44
0.0000000001
 40
0.0
 40
0.0
 40
0.0
 40
0.0
 40
0.5009266702
 40
1.0
 40
1.0
 40
1.0
 40
1.0
 10
175.9929481921
 20
55.1423946181
 30
0.0
 10
175.9096506948
 20
54.7385930046
 30
0.0
 10
175.7434014396
 20
53.9325666354
 30
0.0
 10
175.6081368541
 20
53.1198914111
 30
0.0
 10
175.5599354902
 20
52.7119511283
 30
0.0
  0
SPLINE
  5
48D
100
AcDbEntity
  8
GEOM
100
AcDbSpline
 62
7
  6
CONTINUOUS
 70
0
 71
3
 72
9
 73
5
 74
0
 42
0.0000001
 43
0.0000001
 44
0.0000000001
 40
0.0
 40
0.0
 40
0.0
 40
0.0
 40
0.4981740038
 40
1.0
 40
1.0
 40
1.0
 40
1.0
 10
175.5599354902
 20
57.5725066521
 30
0.0
 10
175.4904315256
 20
58.1607376554
 30
0.0
 10
175.3017463916
 20
59.3361272158
 30
0.0
 10
175.0249465499
 20
60.4935574932
 30
0.0
 10
174.8671151672
 20
61.068969141
 30
0.0
  0
SPLINE
  5
48E
100
AcDbEntity
  8
GEOM
100
AcDbSpline
 62
7
  6
CONTINUOUS
 70
0
 71
3
 72
9
 73
5
 74
0
 42
0.0000001
 43
0.0000001
 44
0.0000000001
 40
0.0
 40
0.0
 40
0.0
 40
0.0
 40
0.5018259957
 40
1.0
 40
1.0
 40
1.0
 40
1.0
 10
174.8671151672
 20
49.2154886394
 30
0.0
 10
175.0249465497
 20
49.7909002867
 30
0.0
 10
175.3017463912
 20
50.948330564
 30
0.0
 10
175.4904315256
 20
52.1237201244
 30
0.0
 10
175.5599354902
 20
52.7119511283
 30
0.0
  0
SPLINE
  5
48F
100
AcDbEntity
  8
0
100
AcDbSpline
 62
7
  6
CONTINUOUS
 70
0
 71
3
 72
13
 73
9
 74
0
 42
0.0000001
 43
0.0000001
 44
0.0000000001
 40
0.0
 40
0.0
 40
0.0
 40
0.0
 40
0.2511053333
 40
0.3757128359
 40
0.5000000049
 40
0.624287174
 40
0.7488946743
 40
1.0
 40
1.0
 40
1.0
 40
1.0
 10
162.3301060824
 20
61.068969141
 30
0.0
 10
162.0643620184
 20
60.1001362815
 30
0.0
 10
161.7472046865
 20
58.6254879214
 30
0.0
 10
161.5296498147
 20
56.6356206639
 30
0.0
 10
161.4746209875
 20
55.1422288299
 30
0.0
 10
161.5296498596
 20
53.6488370094
 30
0.0
 10
161.7472046508
 20
51.6589697827
 30
0.0
 10
162.0643620264
 20
50.1843214696
 30
0.0
 10
162.3301060824
 20
49.2154886394
 30
0.0
  0
SPLINE
  5
490
100
AcDbEntity
  8
GEOM
100
AcDbSpline
 62
7
  6
CONTINUOUS
 70
0
 71
3
 72
9
 73
5
 74
0
 42
0.0000001
 43
0.0000001
 44
0.0000000001
 40
0.0
 40
0.0
 40
0.0
 40
0.0
 40
0.2500330072
 40
1.0
 40
1.0
 40
1.0
 40
1.0
 10
175.5599354902
 20
75.1961700193
 30
0.0
 10
175.5252776813
 20
75.6109850018
 30
0.0
 10
175.3622505387
 20
77.2679496929
 30
0.0
 10
175.1048488356
 20
78.9151955245
 30
0.0
 10
174.8671151672
 20
80.1409146914
 30
0.0
  0
SPLINE
  5
491
100
AcDbEntity
  8
GEOM
100
AcDbSpline
 62
7
  6
CONTINUOUS
 70
0
 71
3
 72
9
 73
5
 74
0
 42
0.0000001
 43
0.0000001
 44
0.0000000001
 40
0.0
 40
0.0
 40
0.0
 40
0.0
 40
0.7499669926
 40
1.0
 40
1.0
 40
1.0
 40
1.0
 10
174.8671151672
 20
63.3775618048
 30
0.0
 10
175.1048488355
 20
64.6032809714
 30
0.0
 10
175.3622505375
 20
66.2505268031
 30
0.0
 10
175.5252776812
 20
67.9074914941
 30
0.0
 10
175.5599354902
 20
68.3223064769
 30
0.0
  0
SPLINE
  5
492
100
AcDbEntity
  8
0
100
AcDbSpline
 62
7
  6
CONTINUOUS
 70
0
 71
3
 72
11
 73
7
 74
0
 42
0.0000001
 43
0.0000001
 44
0.0000000001
 40
0.0
 40
0.0
 40
0.0
 40
0.0
 40
0.2500085263
 40
0.5000000049
 40
0.7499914815
 40
1.0
 40
1.0
 40
1.0
 40
1.0
 10
162.3301060824
 20
80.1409146914
 30
0.0
 10
162.062474732
 20
78.761047556
 30
0.0
 10
161.6404450016
 20
75.9773515154
 30
0.0
 10
161.4192023048
 20
71.7592381763
 30
0.0
 10
161.6404449881
 20
67.5411248782
 30
0.0
 10
162.0624747403
 20
64.7574288974
 30
0.0
 10
162.3301060824
 20
63.3775618048
 30
0.0
  0
SPLINE
  5
493
100
AcDbEntity
  8
GEOM
100
AcDbSpline
 62
7
  6
CONTINUOUS
 70
0
 71
3
 72
9
 73
5
 74
0
 42
0.0000001
 43
0.0000001
 44
0.0000000001
 40
0.0
 40
0.0
 40
0.0
 40
0.0
 40
0.4981740038
 40
1.0
 40
1.0
 40
1.0
 40
1.0
 10
175.5599354902
 20
90.8065253679
 30
0.0
 10
175.4904315256
 20
91.3947563712
 30
0.0
 10
175.3017463916
 20
92.5701459316
 30
0.0
 10
175.0249465499
 20
93.7275762089
 30
0.0
 10
174.8671151672
 20
94.3029878567
 30
0.0
  0
SPLINE
  5
494
100
AcDbEntity
  8
GEOM
100
AcDbSpline
 62
7
  6
CONTINUOUS
 70
0
 71
3
 72
9
 73
5
 74
0
 42
0.0000001
 43
0.0000001
 44
0.0000000001
 40
0.0
 40
0.0
 40
0.0
 40
0.0
 40
0.5018259957
 40
1.0
 40
1.0
 40
1.0
 40
1.0
 10
174.8671151672
 20
82.4495073552
 30
0.0
 10
175.0249465497
 20
83.0249190024
 30
0.0
 10
175.3017463912
 20
84.1823492798
 30
0.0
 10
175.4904315256
 20
85.3577388402
 30
0.0
 10
175.5599354902
 20
85.9459698441
 30
0.0
  0
SPLINE
  5
495
100
AcDbEntity
  8
0
100
AcDbSpline
 62
7
  6
CONTINUOUS
 70
0
 71
3
 72
13
 73
9
 74
0
 42
0.0000001
 43
0.0000001
 44
0.0000000001
 40
0.0
 40
0.0
 40
0.0
 40
0.0
 40
0.2511053333
 40
0.3757128359
 40
0.5000000049
 40
0.624287174
 40
0.7488946743
 40
1.0
 40
1.0
 40
1.0
 40
1.0
 10
162.3301060824
 20
94.3029878567
 30
0.0
 10
162.0643620184
 20
93.3341549972
 30
0.0
 10
161.7472046865
 20
91.8595066372
 30
0.0
 10
161.5296498147
 20
89.8696393796
 30
0.0
 10
161.4746209875
 20
88.3762475457
 30
0.0
 10
161.5296498596
 20
86.8828557252
 30
0.0
 10
161.7472046508
 20
84.8929884984
 30
0.0
 10
162.0643620264
 20
83.4183401854
 30
0.0
 10
162.3301060824
 20
82.4495073552
 30
0.0
  0
SPLINE
  5
496
100
AcDbEntity
  8
0
100
AcDbSpline
 62
7
  6
CONTINUOUS
 70
0
 71
3
 72
9
 73
5
 74
0
 42
0.0000001
 43
0.0000001
 44
0.0000000001
 40
0.0
 40
0.0
 40
0.0
 40
0.0
 40
0.3458863361
 40
1.0
 40
1.0
 40
1.0
 40
1.0
 10
156.0870948609
 20
92.6743737327
 30
0.0
 10
156.0865189796
 20
92.6754786516
 30
0.0
 10
156.0848119502
 20
92.6784853772
 30
0.0
 10
156.0817993853
 20
92.6817135672
 30
0.0
 10
156.0794430696
 20
92.6817125506
 30
0.0
  0
SPLINE
  5
497
100
AcDbEntity
  8
0
100
AcDbSpline
 62
7
  6
CONTINUOUS
 70
0
 71
3
 72
10
 73
6
 74
0
 42
0.0000001
 43
0.0000001
 44
0.0000000001
 40
0.0
 40
0.0
 40
0.0
 40
0.0
 40
0.5022381053
 40
0.7514460469
 40
1.0
 40
1.0
 40
1.0
 40
1.0
 10
152.8232476537
 20
48.6956466961
 30
0.0
 10
153.0979989282
 20
49.6914585612
 30
0.0
 10
153.4261448285
 20
51.2074050671
 30
0.0
 10
153.6513078112
 20
53.2531818359
 30
0.0
 10
153.6892730575
 20
54.2774416699
 30
0.0
 10
153.6892730575
 20
54.7886754996
 30
0.0
  0
SPLINE
  5
498
100
AcDbEntity
  8
0
100
AcDbSpline
 62
7
  6
CONTINUOUS
 70
0
 71
3
 72
11
 73
7
 74
0
 42
0.0000001
 43
0.0000001
 44
0.0000000001
 40
0.0
 40
0.0
 40
0.0
 40
0.0
 40
0.2504864098
 40
0.5000000014
 40
0.7495135935
 40
1.0
 40
1.0
 40
1.0
 40
1.0
 10
144.0087569719
 20
60.8817043031
 30
0.0
 10
144.1839788461
 20
59.8743101954
 30
0.0
 10
144.4590039009
 20
57.849200277
 30
0.0
 10
144.6024593497
 20
54.78867548
 30
0.0
 10
144.4590039109
 20
51.7281506953
 30
0.0
 10
144.1839788437
 20
49.7030407903
 30
0.0
 10
144.0087569719
 20
48.6956466961
 30
0.0
  0
SPLINE
  5
499
100
AcDbEntity
  8
0
100
AcDbSpline
 62
7
  6
CONTINUOUS
 70
0
 71
3
 72
10
 73
6
 74
0
 42
0.0000001
 43
0.0000001
 44
0.0000000001
 40
0.0
 40
0.0
 40
0.0
 40
0.0
 40
0.5022381053
 40
0.7514460469
 40
1.0
 40
1.0
 40
1.0
 40
1.0
 10
152.8232476537
 20
82.6367721931
 30
0.0
 10
153.0979989282
 20
83.6325840581
 30
0.0
 10
153.4261448284
 20
85.148530564
 30
0.0
 10
153.6513078112
 20
87.1943073327
 30
0.0
 10
153.6892730575
 20
88.2185671667
 30
0.0
 10
153.6892730575
 20
88.7298009964
 30
0.0
  0
SPLINE
  5
49A
100
AcDbEntity
  8
0
100
AcDbSpline
 62
7
  6
CONTINUOUS
 70
0
 71
3
 72
31
 73
27
 74
0
 42
0.0000001
 43
0.0000001
 44
0.0000000001
 40
0.0
 40
0.0
 40
0.0
 40
0.0
 40
0.0004527879
 40
0.0014164363
 40
0.0029578133
 40
0.0050897844
 40
0.0078151943
 40
0.0111339861
 40
0.0195469567
 40
0.0303159867
 40
0.0434179143
 40
0.058819618
 40
0.0764868105
 40
0.0963782373
 40
0.1184435377
 40
0.142631531
 40
0.1688852224
 40
0.227326266
 40
0.2932078328
 40
0.3658935296
 40
0.4446828791
 40
0.5288201001
 40
0.6174954276
 40
0.7098499413
 40
0.8049948011
 40
1.0
 40
1.0
 40
1.0
 40
1.0
 10
159.4045674327
 20
92.6817121572
 30
0.0
 10
159.407727029
 20
92.6817122428
 30
0.0
 10
159.4145525452
 20
92.671675984
 30
0.0
 10
159.4198659972
 20
92.6531831785
 30
0.0
 10
159.4270841082
 20
92.6208550147
 30
0.0
 10
159.4336852865
 20
92.5769961314
 30
0.0
 10
159.4407054079
 20
92.520251858
 30
0.0
 10
159.4507798295
 20
92.4199223141
 30
0.0
 10
159.4629397053
 20
92.2633300905
 30
0.0
 10
159.4767872319
 20
92.0384876412
 30
0.0
 10
159.4907254895
 20
91.7647841595
 30
0.0
 10
159.5047319498
 20
91.4429045254
 30
0.0
 10
159.5187749788
 20
91.0736072278
 30
0.0
 10
159.5328437527
 20
90.6577831544
 30
0.0
 10
159.5469331199
 20
90.1964334536
 30
0.0
 10
159.5610364764
 20
89.6906690509
 30
0.0
 10
159.5805578924
 20
88.9311255063
 30
0.0
 10
159.6046480114
 20
87.8806642639
 30
0.0
 10
159.632697224
 20
86.5062070941
 30
0.0
 10
159.6607946932
 20
84.989731843
 30
0.0
 10
159.6889296795
 20
83.3458477082
 30
0.0
 10
159.7170889659
 20
81.5903716573
 30
0.0
 10
159.7452666261
 20
79.7402254535
 30
0.0
 10
159.773456987
 20
77.8132586121
 30
0.0
 10
159.8113641732
 20
75.1443749877
 30
0.0
 10
159.8392938901
 20
73.1198732816
 30
0.0
 10
159.8580685449
 20
71.7592382481
 30
0.0
  0
SPLINE
  5
49B
100
AcDbEntity
  8
0
100
AcDbSpline
 62
7
  6
CONTINUOUS
 70
0
 71
3
 72
54
 73
50
 74
0
 42
0.0000001
 43
0.0000001
 44
0.0000000001
 40
0.0
 40
0.0
 40
0.0
 40
0.0
 40
0.0005232537
 40
0.0013354313
 40
0.0024424379
 40
0.0038462214
 40
0.0075433785
 40
0.0124208311
 40
0.0184694371
 40
0.0256763486
 40
0.0340230475
 40
0.0434902609
 40
0.0656952999
 40
0.0920770876
 40
0.1223824701
 40
0.1563211984
 40
0.1935650993
 40
0.2337567315
 40
0.2765092505
 40
0.3214102898
 40
0.4159144203
 40
0.5136379982
 40
0.6108266025
 40
0.7037459273
 40
0.7888261804
 40
0.827390459
 40
0.8627995549
 40
0.8947130316
 40
0.9228248934
 40
0.9353681625
 40
0.9468631199
 40
0.9572820611
 40
0.9665985805
 40
0.9747918976
 40
0.9818428773
 40
0.9877334002
 40
0.9902395566
 40
0.9924514151
 40
0.9943679111
 40
0.9959881282
 40
0.9973114403
 40
0.9983382647
 40
0.998741271
 40
0.9990714594
 40
0.9993301077
 40
0.9995199731
 40
0.9996483679
 40
0.9997390262
 40
1.0
 40
1.0
 40
1.0
 40
1.0
 10
160.249304439
 20
91.6485387475
 30
0.0
 10
160.2525116627
 20
91.6423784571
 30
0.0
 10
160.2577643368
 20
91.6252757149
 30
0.0
 10
160.2645416702
 20
91.5936290874
 30
0.0
 10
160.2713720635
 20
91.5500087168
 30
0.0
 10
160.2815919865
 20
91.468256345
 30
0.0
 10
160.2936734442
 20
91.3363261077
 30
0.0
 10
160.3074870042
 20
91.1427266244
 30
0.0
 10
160.321379287
 20
90.9024390744
 30
0.0
 10
160.3353629058
 20
90.6160517404
 30
0.0
 10
160.3493922783
 20
90.284243184
 30
0.0
 10
160.3692091372
 20
89.7534378648
 30
0.0
 10
160.3934050069
 20
88.9832575181
 30
0.0
 10
160.4213046045
 20
87.9364866951
 30
0.0
 10
160.4492956431
 20
86.7339280961
 30
0.0
 10
160.4773592545
 20
85.3871636713
 30
0.0
 10
160.5054694722
 20
83.9091537055
 30
0.0
 10
160.5336116899
 20
82.3141390379
 30
0.0
 10
160.5617774308
 20
80.6174764128
 30
0.0
 10
160.6000065153
 20
78.1999895745
 30
0.0
 10
160.6470459431
 20
75.0529179238
 30
0.0
 10
160.7026540913
 20
71.2118820581
 30
0.0
 10
160.7582427155
 20
67.3918831375
 30
0.0
 10
160.8137478004
 20
63.7397169046
 30
0.0
 10
160.8612311519
 20
60.8656432759
 30
0.0
 10
160.9000121119
 20
58.7548714112
 30
0.0
 10
160.9280981773
 20
57.3497092826
 30
0.0
 10
160.9561305384
 20
56.0833119829
 30
0.0
 10
160.9802373722
 20
55.1204042915
 30
0.0
 10
160.999799895
 20
54.4284892253
 30
0.0
 10
161.0138960401
 20
53.9713540494
 30
0.0
 10
161.0279730756
 20
53.5570692389
 30
0.0
 10
161.0420309485
 20
53.1866345581
 30
0.0
 10
161.056052969
 20
52.8609371631
 30
0.0
 10
161.0700291844
 20
52.5807596726
 30
0.0
 10
161.0821685203
 20
52.3760759829
 30
0.0
 10
161.0920938697
 20
52.2356170226
 30
0.0
 10
161.0991169509
 20
52.1478356317
 30
0.0
 10
161.1061202811
 20
52.0718543467
 30
0.0
 10
161.1130874981
 20
52.0077199614
 30
0.0
 10
161.1200153853
 20
51.9554726279
 30
0.0
 10
161.1260904272
 20
51.9194250153
 30
0.0
 10
161.1311573225
 20
51.8966061789
 30
0.0
 10
161.1346338331
 20
51.883918064
 30
0.0
 10
161.1380532722
 20
51.8741078642
 30
0.0
 10
161.1415006252
 20
51.8673309758
 30
0.0
 10
161.144906833
 20
51.8628187832
 30
0.0
 10
161.1518166195
 20
51.8613575002
 30
0.0
 10
161.1547053335
 20
51.8668411719
 30
0.0
 10
161.1563065204
 20
51.8699128058
 30
0.0
  0
SPLINE
  5
49C
100
AcDbEntity
  8
0
100
AcDbSpline
 62
7
  6
CONTINUOUS
 70
0
 71
3
 72
31
 73
27
 74
0
 42
0.0000001
 43
0.0000001
 44
0.0000000001
 40
0.0
 40
0.0
 40
0.0
 40
0.0
 40
0.0004526994
 40
0.0014162716
 40
0.0029576663
 40
0.0050896345
 40
0.007814927
 40
0.0111335394
 40
0.0195461795
 40
0.0303151243
 40
0.0434166558
 40
0.0588179512
 40
0.0764850814
 40
0.0963761976
 40
0.1184411129
 40
0.1426289475
 40
0.1688821703
 40
0.2273221633
 40
0.2932020697
 40
0.365886484
 40
0.4446747547
 40
0.5288116171
 40
0.6174885606
 40
0.7098453861
 40
0.8049930651
 40
1.0
 40
1.0
 40
1.0
 40
1.0
 10
157.590566975
 20
92.6817125506
 30
0.0
 10
157.5937259536
 20
92.6817139135
 30
0.0
 10
157.6005531586
 20
92.6716791974
 30
0.0
 10
157.6058651146
 20
92.653187344
 30
0.0
 10
157.6130835377
 20
92.6208594941
 30
0.0
 10
157.6196842846
 20
92.5770013374
 30
0.0
 10
157.6267045717
 20
92.5202591719
 30
0.0
 10
157.63677895
 20
92.4199340213
 30
0.0
 10
157.6489388816
 20
92.2633459491
 30
0.0
 10
157.6627857282
 20
92.0385091216
 30
0.0
 10
157.6767241392
 20
91.7648118485
 30
0.0
 10
157.6907305727
 20
91.4429382452
 30
0.0
 10
157.7047731843
 20
91.0736463638
 30
0.0
 10
157.7188420147
 20
90.6578275592
 30
0.0
 10
157.7329314071
 20
90.1964837943
 30
0.0
 10
157.7470344375
 20
89.6907264188
 30
0.0
 10
157.7665557905
 20
88.9311945372
 30
0.0
 10
157.7906453337
 20
87.8807554093
 30
0.0
 10
157.818694309
 20
86.5063260211
 30
0.0
 10
157.8467911927
 20
84.9898787333
 30
0.0
 10
157.8749259678
 20
83.3460134746
 30
0.0
 10
157.9030853974
 20
81.5905360695
 30
0.0
 10
157.9312633183
 20
79.740364844
 30
0.0
 10
157.9594543941
 20
77.8133508058
 30
0.0
 10
157.9973620853
 20
75.1444190979
 30
0.0
 10
158.0252921938
 20
73.119885481
 30
0.0
 10
158.0440669101
 20
71.7592382481
 30
0.0
  0
SPLINE
  5
49D
100
AcDbEntity
  8
0
100
AcDbSpline
 62
7
  6
CONTINUOUS
 70
0
 71
3
 72
34
 73
30
 74
0
 42
0.0000001
 43
0.0000001
 44
0.0000000001
 40
0.0
 40
0.0
 40
0.0
 40
0.0
 40
0.0004589408
 40
0.0009467367
 40
0.0014037658
 40
0.0020177866
 40
0.0037287763
 40
0.0060920194
 40
0.0091101484
 40
0.0127817936
 40
0.0171044833
 40
0.0220753339
 40
0.0276912427
 40
0.033948727
 40
0.0408424333
 40
0.0565137306
 40
0.0746553039
 40
0.0952108853
 40
0.1181105755
 40
0.1432821586
 40
0.1706439275
 40
0.2315713758
 40
0.3001009676
 40
0.3753417518
 40
0.4563129918
 40
0.5419599924
 40
0.6311681255
 40
0.8155892528
 40
1.0
 40
1.0
 40
1.0
 40
1.0
 10
160.6767698151
 20
91.6486675105
 30
0.0
 10
160.6785061549
 20
91.6519770546
 30
0.0
 10
160.685549058
 20
91.6607082586
 30
0.0
 10
160.6939579802
 20
91.647320644
 30
0.0
 10
160.697799455
 20
91.63638043
 30
0.0
 10
160.704125264
 20
91.6140353108
 30
0.0
 10
160.7108990449
 20
91.576808822
 30
0.0
 10
160.7189961018
 20
91.5194408139
 30
0.0
 10
160.7269989579
 20
91.4462110831
 30
0.0
 10
160.7351328944
 20
91.3568747811
 30
0.0
 10
160.7432752736
 20
91.2516129259
 30
0.0
 10
160.7514489532
 20
91.130469629
 30
0.0
 10
160.7596347252
 20
90.9935431617
 30
0.0
 10
160.7678316953
 20
90.8409327152
 30
0.0
 10
160.7792657248
 20
90.6064954963
 30
0.0
 10
160.7933489673
 20
90.275298706
 30
0.0
 10
160.8096655614
 20
89.8328498356
 30
0.0
 10
160.8260124154
 20
89.3315026
 30
0.0
 10
160.8423892125
 20
88.7728807079
 30
0.0
 10
160.8587836352
 20
88.1588117767
 30
0.0
 10
160.881482374
 20
87.235124795
 30
0.0
 10
160.909460171
 20
85.9583790124
 30
0.0
 10
160.9420452779
 20
84.2917447915
 30
0.0
 10
160.9746888117
 20
82.4618572944
 30
0.0
 10
161.0073774073
 20
80.4925550775
 30
0.0
 10
161.0400957342
 20
78.4094958924
 30
0.0
 10
161.0842320472
 20
75.4840710894
 30
0.0
 10
161.1383327359
 20
71.754425558
 30
0.0
 10
161.1819034156
 20
68.7511680123
 30
0.0
 10
161.2042736198
 20
67.2495901467
 30
0.0
  0
SPLINE
  5
49E
100
AcDbEntity
  8
0
100
AcDbSpline
 62
7
  6
CONTINUOUS
 70
0
 71
3
 72
31
 73
27
 74
0
 42
0.0000001
 43
0.0000001
 44
0.0000000001
 40
0.0
 40
0.0
 40
0.0
 40
0.0
 40
0.0004527805
 40
0.001416424
 40
0.0029578022
 40
0.0050897757
 40
0.0078151823
 40
0.0111339669
 40
0.0195469182
 40
0.0303159285
 40
0.043417818
 40
0.0588195113
 40
0.076486774
 40
0.0963783192
 40
0.1184437297
 40
0.142631779
 40
0.168885472
 40
0.2273262632
 40
0.2932072675
 40
0.3658925793
 40
0.4446817902
 40
0.5288192013
 40
0.6174955215
 40
0.7098510373
 40
0.8049956619
 40
1.0
 40
1.0
 40
1.0
 40
1.0
 10
155.7765774594
 20
92.6817122161
 30
0.0
 10
155.7797370042
 20
92.6817123725
 30
0.0
 10
155.7865625385
 20
92.6716761502
 30
0.0
 10
155.7918758445
 20
92.653183434
 30
0.0
 10
155.7990939048
 20
92.6208552398
 30
0.0
 10
155.8056949869
 20
92.5769963527
 30
0.0
 10
155.8127150478
 20
92.5202521254
 30
0.0
 10
155.8227893611
 20
92.419922782
 30
0.0
 10
155.8349491133
 20
92.2633308724
 30
0.0
 10
155.8487964647
 20
92.0384889533
 30
0.0
 10
155.8627345926
 20
91.7647859432
 30
0.0
 10
155.8767409265
 20
91.4429061536
 30
0.0
 10
155.8907838292
 20
91.0736076085
 30
0.0
 10
155.9048525159
 20
90.6577814492
 30
0.0
 10
155.918941802
 20
90.1964297621
 30
0.0
 10
155.9330450618
 20
89.6906641896
 30
0.0
 10
155.9525662253
 20
88.9311220025
 30
0.0
 10
155.976655953
 20
87.8806664343
 30
0.0
 10
156.0047047515
 20
86.5062176378
 30
0.0
 10
156.0328017902
 20
84.9897499678
 30
0.0
 10
156.0609364938
 20
83.3458681646
 30
0.0
 10
156.0890956512
 20
81.5903848345
 30
0.0
 10
156.1172732299
 20
79.7402233918
 30
0.0
 10
156.1454634934
 20
77.8132442806
 30
0.0
 10
156.1833704591
 20
75.1443613235
 30
0.0
 10
156.211299289
 20
73.1198672654
 30
0.0
 10
156.230074037
 20
71.7592382481
 30
0.0
  0
SPLINE
  5
49F
100
AcDbEntity
  8
0
100
AcDbSpline
 62
7
  6
CONTINUOUS
 70
0
 71
3
 72
27
 73
23
 74
0
 42
0.0000001
 43
0.0000001
 44
0.0000000001
 40
0.0
 40
0.0
 40
0.0
 40
0.0
 40
0.1918543348
 40
0.3765698176
 40
0.4640999403
 40
0.5473092068
 40
0.625423866
 40
0.6977198334
 40
0.7635226075
 40
0.8222196719
 40
0.8732678513
 40
0.9161904907
 40
0.9344786989
 40
0.9505912694
 40
0.9644942864
 40
0.9761554906
 40
0.9855469847
 40
0.9926530452
 40
0.9953459437
 40
0.997464923
 40
0.9990125017
 40
1.0
 40
1.0
 40
1.0
 40
1.0
 10
156.230074037
 20
71.7592382481
 30
0.0
 10
156.2485360994
 20
70.4212699424
 30
0.0
 10
156.2847730347
 20
67.7951188243
 30
0.0
 10
156.3310783866
 20
64.5585661431
 30
0.0
 10
156.3686995165
 20
62.07971731
 30
0.0
 10
156.3963922226
 20
60.3442955762
 30
0.0
 10
156.4240619026
 20
58.7151389503
 30
0.0
 10
156.4516982752
 20
57.2074026524
 30
0.0
 10
156.4792902971
 20
55.8351189905
 30
0.0
 10
156.5068103019
 20
54.6110599189
 30
0.0
 10
156.5342372889
 20
53.5466230884
 30
0.0
 10
156.5580324224
 20
52.764024049
 30
0.0
 10
156.5775169859
 20
52.2250795838
 30
0.0
 10
156.5913094843
 20
51.8884630667
 30
0.0
 10
156.6050583901
 20
51.5981110131
 30
0.0
 10
156.6187108731
 20
51.3546846295
 30
0.0
 10
156.6322896394
 20
51.1587640307
 30
0.0
 10
156.6441654254
 20
51.0254082514
 30
0.0
 10
156.6542197949
 20
50.9429081551
 30
0.0
 10
156.6609236959
 20
50.8990142136
 30
0.0
 10
156.6675839853
 20
50.8673069613
 30
0.0
 10
156.6727372128
 20
50.8502124224
 30
0.0
 10
156.6759202798
 20
50.8441047534
 30
0.0
  0
SPLINE
  5
4A0
100
AcDbEntity
  8
0
100
AcDbSpline
 62
7
  6
CONTINUOUS
 70
0
 71
3
 72
54
 73
50
 74
0
 42
0.0000001
 43
0.0000001
 44
0.0000000001
 40
0.0
 40
0.0
 40
0.0
 40
0.0
 40
0.0005230886
 40
0.0013356475
 40
0.0024432468
 40
0.0038471463
 40
0.0075434834
 40
0.0124208503
 40
0.0184703454
 40
0.0256765673
 40
0.0340229199
 40
0.0434910781
 40
0.0656950915
 40
0.092077477
 40
0.1223829167
 40
0.1563209891
 40
0.1935654842
 40
0.2337567494
 40
0.2765091203
 40
0.3214104537
 40
0.4159142912
 40
0.5136377178
 40
0.6108260873
 40
0.7037452982
 40
0.7888258332
 40
0.8273894542
 40
0.8627990934
 40
0.8947124388
 40
0.9228236481
 40
0.9353674005
 40
0.9468628167
 40
0.9572808039
 40
0.9665976376
 40
0.9747916134
 40
0.9818416958
 40
0.9877322837
 40
0.9902389081
 40
0.9924510999
 40
0.9943674758
 40
0.9959870939
 40
0.997310013
 40
0.998337004
 40
0.9987402183
 40
0.9990706421
 40
0.9993295107
 40
0.9995195386
 40
0.9996479998
 40
0.9997386501
 40
1.0
 40
1.0
 40
1.0
 40
1.0
 10
158.4352991754
 20
91.6485565007
 30
0.0
 10
158.4385081404
 20
91.6423995779
 30
0.0
 10
158.443761236
 20
91.6252930854
 30
0.0
 10
158.450536294
 20
91.5936354069
 30
0.0
 10
158.4573649377
 20
91.5499999149
 30
0.0
 10
158.4675852226
 20
91.4682490975
 30
0.0
 10
158.4796701707
 20
91.3363294619
 30
0.0
 10
158.4934826366
 20
91.1427298389
 30
0.0
 10
158.507371589
 20
90.902440266
 30
0.0
 10
158.5213582115
 20
90.6160546507
 30
0.0
 10
158.5353878439
 20
90.2842468529
 30
0.0
 10
158.5552011533
 20
89.7534463608
 30
0.0
 10
158.5794013818
 20
88.9832582534
 30
0.0
 10
158.6072981076
 20
87.9364908444
 30
0.0
 10
158.6352896513
 20
86.733930647
 30
0.0
 10
158.6633540807
 20
85.3871644722
 30
0.0
 10
158.6914630298
 20
83.9091581732
 30
0.0
 10
158.7196058942
 20
82.3141403088
 30
0.0
 10
158.7477715436
 20
80.6174783187
 30
0.0
 10
158.786000102
 20
78.1999901513
 30
0.0
 10
158.8330398401
 20
75.0529162392
 30
0.0
 10
158.8886477001
 20
71.2118841855
 30
0.0
 10
158.9442362033
 20
67.3918867306
 30
0.0
 10
158.9997415874
 20
63.7397164471
 30
0.0
 10
159.0472236913
 20
60.8656454031
 30
0.0
 10
159.0860059474
 20
58.7548684786
 30
0.0
 10
159.1140910617
 20
57.3497076894
 30
0.0
 10
159.1421231807
 20
56.0833118609
 30
0.0
 10
159.1662311579
 20
55.1204068842
 30
0.0
 10
159.1857931191
 20
54.4284870229
 30
0.0
 10
159.1998877693
 20
53.9713513372
 30
0.0
 10
159.2139670789
 20
53.557068443
 30
0.0
 10
159.2280245462
 20
53.1866330002
 30
0.0
 10
159.2420439446
 20
52.8609340386
 30
0.0
 10
159.2560230802
 20
52.5807586116
 30
0.0
 10
159.2681625733
 20
52.3760795165
 30
0.0
 10
159.278086622
 20
52.2356087477
 30
0.0
 10
159.2851091083
 20
52.1478181205
 30
0.0
 10
159.2921118687
 20
52.0718418067
 30
0.0
 10
159.2990804198
 20
52.0077223205
 30
0.0
 10
159.3060097974
 20
51.9554861518
 30
0.0
 10
159.3120843124
 20
51.91943876
 30
0.0
 10
159.3171504408
 20
51.8966113805
 30
0.0
 10
159.3206269025
 20
51.8839142572
 30
0.0
 10
159.3240460015
 20
51.8740948985
 30
0.0
 10
159.3274932113
 20
51.8673121236
 30
0.0
 10
159.3308979528
 20
51.8627935471
 30
0.0
 10
159.3378163097
 20
51.8613348479
 30
0.0
 10
159.3406982017
 20
51.8668329453
 30
0.0
 10
159.3422992569
 20
51.8699102814
 30
0.0
  0
SPLINE
  5
4A1
100
AcDbEntity
  8
0
100
AcDbSpline
 62
7
  6
CONTINUOUS
 70
0
 71
3
 72
27
 73
23
 74
0
 42
0.0000001
 43
0.0000001
 44
0.0000000001
 40
0.0
 40
0.0
 40
0.0
 40
0.0
 40
0.1918543177
 40
0.3765697896
 40
0.4640999041
 40
0.5473091671
 40
0.6254238229
 40
0.6977197859
 40
0.7635225642
 40
0.8222196271
 40
0.873267807
 40
0.9161904587
 40
0.9344786634
 40
0.9505912381
 40
0.9644942655
 40
0.976155468
 40
0.9855469664
 40
0.9926530404
 40
0.9953459424
 40
0.9974649196
 40
0.9990124969
 40
1.0
 40
1.0
 40
1.0
 40
1.0
 10
158.0440669101
 20
71.7592382481
 30
0.0
 10
158.0625286925
 20
70.4212700621
 30
0.0
 10
158.0987664712
 20
67.7951191594
 30
0.0
 10
158.1450717707
 20
64.55856674
 30
0.0
 10
158.1826931688
 20
62.0797180766
 30
0.0
 10
158.2103860116
 20
60.3442964557
 30
0.0
 10
158.2380558417
 20
58.7151399171
 30
0.0
 10
158.2656923678
 20
57.2074036516
 30
0.0
 10
158.2932845341
 20
55.8351200091
 30
0.0
 10
158.3208046859
 20
54.6110609218
 30
0.0
 10
158.348231827
 20
53.5466240206
 30
0.0
 10
158.3720270725
 20
52.764024922
 30
0.0
 10
158.3915117487
 20
52.2250803718
 30
0.0
 10
158.4053043218
 20
51.8884637812
 30
0.0
 10
158.4190532864
 20
51.5981116412
 30
0.0
 10
158.4327058522
 20
51.3546851726
 30
0.0
 10
158.4462846984
 20
51.1587644671
 30
0.0
 10
158.458160534
 20
51.0254085436
 30
0.0
 10
158.4682149475
 20
50.9429083472
 30
0.0
 10
158.4749188899
 20
50.8990144126
 30
0.0
 10
158.4815792301
 20
50.8673071586
 30
0.0
 10
158.4867324833
 20
50.850212608
 30
0.0
 10
158.489915553
 20
50.844104903
 30
0.0
  0
SPLINE
  5
4A2
100
AcDbEntity
  8
0
100
AcDbSpline
 62
7
  6
CONTINUOUS
 70
0
 71
3
 72
54
 73
50
 74
0
 42
0.0000001
 43
0.0000001
 44
0.0000000001
 40
0.0
 40
0.0
 40
0.0
 40
0.0
 40
0.0002595789
 40
0.0003504043
 40
0.0004794286
 40
0.0006700985
 40
0.0009296719
 40
0.0012609162
 40
0.0016651325
 40
0.0026946009
 40
0.0040202022
 40
0.0056421907
 40
0.0075602189
 40
0.0097736605
 40
0.0122817431
 40
0.0181768518
 40
0.0252308029
 40
0.0334269145
 40
0.0427474282
 40
0.0531689843
 40
0.064666043
 40
0.0772125494
 40
0.1053281077
 40
0.1372457991
 40
0.1726572758
 40
0.2112232707
 40
0.2963049009
 40
0.3892229761
 40
0.4864075816
 40
0.5841253813
 40
0.6786223192
 40
0.7235198278
 40
0.7662680665
 40
0.8064563345
 40
0.8436964973
 40
0.8776311976
 40
0.9079341414
 40
0.9343124929
 40
0.9565147508
 40
0.9659809328
 40
0.9743273239
 40
0.9815326849
 40
0.9875803403
 40
0.9924579245
 40
0.9961541245
 40
0.9975572069
 40
0.9986640666
 40
0.9994764623
 40
1.0
 40
1.0
 40
1.0
 40
1.0
 10
158.8627646544
 20
91.6486466318
 30
0.0
 10
158.8643648543
 20
91.6516978814
 30
0.0
 10
158.8672847512
 20
91.6571564749
 30
0.0
 10
158.8741699703
 20
91.6556164881
 30
0.0
 10
158.8775664368
 20
91.6510802718
 30
0.0
 10
158.8810166069
 20
91.6442665794
 30
0.0
 10
158.8844351405
 20
91.6344183882
 30
0.0
 10
158.8879121804
 20
91.6216860799
 30
0.0
 10
158.8929775223
 20
91.598800458
 30
0.0
 10
158.8990506164
 20
91.5626699178
 30
0.0
 10
158.905979026
 20
91.5103331051
 30
0.0
 10
158.912947007
 20
91.4461242729
 30
0.0
 10
158.9199505857
 20
91.370078048
 30
0.0
 10
158.9269737465
 20
91.28222972
 30
0.0
 10
158.9368983495
 20
91.1416632862
 30
0.0
 10
158.9490338215
 20
90.936853721
 30
0.0
 10
158.9630120815
 20
90.6565393735
 30
0.0
 10
158.9770343111
 20
90.3307129986
 30
0.0
 10
158.9910889265
 20
89.9601540718
 30
0.0
 10
159.0051663458
 20
89.5457544711
 30
0.0
 10
159.0192627833
 20
89.0885146461
 30
0.0
 10
159.0388214304
 20
88.3964809583
 30
0.0
 10
159.0629295379
 20
87.4334273093
 30
0.0
 10
159.0909582681
 20
86.166895952
 30
0.0
 10
159.1190438481
 20
84.7616264273
 30
0.0
 10
159.1578219128
 20
82.6507862775
 30
0.0
 10
159.2053025177
 20
79.7766941749
 30
0.0
 10
159.2608042881
 20
76.1245869648
 30
0.0
 10
159.3163900728
 20
72.3047424111
 30
0.0
 10
159.3719948536
 20
68.4639398367
 30
0.0
 10
159.4190322472
 20
65.3170938249
 30
0.0
 10
159.4572586098
 20
62.8998111973
 30
0.0
 10
159.4854234925
 20
61.2033004767
 30
0.0
 10
159.5135635143
 20
59.608440233
 30
0.0
 10
159.5416719059
 20
58.1305811005
 30
0.0
 10
159.5697352169
 20
56.7839549836
 30
0.0
 10
159.5977227929
 20
55.5815303081
 30
0.0
 10
159.6256220752
 20
54.5348766128
 30
0.0
 10
159.6498160737
 20
53.764794085
 30
0.0
 10
159.6696328845
 20
53.2340446158
 30
0.0
 10
159.6836589969
 20
52.9022750069
 30
0.0
 10
159.6976436352
 20
52.615925643
 30
0.0
 10
159.7115366839
 20
52.375670156
 30
0.0
 10
159.7253459608
 20
52.1820944496
 30
0.0
 10
159.7374261964
 20
52.0501846313
 30
0.0
 10
159.7476491065
 20
51.9684569213
 30
0.0
 10
159.754479123
 20
51.9248451416
 30
0.0
 10
159.7612558398
 20
51.8931936119
 30
0.0
 10
159.7665071555
 20
51.8760837286
 30
0.0
 10
159.7697141462
 20
51.8699190842
 30
0.0
  0
SPLINE
  5
4A3
100
AcDbEntity
  8
0
100
AcDbSpline
 62
7
  6
CONTINUOUS
 70
0
 71
3
 72
27
 73
23
 74
0
 42
0.0000001
 43
0.0000001
 44
0.0000000001
 40
0.0
 40
0.0
 40
0.0
 40
0.0
 40
0.1918543017
 40
0.3765698082
 40
0.4640998956
 40
0.5473091711
 40
0.6254238285
 40
0.6977197638
 40
0.7635225967
 40
0.8222196305
 40
0.8732677825
 40
0.9161905215
 40
0.9344786506
 40
0.9505912373
 40
0.9644943365
 40
0.9761554664
 40
0.9855469637
 40
0.9926531297
 40
0.9953460362
 40
0.9974649506
 40
0.9990124797
 40
1.0
 40
1.0
 40
1.0
 40
1.0
 10
159.8580685449
 20
71.7592382481
 30
0.0
 10
159.8765304301
 20
70.4212702272
 30
0.0
 10
159.9127683024
 20
67.7951192974
 30
0.0
 10
159.9590737945
 20
64.558567066
 30
0.0
 10
159.9966953464
 20
62.079718361
 30
0.0
 10
160.0243882845
 20
60.3442969
 30
0.0
 10
160.0520582098
 20
58.7151405206
 30
0.0
 10
160.0796948729
 20
57.2074041173
 30
0.0
 10
160.1072871016
 20
55.8351205452
 30
0.0
 10
160.1348073522
 20
54.6110615241
 30
0.0
 10
160.1622346856
 20
53.5466244578
 30
0.0
 10
160.1860298535
 20
52.7640254991
 30
0.0
 10
160.2055147225
 20
52.2250808109
 30
0.0
 10
160.2193073639
 20
51.8884641795
 30
0.0
 10
160.2330562221
 20
51.5981119674
 30
0.0
 10
160.2467089747
 20
51.3546855319
 30
0.0
 10
160.2602879518
 20
51.1587647151
 30
0.0
 10
160.2721636871
 20
51.0254081252
 30
0.0
 10
160.2822180457
 20
50.9429076813
 30
0.0
 10
160.2889220997
 20
50.8990145244
 30
0.0
 10
160.2955826248
 20
50.8673079507
 30
0.0
 10
160.3007358643
 20
50.8502136736
 30
0.0
 10
160.3039188404
 20
50.8441057845
 30
0.0
  0
SPLINE
  5
4A4
100
AcDbEntity
  8
0
100
AcDbSpline
 62
7
  6
CONTINUOUS
 70
0
 71
3
 72
11
 73
7
 74
0
 42
0.0000001
 43
0.0000001
 44
0.0000000001
 40
0.0
 40
0.0
 40
0.0
 40
0.0
 40
0.2504864098
 40
0.5000000014
 40
0.7495135935
 40
1.0
 40
1.0
 40
1.0
 40
1.0
 10
144.0087569719
 20
94.8228298
 30
0.0
 10
144.1839788461
 20
93.8154356923
 30
0.0
 10
144.4590039009
 20
91.7903257739
 30
0.0
 10
144.6024593497
 20
88.7298009769
 30
0.0
 10
144.4590039109
 20
85.6692761922
 30
0.0
 10
144.1839788437
 20
83.6441662873
 30
0.0
 10
144.0087569719
 20
82.6367721931
 30
0.0
  0
SPLINE
  5
4A5
100
AcDbEntity
  8
0
100
AcDbSpline
 62
7
  6
CONTINUOUS
 70
0
 71
3
 72
54
 73
50
 74
0
 42
0.0000001
 43
0.0000001
 44
0.0000000001
 40
0.0
 40
0.0
 40
0.0
 40
0.0
 40
0.000523677
 40
0.0013364668
 40
0.0024437899
 40
0.0038472141
 40
0.0075432987
 40
0.012421653
 40
0.0184705565
 40
0.0256762976
 40
0.034023634
 40
0.0434914222
 40
0.0656956565
 40
0.0920772447
 40
0.1223834282
 40
0.1563212015
 40
0.1935654465
 40
0.2337572347
 40
0.2765091172
 40
0.3214105999
 40
0.4159143161
 40
0.5136377799
 40
0.6108261428
 40
0.7037455784
 40
0.7888260312
 40
0.8273896643
 40
0.8627987179
 40
0.8947128964
 40
0.9228236297
 40
0.9353679395
 40
0.9468624877
 40
0.9572806421
 40
0.9665982054
 40
0.9747914194
 40
0.9818413959
 40
0.9877328252
 40
0.9902394426
 40
0.992451091
 40
0.9943669834
 40
0.9959866817
 40
0.9973100268
 40
0.9983374634
 40
0.9987408069
 40
0.9990712457
 40
0.999329982
 40
0.9995197616
 40
0.999647988
 40
0.9997385871
 40
1.0
 40
1.0
 40
1.0
 40
1.0
 10
156.6213002207
 20
91.648569644
 30
0.0
 10
156.6245085403
 20
91.6424035784
 30
0.0
 10
156.6297590824
 20
91.6252855559
 30
0.0
 10
156.636535831
 20
91.5936207032
 30
0.0
 10
156.6433656884
 20
91.5499925022
 30
0.0
 10
156.6535880532
 20
91.4682552761
 30
0.0
 10
156.6656728496
 20
91.336332082
 30
0.0
 10
156.6794805238
 20
91.1427301757
 30
0.0
 10
156.6933730802
 20
90.9024418981
 30
0.0
 10
156.7073603765
 20
90.6160573901
 30
0.0
 10
156.7213868741
 20
90.2842476058
 30
0.0
 10
156.7412030769
 20
89.7534359896
 30
0.0
 10
156.7654005234
 20
88.9832601366
 30
0.0
 10
156.7932997436
 20
87.9364902846
 30
0.0
 10
156.8212890167
 20
86.7339343727
 30
0.0
 10
156.8493543403
 20
85.387165259
 30
0.0
 10
156.877463348
 20
83.909158893
 30
0.0
 10
156.9056052656
 20
82.3141434264
 30
0.0
 10
156.9337716284
 20
80.6174785307
 30
0.0
 10
156.9719994506
 20
78.1999957835
 30
0.0
 10
157.0190393931
 20
75.0529201247
 30
0.0
 10
157.0746468273
 20
71.2118881895
 30
0.0
 10
157.1302353259
 20
67.3918862736
 30
0.0
 10
157.1857401284
 20
63.7397131515
 30
0.0
 10
157.2332225494
 20
60.8656392554
 30
0.0
 10
157.272003903
 20
58.7548704242
 30
0.0
 10
157.3000904379
 20
57.3497058244
 30
0.0
 10
157.3281201758
 20
56.0833126181
 30
0.0
 10
157.3522306052
 20
55.1203952945
 30
0.0
 10
157.3717900402
 20
54.4284856118
 30
0.0
 10
157.3858865411
 20
53.9713517554
 30
0.0
 10
157.3999657653
 20
53.5570683655
 30
0.0
 10
157.4140209177
 20
53.1866309356
 30
0.0
 10
157.4280423204
 20
52.8609337972
 30
0.0
 10
157.4420223911
 20
52.5807587016
 30
0.0
 10
157.4541596378
 20
52.3760697308
 30
0.0
 10
157.4640834143
 20
52.2355950238
 30
0.0
 10
157.4711066995
 20
52.1478181936
 30
0.0
 10
157.4781106941
 20
52.0718545953
 30
0.0
 10
157.4850790549
 20
52.007734786
 30
0.0
 10
157.4920079735
 20
51.9554858071
 30
0.0
 10
157.4980816267
 20
51.9194248299
 30
0.0
 10
157.5031476637
 20
51.8965893401
 30
0.0
 10
157.5066234662
 20
51.8838919736
 30
0.0
 10
157.5100425896
 20
51.8740773676
 30
0.0
 10
157.5134888112
 20
51.8673038354
 30
0.0
 10
157.5168984326
 20
51.8627950271
 30
0.0
 10
157.5238170067
 20
51.861361904
 30
0.0
 10
157.5266946343
 20
51.8668523325
 30
0.0
 10
157.5282967777
 20
51.8699300468
 30
0.0
  0
SPLINE
  5
4A6
100
AcDbEntity
  8
0
100
AcDbSpline
 62
7
  6
CONTINUOUS
 70
0
 71
3
 72
54
 73
50
 74
0
 42
0.0000001
 43
0.0000001
 44
0.0000000001
 40
0.0
 40
0.0
 40
0.0
 40
0.0
 40
0.0002598468
 40
0.0003506647
 40
0.0004797756
 40
0.0006706842
 40
0.0009305662
 40
0.0012620866
 40
0.0016664478
 40
0.0026957753
 40
0.0040209233
 40
0.0056424755
 40
0.0075604163
 40
0.0097743402
 40
0.0122829736
 40
0.01817771
 40
0.0252309713
 40
0.0334279804
 40
0.0427483907
 40
0.0531691793
 40
0.0646669003
 40
0.0772135688
 40
0.1053287494
 40
0.1372461385
 40
0.1726582317
 40
0.2112235827
 40
0.2963055755
 40
0.3892234209
 40
0.4864078378
 40
0.5841254796
 40
0.6786221881
 40
0.7235199451
 40
0.7662681513
 40
0.8064558823
 40
0.8436967356
 40
0.8776309552
 40
0.9079336072
 40
0.9343127402
 40
0.9565141264
 40
0.9659811141
 40
0.9743270004
 40
0.9815318993
 40
0.9875804114
 40
0.9924577646
 40
0.9961532274
 40
0.9975566505
 40
0.9986639896
 40
0.9994766722
 40
1.0
 40
1.0
 40
1.0
 40
1.0
 10
157.0487657761
 20
91.6486552478
 30
0.0
 10
157.0503658317
 20
91.6517105923
 30
0.0
 10
157.0532807148
 20
91.6571792193
 30
0.0
 10
157.0601729621
 20
91.6556417204
 30
0.0
 10
157.0635681148
 20
91.6510973574
 30
0.0
 10
157.0670174744
 20
91.64427481
 30
0.0
 10
157.0704355136
 20
91.6344145494
 30
0.0
 10
157.073912344
 20
91.6216723028
 30
0.0
 10
157.0789770963
 20
91.5987826919
 30
0.0
 10
157.0850511377
 20
91.5626584068
 30
0.0
 10
157.0919802589
 20
91.5103353784
 30
0.0
 10
157.0989487406
 20
91.4461395724
 30
0.0
 10
157.1059524584
 20
91.3700938052
 30
0.0
 10
157.1129745204
 20
91.2822326882
 30
0.0
 10
157.1228972948
 20
91.1416571727
 30
0.0
 10
157.1350346832
 20
90.9368542946
 30
0.0
 10
157.1490145567
 20
90.656541863
 30
0.0
 10
157.1630336895
 20
90.3307135792
 30
0.0
 10
157.1770891188
 20
89.9601538965
 30
0.0
 10
157.1911680749
 20
89.5457566211
 30
0.0
 10
157.2052627024
 20
89.0885154405
 30
0.0
 10
157.2248217182
 20
88.3964750092
 30
0.0
 10
157.2489298492
 20
87.4334270904
 30
0.0
 10
157.2769589783
 20
86.1668950763
 30
0.0
 10
157.3050432338
 20
84.7616282306
 30
0.0
 10
157.3438226668
 20
82.6507811436
 30
0.0
 10
157.3913017656
 20
79.7766923787
 30
0.0
 10
157.4468039279
 20
76.1245815694
 30
0.0
 10
157.502389375
 20
72.3047401157
 30
0.0
 10
157.5579938774
 20
68.4639406134
 30
0.0
 10
157.6050313785
 20
65.3170927031
 30
0.0
 10
157.6432573291
 20
62.8998073713
 30
0.0
 10
157.6714218557
 20
61.2032988869
 30
0.0
 10
157.6995627361
 20
59.6084351532
 30
0.0
 10
157.7276698092
 20
58.1305785809
 30
0.0
 10
157.7557334668
 20
56.7839519543
 30
0.0
 10
157.7837221941
 20
55.5815257639
 30
0.0
 10
157.8116182651
 20
54.5348757989
 30
0.0
 10
157.8358163542
 20
53.7647829894
 30
0.0
 10
157.85562969
 20
53.2340403412
 30
0.0
 10
157.8696566796
 20
52.9022725059
 30
0.0
 10
157.8836434418
 20
52.6159243788
 30
0.0
 10
157.8975334405
 20
52.3756662687
 30
0.0
 10
157.9113415521
 20
52.1820916966
 30
0.0
 10
157.9234268376
 20
52.0501904962
 30
0.0
 10
157.9336476365
 20
51.9684615213
 30
0.0
 10
157.9404765891
 20
51.9248343257
 30
0.0
 10
157.9472521538
 20
51.8931757323
 30
0.0
 10
157.9525021583
 20
51.8760631444
 30
0.0
 10
157.9557118145
 20
51.8699030203
 30
0.0
  0
SPLINE
  5
4A7
100
AcDbEntity
  8
0
100
AcDbSpline
 62
7
  6
CONTINUOUS
 70
0
 71
3
 72
31
 73
27
 74
0
 42
0.0000001
 43
0.0000001
 44
0.0000000001
 40
0.0
 40
0.0
 40
0.0
 40
0.0
 40
0.0004534412
 40
0.0014179737
 40
0.0029602182
 40
0.0050930284
 40
0.0078192662
 40
0.0111388647
 40
0.0195533498
 40
0.0303237194
 40
0.0434268713
 40
0.0588297006
 40
0.0764979258
 40
0.0963903359
 40
0.1184564871
 40
0.1426451015
 40
0.168899255
 40
0.2273405553
 40
0.2932215957
 40
0.3659064509
 40
0.4446947494
 40
0.5288305984
 40
0.617504236
 40
0.7098567831
 40
0.8049994787
 40
1.0
 40
1.0
 40
1.0
 40
1.0
 10
160.614438122
 20
50.8367647821
 30
0.0
 10
160.6112739822
 20
50.836774115
 30
0.0
 10
160.6044605229
 20
50.8468254023
 30
0.0
 10
160.5991373306
 20
50.8653340992
 30
0.0
 10
160.5919240577
 20
50.8976811278
 30
0.0
 10
160.5853205447
 20
50.9415577138
 30
0.0
 10
160.5783014159
 20
50.9983193999
 30
0.0
 10
160.5682270018
 20
51.0986710045
 30
0.0
 10
160.5560677289
 20
51.2552887927
 30
0.0
 10
160.5422202931
 20
51.4801596544
 30
0.0
 10
160.5282823546
 20
51.7538887925
 30
0.0
 10
160.5142761499
 20
52.0757919056
 30
0.0
 10
160.5002333493
 20
52.4451109683
 30
0.0
 10
160.486164832
 20
52.8609548618
 30
0.0
 10
160.4720757237
 20
53.3223214843
 30
0.0
 10
160.4579725984
 20
53.8280991451
 30
0.0
 10
160.438451746
 20
54.5876516835
 30
0.0
 10
160.4143623159
 20
55.6381137671
 30
0.0
 10
160.3863138596
 20
57.0125625197
 30
0.0
 10
160.3582171505
 20
58.5290201555
 30
0.0
 10
160.330082831
 20
60.17288071
 30
0.0
 10
160.3019241273
 20
61.9283272034
 30
0.0
 10
160.2737472552
 20
63.7784374167
 30
0.0
 10
160.2455576676
 20
65.7053626994
 30
0.0
 10
160.2076496541
 20
68.3741835282
 30
0.0
 10
160.17972572
 20
70.3986365714
 30
0.0
 10
160.1609478686
 20
71.7592382481
 30
0.0
  0
SPLINE
  5
4A8
100
AcDbEntity
  8
0
100
AcDbSpline
 62
7
  6
CONTINUOUS
 70
0
 71
3
 72
31
 73
27
 74
0
 42
0.0000001
 43
0.0000001
 44
0.0000000001
 40
0.0
 40
0.0
 40
0.0
 40
0.0
 40
0.0004528725
 40
0.0014165993
 40
0.0029579676
 40
0.0050899054
 40
0.0078153761
 40
0.0111342799
 40
0.0195474479
 40
0.0303164212
 40
0.0434184592
 40
0.0588203435
 40
0.0764875711
 40
0.0963792369
 40
0.1184448242
 40
0.1426328568
 40
0.1688866383
 40
0.2273275493
 40
0.293208731
 40
0.3658940871
 40
0.4446833501
 40
0.528820522
 40
0.6174957518
 40
0.7098502521
 40
0.8049950081
 40
1.0
 40
1.0
 40
1.0
 40
1.0
 10
158.8004427942
 20
50.8367639542
 30
0.0
 10
158.7972826078
 20
50.8367651136
 30
0.0
 10
158.7904588221
 20
50.8468030079
 30
0.0
 10
158.7851439855
 20
50.865296783
 30
0.0
 10
158.7779263645
 20
50.8976251526
 30
0.0
 10
158.7713247219
 20
50.9414841545
 30
0.0
 10
158.7643048577
 20
50.9982294264
 30
0.0
 10
158.7542304688
 20
51.0985615692
 30
0.0
 10
158.7420708108
 20
51.2551555679
 30
0.0
 10
158.7282228815
 20
51.4799997406
 30
0.0
 10
158.714284816
 20
51.7537048625
 30
0.0
 10
158.7002784441
 20
52.0755867672
 30
0.0
 10
158.6862352041
 20
52.4448872207
 30
0.0
 10
158.6721664592
 20
52.8607151986
 30
0.0
 10
158.6580771218
 20
53.3220688307
 30
0.0
 10
158.6439735986
 20
53.8278361186
 30
0.0
 10
158.6244523355
 20
54.5873796209
 30
0.0
 10
158.6003623238
 20
55.637837847
 30
0.0
 10
158.5723133363
 20
57.0122889857
 30
0.0
 10
158.5442159847
 20
58.5287585195
 30
0.0
 10
158.5160810929
 20
60.1726392791
 30
0.0
 10
158.48792182
 20
61.9281136457
 30
0.0
 10
158.4597442797
 20
63.7782586744
 30
0.0
 10
158.4315540589
 20
65.7052239558
 30
0.0
 10
158.3936458247
 20
68.3741052167
 30
0.0
 10
158.365719481
 20
70.3986047349
 30
0.0
 10
158.3469425289
 20
71.7592382481
 30
0.0
  0
SPLINE
  5
4A9
100
AcDbEntity
  8
0
100
AcDbSpline
 62
7
  6
CONTINUOUS
 70
0
 71
3
 72
31
 73
27
 74
0
 42
0.0000001
 43
0.0000001
 44
0.0000000001
 40
0.0
 40
0.0
 40
0.0
 40
0.0
 40
0.0004528087
 40
0.0014164767
 40
0.0029578512
 40
0.0050898178
 40
0.007815249
 40
0.011134075
 40
0.0195471018
 40
0.0303161107
 40
0.0434180659
 40
0.0588198381
 40
0.0764871064
 40
0.096378718
 40
0.1184442144
 40
0.1426322819
 40
0.168886039
 40
0.2273269345
 40
0.293208082
 40
0.3658934973
 40
0.4446827951
 40
0.5288200243
 40
0.6174953622
 40
0.7098498979
 40
0.804994771
 40
1.0
 40
1.0
 40
1.0
 40
1.0
 10
156.9864418361
 20
50.8367642545
 30
0.0
 10
156.9832820944
 20
50.8367644855
 30
0.0
 10
156.9764570376
 20
50.8468011698
 30
0.0
 10
156.9711432497
 20
50.8652942094
 30
0.0
 10
156.9639252724
 20
50.8976224559
 30
0.0
 10
156.9573240031
 20
50.9414814376
 30
0.0
 10
156.9503039646
 20
50.9982260769
 30
0.0
 10
156.9402295838
 20
51.0985564076
 30
0.0
 10
156.9280698
 20
51.2551491204
 30
0.0
 10
156.9142222014
 20
51.4799919999
 30
0.0
 10
156.9002840364
 20
51.7536960074
 30
0.0
 10
156.8862776283
 20
52.0755768403
 30
0.0
 10
156.8722345512
 20
52.4448764306
 30
0.0
 10
156.8581657907
 20
52.860703687
 30
0.0
 10
156.844076431
 20
53.3220565585
 30
0.0
 10
156.8299730211
 20
53.8278232979
 30
0.0
 10
156.8104517546
 20
54.58736678
 30
0.0
 10
156.7863618309
 20
55.637824512
 30
0.0
 10
156.758312872
 20
57.012275745
 30
0.0
 10
156.7302156245
 20
58.528745729
 30
0.0
 10
156.7020807842
 20
60.1726275784
 30
0.0
 10
156.6739215933
 20
61.9281033787
 30
0.0
 10
156.6457441033
 20
63.7782498467
 30
0.0
 10
156.6175539124
 20
65.7052169855
 30
0.0
 10
156.5796462065
 20
68.3741010262
 30
0.0
 10
156.5517186616
 20
70.39860304
 30
0.0
 10
156.5329426512
 20
71.7592382481
 30
0.0
  0
SPLINE
  5
4AA
100
AcDbEntity
  8
0
100
AcDbSpline
 62
7
  6
CONTINUOUS
 70
0
 71
3
 72
31
 73
27
 74
0
 42
0.0000001
 43
0.0000001
 44
0.0000000001
 40
0.0
 40
0.0
 40
0.0
 40
0.0
 40
0.0004528023
 40
0.0014164651
 40
0.0029578405
 40
0.0050898094
 40
0.007815237
 40
0.0111340564
 40
0.0195470714
 40
0.0303160841
 40
0.0434180321
 40
0.0588197951
 40
0.0764870675
 40
0.0963786744
 40
0.1184441631
 40
0.1426322342
 40
0.1688859892
 40
0.2273268837
 40
0.2932080283
 40
0.3658934488
 40
0.4446827495
 40
0.5288199835
 40
0.6174953304
 40
0.7098498687
 40
0.8049947515
 40
1.0
 40
1.0
 40
1.0
 40
1.0
 10
155.172447828
 20
50.8367642803
 30
0.0
 10
155.1692881314
 20
50.8367644331
 30
0.0
 10
155.1624630006
 20
50.8468010377
 30
0.0
 10
155.1571493294
 20
50.8652940019
 30
0.0
 10
155.1499313565
 20
50.8976222539
 30
0.0
 10
155.1433301476
 20
50.9414812348
 30
0.0
 10
155.1363101266
 20
50.9982258224
 30
0.0
 10
155.1262357922
 20
51.0985560023
 30
0.0
 10
155.1140760539
 20
51.2551486161
 30
0.0
 10
155.1002285478
 20
51.4799913951
 30
0.0
 10
155.0862904377
 20
51.753695316
 30
0.0
 10
155.0722840913
 20
52.0755760645
 30
0.0
 10
155.0582410935
 20
52.4448755877
 30
0.0
 10
155.0441723965
 20
52.8607027877
 30
0.0
 10
155.0300831004
 20
53.3220555984
 30
0.0
 10
155.0159797662
 20
53.8278222948
 30
0.0
 10
154.9964585901
 20
54.5873657802
 30
0.0
 10
154.9723687872
 20
55.6378234698
 30
0.0
 10
154.9443199624
 20
57.0122747102
 30
0.0
 10
154.9162228569
 20
58.5287447278
 30
0.0
 10
154.8880881545
 20
60.1726266636
 30
0.0
 10
154.859929104
 20
61.9281025768
 30
0.0
 10
154.831751755
 20
63.7782491547
 30
0.0
 10
154.8035617039
 20
65.7052164382
 30
0.0
 10
154.7656542042
 20
68.3741006946
 30
0.0
 10
154.7377267582
 20
70.3986029068
 30
0.0
 10
154.7189508735
 20
71.7592382481
 30
0.0
  0
SPLINE
  5
4AB
100
AcDbEntity
  8
0
100
AcDbSpline
 62
7
  6
CONTINUOUS
 70
0
 71
3
 72
54
 73
50
 74
0
 42
0.0000001
 43
0.0000001
 44
0.0000000001
 40
0.0
 40
0.0
 40
0.0
 40
0.0
 40
0.0005234816
 40
0.0013358136
 40
0.002442739
 40
0.003846154
 40
0.0075432734
 40
0.0124211547
 40
0.0184694596
 40
0.0256761714
 40
0.0340232894
 40
0.0434903737
 40
0.0656954484
 40
0.092076844
 40
0.1223826587
 40
0.1563211666
 40
0.1935648965
 40
0.2337568419
 40
0.2765091058
 40
0.3214101831
 40
0.4159142651
 40
0.5136378558
 40
0.6108264434
 40
0.7037459302
 40
0.7888261062
 40
0.8273904555
 40
0.862799241
 40
0.8947131033
 40
0.9228247366
 40
0.9353683063
 40
0.9468628775
 40
0.9572818143
 40
0.9665987814
 40
0.9747917286
 40
0.9818425665
 40
0.9877336333
 40
0.9902397041
 40
0.9924513358
 40
0.9943676181
 40
0.9959877882
 40
0.9973113637
 40
0.998338493
 40
0.9987415255
 40
0.999071675
 40
0.9993302406
 40
0.9995200032
 40
0.9996483077
 40
0.9997389434
 40
1.0
 40
1.0
 40
1.0
 40
1.0
 10
154.8073103643
 20
91.6485475449
 30
0.0
 10
154.8105172316
 20
91.6423836576
 30
0.0
 10
154.8157693423
 20
91.6252756892
 30
0.0
 10
154.8225465059
 20
91.5936248306
 30
0.0
 10
154.8293770441
 20
91.5500085275
 30
0.0
 10
154.839599577
 20
91.4682629241
 30
0.0
 10
154.8516789427
 20
91.336332091
 30
0.0
 10
154.8654910825
 20
91.1427312848
 30
0.0
 10
154.8793846412
 20
90.9024446783
 30
0.0
 10
154.8933683751
 20
90.6160583323
 30
0.0
 10
154.9073962935
 20
90.2842483995
 30
0.0
 10
154.9272140573
 20
89.7534386058
 30
0.0
 10
154.9514086027
 20
88.9832643925
 30
0.0
 10
154.9793090403
 20
87.9364922235
 30
0.0
 10
155.0072985883
 20
86.7339355605
 30
0.0
 10
155.0353624494
 20
85.3871701319
 30
0.0
 10
155.0634724351
 20
83.9091606844
 30
0.0
 10
155.0916138255
 20
82.3141469464
 30
0.0
 10
155.1197796681
 20
80.617482456
 30
0.0
 10
155.158008038
 20
78.1999982891
 30
0.0
 10
155.2050470714
 20
75.052925505
 30
0.0
 10
155.2606544732
 20
71.211888986
 30
0.0
 10
155.3162426049
 20
67.3918866288
 30
0.0
 10
155.3717467855
 20
63.739718204
 30
0.0
 10
155.4192299797
 20
60.8656415042
 30
0.0
 10
155.4580100229
 20
58.7548730917
 30
0.0
 10
155.48609657
 20
57.3497085464
 30
0.0
 10
155.5141275215
 20
56.0833128083
 30
0.0
 10
155.5382353321
 20
55.1203987297
 30
0.0
 10
155.5577964649
 20
54.4284875557
 30
0.0
 10
155.5718932293
 20
53.9713534323
 30
0.0
 10
155.5859703888
 20
53.5570677253
 30
0.0
 10
155.6000267962
 20
53.1866318849
 30
0.0
 10
155.6140494998
 20
52.8609352501
 30
0.0
 10
155.6280267355
 20
52.5807572972
 30
0.0
 10
155.6401639197
 20
52.3760691968
 30
0.0
 10
155.6500897398
 20
52.235607136
 30
0.0
 10
155.6571129529
 20
52.1478327293
 30
0.0
 10
155.6641164811
 20
52.071857934
 30
0.0
 10
155.6710841913
 20
52.007723545
 30
0.0
 10
155.678011829
 20
51.9554692133
 30
0.0
 10
155.6840854525
 20
51.9194133457
 30
0.0
 10
155.6891527376
 20
51.8965905694
 30
0.0
 10
155.6926291137
 20
51.8839037735
 30
0.0
 10
155.6960486695
 20
51.8740965821
 30
0.0
 10
155.6994955874
 20
51.8673239136
 30
0.0
 10
155.7029034042
 20
51.8628152742
 30
0.0
 10
155.7098144847
 20
51.8613645545
 30
0.0
 10
155.7127002911
 20
51.8668475142
 30
0.0
 10
155.714301968
 20
51.8699201337
 30
0.0
  0
SPLINE
  5
4AC
100
AcDbEntity
  8
0
100
AcDbSpline
 62
7
  6
CONTINUOUS
 70
0
 71
3
 72
54
 73
50
 74
0
 42
0.0000001
 43
0.0000001
 44
0.0000000001
 40
0.0
 40
0.0
 40
0.0
 40
0.0
 40
0.00025944
 40
0.0003503206
 40
0.0004795763
 40
0.0006705153
 40
0.0009303046
 40
0.0012616421
 40
0.0016657698
 40
0.0026946444
 40
0.0040196381
 40
0.005641608
 40
0.0075601508
 40
0.0097741849
 40
0.0122824753
 40
0.0181764675
 40
0.0252305793
 40
0.0334276458
 40
0.0427472653
 40
0.05316865
 40
0.0646667001
 40
0.0772126137
 40
0.1053286434
 40
0.1372454341
 40
0.1726576863
 40
0.2112235346
 40
0.2963053901
 40
0.3892231572
 40
0.4864077723
 40
0.5841255209
 40
0.6786225389
 40
0.7235199506
 40
0.7662687363
 40
0.8064562552
 40
0.8436968218
 40
0.8776318435
 40
0.9079338321
 40
0.9343131364
 40
0.956515075
 40
0.9659817196
 40
0.9743270382
 40
0.9815327805
 40
0.9875812226
 40
0.9924577444
 40
0.9961539871
 40
0.9975577526
 40
0.9986649661
 40
0.9994770503
 40
1.0
 40
1.0
 40
1.0
 40
1.0
 10
155.23477612
 20
91.6486767243
 30
0.0
 10
155.2363748167
 20
91.6517266797
 30
0.0
 10
155.239300898
 20
91.6571896509
 30
0.0
 10
155.2461839771
 20
91.6556236926
 30
0.0
 10
155.2495761548
 20
91.6510780184
 30
0.0
 10
155.2530272457
 20
91.6442533811
 30
0.0
 10
155.2564453298
 20
91.6343973435
 30
0.0
 10
155.2599225593
 20
91.6216619511
 30
0.0
 10
155.2649876916
 20
91.5987843893
 30
0.0
 10
155.2710624417
 20
91.5626714619
 30
0.0
 10
155.2779917124
 20
91.5103510673
 30
0.0
 10
155.2849588826
 20
91.4461436202
 30
0.0
 10
155.2919614062
 20
91.3700827935
 30
0.0
 10
155.2989838777
 20
91.2822169081
 30
0.0
 10
155.3089073669
 20
91.1416546188
 30
0.0
 10
155.3210466877
 20
90.9368552414
 30
0.0
 10
155.3350230248
 20
90.656540797
 30
0.0
 10
155.3490427515
 20
90.3307113969
 30
0.0
 10
155.3631000163
 20
89.9601540584
 30
0.0
 10
155.3771772128
 20
89.5457554456
 30
0.0
 10
155.3912714179
 20
89.0885125567
 30
0.0
 10
155.4108325339
 20
88.3964674146
 30
0.0
 10
155.434937707
 20
87.4334272982
 30
0.0
 10
155.4629686838
 20
86.1668914476
 30
0.0
 10
155.491052121
 20
84.7616255427
 30
0.0
 10
155.5298309724
 20
82.6507741532
 30
0.0
 10
155.5773102561
 20
79.7766851869
 30
0.0
 10
155.6328120979
 20
76.1245790958
 30
0.0
 10
155.6883970726
 20
72.3047393244
 30
0.0
 10
155.7440015551
 20
68.4639363885
 30
0.0
 10
155.7910381667
 20
65.3170913922
 30
0.0
 10
155.8292647654
 20
62.8998018268
 30
0.0
 10
155.857428394
 20
61.2032951211
 30
0.0
 10
155.8855693264
 20
59.6084322775
 30
0.0
 10
155.9136770717
 20
58.1305735106
 30
0.0
 10
155.9417389833
 20
56.7839504669
 30
0.0
 10
155.9697289488
 20
55.5815216673
 30
0.0
 10
155.9976247927
 20
54.5348721844
 30
0.0
 10
156.0218218044
 20
53.764775238
 30
0.0
 10
156.0416350517
 20
53.2340379954
 30
0.0
 10
156.0556641948
 20
52.9022715589
 30
0.0
 10
156.0696484521
 20
52.615920941
 30
0.0
 10
156.0835371628
 20
52.3756637946
 30
0.0
 10
156.0973503498
 20
52.1820914326
 30
0.0
 10
156.1094329108
 20
52.050186367
 30
0.0
 10
156.1196520524
 20
51.9684438957
 30
0.0
 10
156.1264798959
 20
51.924821799
 30
0.0
 10
156.133256538
 20
51.8931779344
 30
0.0
 10
156.1385092549
 20
51.8760802354
 30
0.0
 10
156.1417172044
 20
51.8699248908
 30
0.0
  0
SPLINE
  5
4AD
100
AcDbEntity
  8
0
100
AcDbSpline
 62
7
  6
CONTINUOUS
 70
0
 71
3
 72
10
 73
6
 74
0
 42
0.0000001
 43
0.0000001
 44
0.0000000001
 40
0.0
 40
0.0
 40
0.0
 40
0.0
 40
0.2485539576
 40
0.4977619045
 40
1.0
 40
1.0
 40
1.0
 40
1.0
 10
153.6892730575
 20
88.7298009964
 30
0.0
 10
153.6892730575
 20
89.2410348353
 30
0.0
 10
153.6513078091
 20
90.2652946894
 30
0.0
 10
153.4261448233
 20
92.3110714579
 30
0.0
 10
153.0979989229
 20
93.8270179542
 30
0.0
 10
152.8232476537
 20
94.8228298
 30
0.0
  0
SPLINE
  5
4AE
100
AcDbEntity
  8
0
100
AcDbSpline
 62
7
  6
CONTINUOUS
 70
0
 71
3
 72
9
 73
5
 74
0
 42
0.0000001
 43
0.0000001
 44
0.0000000001
 40
0.0
 40
0.0
 40
0.0
 40
0.0
 40
0.4999853614
 40
1.0
 40
1.0
 40
1.0
 40
1.0
 10
153.6892730576
 20
71.7592382497
 30
0.0
 10
153.6892730575
 20
73.2042743791
 30
0.0
 10
153.5365855272
 20
76.0963260646
 30
0.0
 10
153.0999672088
 20
78.9577027708
 30
0.0
 10
152.8232476537
 20
80.3760822179
 30
0.0
  0
SPLINE
  5
4AF
100
AcDbEntity
  8
0
100
AcDbSpline
 62
7
  6
CONTINUOUS
 70
0
 71
3
 72
9
 73
5
 74
0
 42
0.0000001
 43
0.0000001
 44
0.0000000001
 40
0.0
 40
0.0
 40
0.0
 40
0.0
 40
0.5000185109
 40
1.0
 40
1.0
 40
1.0
 40
1.0
 10
152.8232476537
 20
63.1423942783
 30
0.0
 10
153.0999694183
 20
64.5607850503
 30
0.0
 10
153.5366292068
 20
67.4221573979
 30
0.0
 10
153.6892730576
 20
70.3142129647
 30
0.0
 10
153.6892730576
 20
71.7592382497
 30
0.0
  0
SPLINE
  5
4B0
100
AcDbEntity
  8
0
100
AcDbSpline
 62
7
  6
CONTINUOUS
 70
0
 71
3
 72
9
 73
5
 74
0
 42
0.0000001
 43
0.0000001
 44
0.0000000001
 40
0.0
 40
0.0
 40
0.0
 40
0.0
 40
0.4999938904
 40
1.0
 40
1.0
 40
1.0
 40
1.0
 10
144.5547123226
 20
71.7592382481
 30
0.0
 10
144.5547123226
 20
70.3195520534
 30
0.0
 10
144.4594586095
 20
67.4393894955
 30
0.0
 10
144.1845057112
 20
64.5713484513
 30
0.0
 10
144.0087569719
 20
63.1423942783
 30
0.0
  0
SPLINE
  5
4B1
100
AcDbEntity
  8
0
100
AcDbSpline
 62
7
  6
CONTINUOUS
 70
0
 71
3
 72
9
 73
5
 74
0
 42
0.0000001
 43
0.0000001
 44
0.0000000001
 40
0.0
 40
0.0
 40
0.0
 40
0.0
 40
0.5000061107
 40
1.0
 40
1.0
 40
1.0
 40
1.0
 10
144.0087569719
 20
80.3760822179
 30
0.0
 10
144.1845057116
 20
78.9471280417
 30
0.0
 10
144.4594586099
 20
76.0790869975
 30
0.0
 10
144.5547123226
 20
73.1989244396
 30
0.0
 10
144.5547123226
 20
71.7592382481
 30
0.0
  0
SPLINE
  5
4B2
100
AcDbEntity
  8
0
100
AcDbSpline
 62
7
  6
CONTINUOUS
 70
0
 71
3
 72
27
 73
23
 74
0
 42
0.0000001
 43
0.0000001
 44
0.0000000001
 40
0.0
 40
0.0
 40
0.0
 40
0.0
 40
0.1918533808
 40
0.3765694138
 40
0.4641005265
 40
0.5473099906
 40
0.6254245677
 40
0.697720414
 40
0.7635230389
 40
0.8222200208
 40
0.8732681141
 40
0.9161906333
 40
0.9344788367
 40
0.9505913753
 40
0.9644943342
 40
0.9761555395
 40
0.9855470196
 40
0.9926530305
 40
0.9953459191
 40
0.9974649132
 40
0.9990125079
 40
1.0
 40
1.0
 40
1.0
 40
1.0
 10
154.7189508735
 20
71.7592382481
 30
0.0
 10
154.7004878708
 20
73.0971999094
 30
0.0
 10
154.6642527441
 20
75.7233482813
 30
0.0
 10
154.6179465153
 20
78.9599050944
 30
0.0
 10
154.5803254442
 20
81.4387660932
 30
0.0
 10
154.5526325894
 20
83.174195566
 30
0.0
 10
154.5249629369
 20
84.8033521816
 30
0.0
 10
154.4973266585
 20
86.3110860488
 30
0.0
 10
154.4697346887
 20
87.6833672735
 30
0.0
 10
154.4422147773
 20
88.9074241513
 30
0.0
 10
154.4147879133
 20
89.9718589883
 30
0.0
 10
154.3909927956
 20
90.7544565696
 30
0.0
 10
154.3715083492
 20
91.293399953
 30
0.0
 10
154.3577159144
 20
91.630015817
 30
0.0
 10
154.3439669992
 20
91.9203672543
 30
0.0
 10
154.330314613
 20
92.1637931514
 30
0.0
 10
154.3167359437
 20
92.3597133237
 30
0.0
 10
154.30486015
 20
92.4930685908
 30
0.0
 10
154.2948057928
 20
92.5755683741
 30
0.0
 10
154.2881019354
 20
92.6194624725
 30
0.0
 10
154.2814417417
 20
92.6511699114
 30
0.0
 10
154.2762885266
 20
92.6682645421
 30
0.0
 10
154.2731054366
 20
92.6743721502
 30
0.0
  0
SPLINE
  5
4B3
100
AcDbEntity
  8
0
100
AcDbSpline
 62
7
  6
CONTINUOUS
 70
0
 71
3
 72
27
 73
23
 74
0
 42
0.0000001
 43
0.0000001
 44
0.0000000001
 40
0.0
 40
0.0
 40
0.0
 40
0.0
 40
0.1918555353
 40
0.3765757015
 40
0.4641073698
 40
0.5473162398
 40
0.6254299012
 40
0.6977247769
 40
0.7635262758
 40
0.8222225604
 40
0.873269938
 40
0.9161916501
 40
0.9344797187
 40
0.950592048
 40
0.9644946621
 40
0.9761557956
 40
0.9855471984
 40
0.9926529689
 40
0.9953457989
 40
0.9974648403
 40
0.9990125152
 40
1.0
 40
1.0
 40
1.0
 40
1.0
 10
156.5329426512
 20
71.7592382481
 30
0.0
 10
156.5144793144
 20
73.0972150362
 30
0.0
 10
156.4782434557
 20
75.7234074584
 30
0.0
 10
156.4319361491
 20
78.9600122401
 30
0.0
 10
156.3943144364
 20
81.4389019822
 30
0.0
 10
156.3666213248
 20
83.1743249292
 30
0.0
 10
156.3389516988
 20
84.8034643685
 30
0.0
 10
156.3113155923
 20
86.3111773427
 30
0.0
 10
156.2837235332
 20
87.6834391817
 30
0.0
 10
156.2562037812
 20
88.9074784437
 30
0.0
 10
156.2287771057
 20
89.9718978792
 30
0.0
 10
156.2049817718
 20
90.7544839469
 30
0.0
 10
156.1854975581
 20
91.293419346
 30
0.0
 10
156.171705248
 20
91.6300304331
 30
0.0
 10
156.1579560903
 20
91.9203775111
 30
0.0
 10
156.1443038733
 20
92.1637999844
 30
0.0
 10
156.130725491
 20
92.3597174701
 30
0.0
 10
156.1188494636
 20
92.4930700966
 30
0.0
 10
156.1087950283
 20
92.5755681038
 30
0.0
 10
156.1020911719
 20
92.6194626952
 30
0.0
 10
156.0954313164
 20
92.6511710293
 30
0.0
 10
156.0902780708
 20
92.6682662439
 30
0.0
 10
156.0870948609
 20
92.6743737327
 30
0.0
  0
SPLINE
  5
4B4
100
AcDbEntity
  8
0
100
AcDbSpline
 62
7
  6
CONTINUOUS
 70
0
 71
3
 72
27
 73
23
 74
0
 42
0.0000001
 43
0.0000001
 44
0.0000000001
 40
0.0
 40
0.0
 40
0.0
 40
0.0
 40
0.1918542075
 40
0.3765695741
 40
0.4640996489
 40
0.5473088766
 40
0.6254235539
 40
0.6977197494
 40
0.7635229291
 40
0.8222202268
 40
0.873268309
 40
0.9161906207
 40
0.9344787289
 40
0.9505912512
 40
0.9644942458
 40
0.9761554836
 40
0.9855469857
 40
0.9926530172
 40
0.9953459114
 40
0.9974649057
 40
0.9990125012
 40
1.0
 40
1.0
 40
1.0
 40
1.0
 10
158.3469425289
 20
71.7592382481
 30
0.0
 10
158.3284783727
 20
73.0972056516
 30
0.0
 10
158.2922444121
 20
75.7233551416
 30
0.0
 10
158.2459371529
 20
78.9599057996
 30
0.0
 10
158.208316061
 20
81.4387532457
 30
0.0
 10
158.1806230822
 20
83.1741745164
 30
0.0
 10
158.1529531814
 20
84.8033326028
 30
0.0
 10
158.1253165282
 20
86.3110734592
 30
0.0
 10
158.0977241625
 20
87.6833631771
 30
0.0
 10
158.0702038514
 20
88.9074260352
 30
0.0
 10
158.0427767022
 20
89.9718615366
 30
0.0
 10
158.0189814568
 20
90.7544569191
 30
0.0
 10
157.9994968684
 20
91.2933980677
 30
0.0
 10
157.9857043221
 20
91.6300133959
 30
0.0
 10
157.9719552941
 20
91.9203651883
 30
0.0
 10
157.9583027671
 20
92.1637917064
 30
0.0
 10
157.94472395
 20
92.3597123924
 30
0.0
 10
157.9328480489
 20
92.493067987
 30
0.0
 10
157.9227935996
 20
92.5755679449
 30
0.0
 10
157.9160896709
 20
92.6194620771
 30
0.0
 10
157.9094293959
 20
92.6511695573
 30
0.0
 10
157.9042761289
 20
92.6682642219
 30
0.0
 10
157.9010930241
 20
92.6743718756
 30
0.0
  0
SPLINE
  5
4B5
100
AcDbEntity
  8
0
100
AcDbSpline
 62
7
  6
CONTINUOUS
 70
0
 71
3
 72
27
 73
23
 74
0
 42
0.0000001
 43
0.0000001
 44
0.0000000001
 40
0.0
 40
0.0
 40
0.0
 40
0.0
 40
0.1918544058
 40
0.3765699621
 40
0.4641001086
 40
0.5473094022
 40
0.6254240819
 40
0.6977200596
 40
0.7635228539
 40
0.8222199139
 40
0.8732680876
 40
0.9161907383
 40
0.9344789156
 40
0.9505914596
 40
0.9644944572
 40
0.9761556155
 40
0.9855471023
 40
0.9926531741
 40
0.9953460535
 40
0.9974649808
 40
0.9990125127
 40
1.0
 40
1.0
 40
1.0
 40
1.0
 10
160.1609478686
 20
71.7592382481
 30
0.0
 10
160.1424823794
 20
73.0972068484
 30
0.0
 10
160.1062504331
 20
75.7233587434
 30
0.0
 10
160.0599420043
 20
78.959912185
 30
0.0
 10
160.022320985
 20
81.4387616041
 30
0.0
 10
159.9946278795
 20
83.1741836315
 30
0.0
 10
159.9669579197
 20
84.8033404701
 30
0.0
 10
159.9393212688
 20
86.3110769466
 30
0.0
 10
159.9117289752
 20
87.6833606272
 30
0.0
 10
159.884208692
 20
88.9074196232
 30
0.0
 10
159.8567814173
 20
89.9718563328
 30
0.0
 10
159.8329860989
 20
90.7544551014
 30
0.0
 10
159.8135013172
 20
91.2933991759
 30
0.0
 10
159.7997086711
 20
91.6300151121
 30
0.0
 10
159.7859596812
 20
91.9203664873
 30
0.0
 10
159.7723070882
 20
92.1637923292
 30
0.0
 10
159.758728322
 20
92.3597126112
 30
0.0
 10
159.7468526055
 20
92.4930682765
 30
0.0
 10
159.7367982098
 20
92.575567941
 30
0.0
 10
159.7300942069
 20
92.6194610325
 30
0.0
 10
159.7234337233
 20
92.6511674644
 30
0.0
 10
159.7182803882
 20
92.6682615428
 30
0.0
 10
159.7150972866
 20
92.674369106
 30
0.0
  0
SPLINE
  5
4B6
100
AcDbEntity
  8
0
100
AcDbSpline
 62
7
  6
CONTINUOUS
 70
0
 71
3
 72
10
 73
6
 74
0
 42
0.0000001
 43
0.0000001
 44
0.0000000001
 40
0.0
 40
0.0
 40
0.0
 40
0.0
 40
0.2485539576
 40
0.4977619045
 40
1.0
 40
1.0
 40
1.0
 40
1.0
 10
153.6892730575
 20
54.7886754996
 30
0.0
 10
153.6892730575
 20
55.2999093385
 30
0.0
 10
153.6513078091
 20
56.3241691925
 30
0.0
 10
153.4261448233
 20
58.369945961
 30
0.0
 10
153.0979989229
 20
59.8858924573
 30
0.0
 10
152.8232476537
 20
60.8817043031
 30
0.0
  0
SPLINE
  5
4B7
100
AcDbEntity
  8
0
100
AcDbSpline
 62
7
  6
CONTINUOUS
 70
0
 71
3
 72
10
 73
6
 74
0
 42
0.0000001
 43
0.0000001
 44
0.0000000001
 40
0.0
 40
0.0
 40
0.0
 40
0.0
 40
0.7143811974
 40
0.9079629918
 40
1.0
 40
1.0
 40
1.0
 40
1.0
 10
132.6624781383
 20
160.5423695124
 30
0.0
 10
132.6692074719
 20
160.5436107813
 30
0.0
 10
132.678091571
 20
160.5454989035
 30
0.0
 10
132.6865673665
 20
160.5485189109
 30
0.0
 10
132.6892730575
 20
160.5504479655
 30
0.0
 10
132.6892730575
 20
160.551329562
 30
0.0
  0
SPLINE
  5
4B8
100
AcDbEntity
  8
0
100
AcDbSpline
 62
7
  6
CONTINUOUS
 70
0
 71
3
 72
8
 73
4
 74
0
 42
0.0000001
 43
0.0000001
 44
0.0000000001
 40
0.0
 40
0.0
 40
0.0
 40
0.0
 40
1.0
 40
1.0
 40
1.0
 40
1.0
 10
107.1874876424
 20
147.4592382481
 30
0.0
 10
107.2436786526
 20
147.4592382481
 30
0.0
 10
107.3020075586
 20
147.4770032138
 30
0.0
 10
107.3488360367
 20
147.5080599889
 30
0.0
  0
SPLINE
  5
4B9
100
AcDbEntity
  8
0
100
AcDbSpline
 62
7
  6
CONTINUOUS
 70
0
 71
3
 72
10
 73
6
 74
0
 42
0.0000001
 43
0.0000001
 44
0.0000000001
 40
0.0
 40
0.0
 40
0.0
 40
0.0
 40
0.6536400166
 40
0.869711617
 40
1.0
 40
1.0
 40
1.0
 40
1.0
 10
107.409913273
 20
147.4592382481
 30
0.0
 10
107.4054906438
 20
147.4759432785
 30
0.0
 10
107.3989767423
 20
147.498489022
 30
0.0
 10
107.3876313696
 20
147.5217287829
 30
0.0
 10
107.3797352299
 20
147.52865124
 30
0.0
 10
107.3762907569
 20
147.528661815
 30
0.0
  0
SPLINE
  5
4BA
100
AcDbEntity
  8
0
100
AcDbSpline
 62
7
  6
CONTINUOUS
 70
0
 71
3
 72
9
 73
5
 74
0
 42
0.0000001
 43
0.0000001
 44
0.0000000001
 40
0.0
 40
0.0
 40
0.0
 40
0.0
 40
0.3757576278
 40
1.0
 40
1.0
 40
1.0
 40
1.0
 10
80.001054238
 20
91.510425897
 30
0.0
 10
80.0055047812
 20
91.5018686592
 30
0.0
 10
80.0121001431
 20
91.4767157306
 30
0.0
 10
80.016797951
 20
91.4515982836
 30
0.0
 10
80.0193325089
 20
91.435776206
 30
0.0
  0
SPLINE
  5
4BB
100
AcDbEntity
  8
0
100
AcDbSpline
 62
7
  6
CONTINUOUS
 70
0
 71
3
 72
41
 73
37
 74
0
 42
0.0000001
 43
0.0000001
 44
0.0000000001
 40
0.0
 40
0.0
 40
0.0
 40
0.0
 40
0.0027645253
 40
0.0066503582
 40
0.0177531578
 40
0.0332170211
 40
0.052903702
 40
0.0766377531
 40
0.1042017347
 40
0.135349155
 40
0.1697941591
 40
0.2473066751
 40
0.3339320467
 40
0.4265324956
 40
0.5217536431
 40
0.6161461393
 40
0.7062906926
 40
0.7487403973
 40
0.7889220283
 40
0.8264710206
 40
0.8610473102
 40
0.8923357126
 40
0.9200549194
 40
0.943950483
 40
0.9543971039
 40
0.9638101255
 40
0.9721669356
 40
0.9794507326
 40
0.9856459107
 40
0.9907372773
 40
0.9947143567
 40
0.9975727801
 40
0.9985826015
 40
0.9993146059
 40
0.9997752912
 40
1.0
 40
1.0
 40
1.0
 40
1.0
 10
80.0193325089
 20
91.435776206
 30
0.0
 10
80.0250833553
 20
91.3998763208
 30
0.0
 10
80.0352613952
 20
91.3129562249
 30
0.0
 10
80.0554322891
 20
91.0803531591
 30
0.0
 10
80.078527755
 20
90.6804525611
 30
0.0
 10
80.1051437496
 20
90.0727480945
 30
0.0
 10
80.131903765
 20
89.2987751104
 30
0.0
 10
80.1589584561
 20
88.3656139774
 30
0.0
 10
80.1861069208
 20
87.2816713929
 30
0.0
 10
80.2133406771
 20
86.0568292208
 30
0.0
 10
80.2512248654
 20
84.1751683405
 30
0.0
 10
80.2974994607
 20
81.5639174022
 30
0.0
 10
80.3513668708
 20
78.1878586844
 30
0.0
 10
80.4053572176
 20
74.5788797538
 30
0.0
 10
80.4594058718
 20
70.8677417744
 30
0.0
 10
80.5134411636
 20
67.1889056715
 30
0.0
 10
80.5592572251
 20
64.2040460544
 30
0.0
 10
80.5964881278
 20
61.9320930758
 30
0.0
 10
80.6238333729
 20
60.3517807924
 30
0.0
 10
80.6511530582
 20
58.8750314611
 30
0.0
 10
80.6784370314
 20
57.5152620067
 30
0.0
 10
80.7056708654
 20
56.2847957733
 30
0.0
 10
80.7328328025
 20
55.1948336743
 30
0.0
 10
80.7562971151
 20
54.3789684208
 30
0.0
 10
80.7754033974
 20
53.8038394611
 30
0.0
 10
80.7890640907
 20
53.4330014571
 30
0.0
 10
80.8027002445
 20
53.103791859
 30
0.0
 10
80.8163002653
 20
52.8169337505
 30
0.0
 10
80.8298310939
 20
52.5730934598
 30
0.0
 10
80.8432822991
 20
52.3727555376
 30
0.0
 10
80.8565042625
 20
52.216558579
 30
0.0
 10
80.868352498
 20
52.1138000977
 30
0.0
 10
80.8781076209
 20
52.0543783061
 30
0.0
 10
80.8850977973
 20
52.0256879529
 30
0.0
 10
80.8903353609
 20
52.0088738465
 30
0.0
 10
80.8969976181
 20
52.0002522652
 30
0.0
 10
80.899952858
 20
52.0002608187
 30
0.0
  0
SPLINE
  5
4BC
100
AcDbEntity
  8
0
100
AcDbSpline
 62
7
  6
CONTINUOUS
 70
0
 71
3
 72
44
 73
40
 74
0
 42
0.0000001
 43
0.0000001
 44
0.0000000001
 40
0.0
 40
0.0
 40
0.0
 40
0.0
 40
0.0002296901
 40
0.0007042648
 40
0.001459207
 40
0.0025009832
 40
0.0054503721
 40
0.0095545071
 40
0.0148086074
 40
0.0212005224
 40
0.0287144936
 40
0.0373344634
 40
0.0470418369
 40
0.0578120502
 40
0.0824386583
 40
0.1109866731
 40
0.1431869601
 40
0.1787379982
 40
0.2173069222
 40
0.2585304631
 40
0.302023623
 40
0.3941646325
 40
0.4902791586
 40
0.5867673938
 40
0.6800154065
 40
0.7665305865
 40
0.8062372235
 40
0.8430728972
 40
0.8766911492
 40
0.9067766055
 40
0.9330484752
 40
0.9552583278
 40
0.9732021516
 40
0.9805186675
 40
0.9867095254
 40
0.9917617647
 40
0.9956631824
 40
0.9984073324
 40
1.0
 40
1.0
 40
1.0
 40
1.0
 10
76.5649527857
 20
91.5182210569
 30
0.0
 10
76.5679787692
 20
91.5182297196
 30
0.0
 10
76.5747521442
 20
91.5092456873
 30
0.0
 10
76.5800556692
 20
91.4919251416
 30
0.0
 10
76.5871699423
 20
91.4622372729
 30
0.0
 10
76.5970849604
 20
91.4008139447
 30
0.0
 10
76.6091364325
 20
91.294565473
 30
0.0
 10
76.6225792374
 20
91.1330894545
 30
0.0
 10
76.6362563344
 20
90.9259908578
 30
0.0
 10
76.6500159553
 20
90.673960822
 30
0.0
 10
76.663845789
 20
90.3775139035
 30
0.0
 10
76.6777111582
 20
90.0373567142
 30
0.0
 10
76.6916018415
 20
89.6542682194
 30
0.0
 10
76.7110285388
 20
89.0603709535
 30
0.0
 10
76.7348831156
 20
88.2182793819
 30
0.0
 10
76.7625032404
 20
87.0938662137
 30
0.0
 10
76.7901932762
 20
85.825495046
 30
0.0
 10
76.8179372018
 20
84.4250790405
 30
0.0
 10
76.845714574
 20
82.9057676992
 30
0.0
 10
76.8735200115
 20
81.2818091218
 30
0.0
 10
76.9113441514
 20
78.9521472485
 30
0.0
 10
76.9578810068
 20
75.8993848253
 30
0.0
 10
77.0128006314
 20
72.1484996887
 30
0.0
 10
77.0677207483
 20
68.3830289642
 30
0.0
 10
77.1225813939
 20
64.744035377
 30
0.0
 10
77.1693843386
 20
61.8530611409
 30
0.0
 10
77.2075360864
 20
59.7052383826
 30
0.0
 10
77.2352966087
 20
58.25421997
 30
0.0
 10
77.2630100669
 20
56.9299773152
 30
0.0
 10
77.2906653778
 20
55.7449377115
 30
0.0
 10
77.3182031888
 20
54.7102359183
 30
0.0
 10
77.3456246634
 20
53.8355583101
 30
0.0
 10
77.3695183414
 20
53.2106129926
 30
0.0
 10
77.3893316536
 20
52.7967470012
 30
0.0
 10
77.4030498799
 20
52.5525979459
 30
0.0
 10
77.4167932453
 20
52.3536042822
 30
0.0
 10
77.429951261
 20
52.1999027421
 30
0.0
 10
77.4435200145
 20
52.0924780468
 30
0.0
 10
77.4532215101
 20
52.0357071947
 30
0.0
 10
77.4604328318
 20
52.0160031341
 30
0.0
  0
SPLINE
  5
4BD
100
AcDbEntity
  8
0
100
AcDbSpline
 62
7
  6
CONTINUOUS
 70
0
 71
3
 72
8
 73
4
 74
0
 42
0.0000001
 43
0.0000001
 44
0.0000000001
 40
0.0
 40
0.0
 40
0.0
 40
0.0
 40
1.0
 40
1.0
 40
1.0
 40
1.0
 10
77.4604328318
 20
52.0160031341
 30
0.0
 10
77.4614250298
 20
52.0132920735
 30
0.0
 10
77.4625194598
 20
52.0106069093
 30
0.0
 10
77.4638514007
 20
52.0080456128
 30
0.0
  0
SPLINE
  5
4BE
100
AcDbEntity
  8
0
100
AcDbSpline
 62
7
  6
CONTINUOUS
 70
0
 71
3
 72
11
 73
7
 74
0
 42
0.0000001
 43
0.0000001
 44
0.0000000001
 40
0.0
 40
0.0
 40
0.0
 40
0.0
 40
0.0902985932
 40
0.2803770072
 40
0.5835352158
 40
1.0
 40
1.0
 40
1.0
 40
1.0
 10
84.161772
 20
94.7592382481
 30
0.0
 10
84.1660138157
 20
94.7592382481
 30
0.0
 10
84.1752143222
 20
94.7459412517
 30
0.0
 10
84.1817680405
 20
94.7211483395
 30
0.0
 10
84.1909931579
 20
94.6784274089
 30
0.0
 10
84.1959367626
 20
94.6452760771
 30
0.0
 10
84.1986741338
 20
94.6259049179
 30
0.0
  0
SPLINE
  5
4BF
100
AcDbEntity
  8
0
100
AcDbSpline
 62
7
  6
CONTINUOUS
 70
0
 71
3
 72
10
 73
6
 74
0
 42
0.0000001
 43
0.0000001
 44
0.0000000001
 40
0.0
 40
0.0
 40
0.0
 40
0.0
 40
0.1397412353
 40
0.3522103341
 40
1.0
 40
1.0
 40
1.0
 40
1.0
 10
78.1870542333
 20
91.5104486467
 30
0.0
 10
78.1899888514
 20
91.5048058951
 30
0.0
 10
78.1949117627
 20
91.4894075266
 30
0.0
 10
78.2047813179
 20
91.4450301511
 30
0.0
 10
78.2099250318
 20
91.4061118151
 30
0.0
 10
78.2135072662
 20
91.376846486
 30
0.0
  0
SPLINE
  5
4C0
100
AcDbEntity
  8
0
100
AcDbSpline
 62
7
  6
CONTINUOUS
 70
0
 71
3
 72
39
 73
35
 74
0
 42
0.0000001
 43
0.0000001
 44
0.0000000001
 40
0.0
 40
0.0
 40
0.0
 40
0.0
 40
0.0078957468
 40
0.020148736
 40
0.0366550958
 40
0.0572695516
 40
0.081811006
 40
0.110059157
 40
0.1766448192
 40
0.2546606063
 40
0.341333021
 40
0.4335803747
 40
0.5281226047
 40
0.6215980231
 40
0.7106829365
 40
0.7525803632
 40
0.7922099317
 40
0.8292203458
 40
0.8632806444
 40
0.8940883179
 40
0.9213691824
 40
0.9448796748
 40
0.9551548641
 40
0.9644129993
 40
0.972631794
 40
0.9797935609
 40
0.9858844401
 40
0.9908909465
 40
0.994801253
 40
0.9976109041
 40
0.9986036107
 40
0.9993236206
 40
0.9997775581
 40
1.0
 40
1.0
 40
1.0
 40
1.0
 10
78.2135072662
 20
91.376846486
 30
0.0
 10
78.2261047419
 20
91.2739304771
 30
0.0
 10
78.2458745938
 20
91.0099220793
 30
0.0
 10
78.2720302433
 20
90.5293503872
 30
0.0
 10
78.2981811056
 20
89.8814729937
 30
0.0
 10
78.3249076256
 20
89.0721962142
 30
0.0
 10
78.3517114424
 20
88.1086451215
 30
0.0
 10
78.3897455066
 20
86.541512818
 30
0.0
 10
78.4357781074
 20
84.2721717396
 30
0.0
 10
78.4889564948
 20
81.2356303728
 30
0.0
 10
78.5423380581
 20
77.8620649103
 30
0.0
 10
78.5958611682
 20
74.2714579417
 30
0.0
 10
78.649425091
 20
70.5915072602
 30
0.0
 10
78.7029737517
 20
66.9530888853
 30
0.0
 10
78.7483924005
 20
64.0059386389
 30
0.0
 10
78.7852949564
 20
61.7658273515
 30
0.0
 10
78.8123884779
 20
60.2094717223
 30
0.0
 10
78.8394543385
 20
58.7560464705
 30
0.0
 10
78.8664876374
 20
57.4184881666
 30
0.0
 10
78.8934677084
 20
56.208721903
 30
0.0
 10
78.9203806136
 20
55.1375289612
 30
0.0
 10
78.9436268867
 20
54.3359580008
 30
0.0
 10
78.9625593095
 20
53.7710382942
 30
0.0
 10
78.9760932063
 20
53.4068571729
 30
0.0
 10
78.9896012454
 20
53.0835928808
 30
0.0
 10
79.0030759038
 20
52.8019523392
 30
0.0
 10
79.0164836438
 20
52.5625662363
 30
0.0
 10
79.0298073743
 20
52.3658930859
 30
0.0
 10
79.0429063175
 20
52.2125601401
 30
0.0
 10
79.0546440331
 20
52.1117076293
 30
0.0
 10
79.0643140931
 20
52.0533890232
 30
0.0
 10
79.0712353389
 20
52.0252317336
 30
0.0
 10
79.0764409607
 20
52.0086885995
 30
0.0
 10
79.0830318112
 20
52.0002362742
 30
0.0
 10
79.0859528355
 20
52.0002405952
 30
0.0
  0
SPLINE
  5
4C1
100
AcDbEntity
  8
0
100
AcDbSpline
 62
7
  6
CONTINUOUS
 70
0
 71
3
 72
11
 73
7
 74
0
 42
0.0000001
 43
0.0000001
 44
0.0000000001
 40
0.0
 40
0.0
 40
0.0
 40
0.0
 40
0.0902984263
 40
0.2803768244
 40
0.5835350955
 40
1.0
 40
1.0
 40
1.0
 40
1.0
 10
84.1617721474
 20
48.7592382481
 30
0.0
 10
84.1660139536
 20
48.7592382481
 30
0.0
 10
84.175214421
 20
48.7725352661
 30
0.0
 10
84.1817681069
 20
48.797328154
 30
0.0
 10
84.1909931885
 20
48.8400490924
 30
0.0
 10
84.1959367733
 20
48.8732004196
 30
0.0
 10
84.1986741339
 20
48.8925715784
 30
0.0
  0
SPLINE
  5
4C2
100
AcDbEntity
  8
0
100
AcDbSpline
 62
7
  6
CONTINUOUS
 70
0
 71
3
 72
9
 73
5
 74
0
 42
0.0000001
 43
0.0000001
 44
0.0000000001
 40
0.0
 40
0.0
 40
0.0
 40
0.0
 40
0.3769325736
 40
1.0
 40
1.0
 40
1.0
 40
1.0
 10
76.3730541974
 20
91.5104590941
 30
0.0
 10
76.377391241
 20
91.5021339024
 30
0.0
 10
76.3838673082
 20
91.4777568918
 30
0.0
 10
76.3884748088
 20
91.453393687
 30
0.0
 10
76.3909614823
 20
91.4380773128
 30
0.0
  0
SPLINE
  5
4C3
100
AcDbEntity
  8
0
100
AcDbSpline
 62
7
  6
CONTINUOUS
 70
0
 71
3
 72
41
 73
37
 74
0
 42
0.0000001
 43
0.0000001
 44
0.0000000001
 40
0.0
 40
0.0
 40
0.0
 40
0.0
 40
0.0027365512
 40
0.0065930118
 40
0.0176438554
 40
0.033058576
 40
0.0527042076
 40
0.0763994486
 40
0.1039336048
 40
0.135053803
 40
0.1694799019
 40
0.2469686806
 40
0.3335914498
 40
0.4262079681
 40
0.5214603434
 40
0.6158950126
 40
0.7060881848
 40
0.7485635393
 40
0.7887700801
 40
0.8263447678
 40
0.8609436051
 40
0.8922556353
 40
0.9199933574
 40
0.9439083043
 40
0.9543615689
 40
0.9637814842
 40
0.9721462464
 40
0.9794352566
 40
0.9856339331
 40
0.9907298778
 40
0.9947112915
 40
0.9975708706
 40
0.9985808036
 40
0.9993131107
 40
0.9997745837
 40
1.0
 40
1.0
 40
1.0
 40
1.0
 10
76.3909614823
 20
91.4380773128
 30
0.0
 10
76.3967293712
 20
91.4025506762
 30
0.0
 10
76.4069091841
 20
91.316383163
 30
0.0
 10
76.4271145621
 20
91.0852130962
 30
0.0
 10
76.4501906596
 20
90.6870041311
 30
0.0
 10
76.4768271581
 20
90.0811370376
 30
0.0
 10
76.5035831974
 20
89.3088152104
 30
0.0
 10
76.5306554026
 20
88.3770427972
 30
0.0
 10
76.5578076198
 20
87.2942972559
 30
0.0
 10
76.5850566106
 20
86.070382228
 30
0.0
 10
76.622955857
 20
84.1895294529
 30
0.0
 10
76.6692534499
 20
81.5787197295
 30
0.0
 10
76.7231409911
 20
78.2025968649
 30
0.0
 10
76.7771530023
 20
74.592817042
 30
0.0
 10
76.8312234627
 20
70.8802831699
 30
0.0
 10
76.8852806749
 20
67.1996249424
 30
0.0
 10
76.9311152897
 20
64.2130575353
 30
0.0
 10
76.9683602228
 20
61.9396658977
 30
0.0
 10
76.995718289
 20
60.3582573484
 30
0.0
 10
77.023047112
 20
58.8804585971
 30
0.0
 10
77.0503459538
 20
57.5196636072
 30
0.0
 10
77.0775866211
 20
56.2882737338
 30
0.0
 10
77.1047656915
 20
55.19743816
 30
0.0
 10
77.1282340147
 20
54.3809386918
 30
0.0
 10
77.1473514109
 20
53.8053428528
 30
0.0
 10
77.1610193289
 20
53.4342003495
 30
0.0
 10
77.1746574097
 20
53.1047073089
 30
0.0
 10
77.188263504
 20
52.8176130443
 30
0.0
 10
77.2018038567
 20
52.5735838443
 30
0.0
 10
77.2152603731
 20
52.3730706045
 30
0.0
 10
77.2284821981
 20
52.2167320591
 30
0.0
 10
77.2403344203
 20
52.1138924963
 30
0.0
 10
77.2501017483
 20
52.0544491932
 30
0.0
 10
77.2570886845
 20
52.025738697
 30
0.0
 10
77.2623462963
 20
52.0089080772
 30
0.0
 10
77.2689880722
 20
52.0002512902
 30
0.0
 10
77.2719527965
 20
52.0002447314
 30
0.0
  0
SPLINE
  5
4C4
100
AcDbEntity
  8
0
100
AcDbSpline
 62
7
  6
CONTINUOUS
 70
0
 71
3
 72
30
 73
26
 74
0
 42
0.0000001
 43
0.0000001
 44
0.0000000001
 40
0.0
 40
0.0
 40
0.0
 40
0.0
 40
0.0004505489
 40
0.0014436323
 40
0.0030397859
 40
0.0052493965
 40
0.0080751982
 40
0.0115177213
 40
0.0202483995
 40
0.0314180616
 40
0.0449958792
 40
0.0609485232
 40
0.0792290874
 40
0.099783978
 40
0.1225586012
 40
0.1744984423
 40
0.2344627355
 40
0.301770507
 40
0.3756628868
 40
0.455300429
 40
0.5397784438
 40
0.6281410869
 40
0.7193874148
 40
0.8124843788
 40
1.0
 40
1.0
 40
1.0
 40
1.0
 10
76.6662730575
 20
50.8367382481
 30
0.0
 10
76.6627112685
 20
50.8367382481
 30
0.0
 10
76.6553935152
 20
50.8489655318
 30
0.0
 10
76.6496787934
 20
50.8703046817
 30
0.0
 10
76.6418489819
 20
50.9085105552
 30
0.0
 10
76.6346892108
 20
50.9600127356
 30
0.0
 10
76.6270684211
 20
51.0267738207
 30
0.0
 10
76.61613358
 20
51.1447688688
 30
0.0
 10
76.6029478872
 20
51.3288996343
 30
0.0
 10
76.5879262462
 20
51.5931140268
 30
0.0
 10
76.5728031107
 20
51.9145232385
 30
0.0
 10
76.5576126454
 20
52.2921843141
 30
0.0
 10
76.5423791865
 20
52.7250429399
 30
0.0
 10
76.5271123556
 20
53.2118592498
 30
0.0
 10
76.5057888999
 20
53.9647049016
 30
0.0
 10
76.4796056781
 20
55.0290815142
 30
0.0
 10
76.4492676574
 20
56.4455077313
 30
0.0
 10
76.4188519594
 20
58.0355121965
 30
0.0
 10
76.3883795563
 20
59.7810668391
 30
0.0
 10
76.357869697
 20
61.6623782622
 30
0.0
 10
76.3273330416
 20
63.6580971508
 30
0.0
 10
76.2967797229
 20
65.7455985805
 30
0.0
 10
76.2662140742
 20
67.9012434645
 30
0.0
 10
76.2253535412
 20
70.8406693476
 30
0.0
 10
76.194909393
 20
73.0588275607
 30
0.0
 10
76.1742726903
 20
74.5410781726
 30
0.0
  0
SPLINE
  5
4C5
100
AcDbEntity
  8
0
100
AcDbSpline
 62
7
  6
CONTINUOUS
 70
0
 71
3
 72
42
 73
38
 74
0
 42
0.0000001
 43
0.0000001
 44
0.0000000001
 40
0.0
 40
0.0
 40
0.0
 40
0.0
 40
0.0002275001
 40
0.000694649
 40
0.001436627
 40
0.0024604713
 40
0.0053613518
 40
0.0093996167
 40
0.014566712
 40
0.0208523972
 40
0.0282448728
 40
0.0367260878
 40
0.0462756195
 40
0.0568729364
 40
0.0811124746
 40
0.1092184995
 40
0.140934651
 40
0.1759673077
 40
0.2139939032
 40
0.2546643503
 40
0.2976025098
 40
0.3886836727
 40
0.4838850755
 40
0.579702596
 40
0.6726095387
 40
0.7591865165
 40
0.8362473997
 40
0.8703071297
 40
0.9009568737
 40
0.9279158379
 40
0.9509352995
 40
0.9698033236
 40
0.9843491196
 40
0.9899575653
 40
0.9944393393
 40
0.9977879533
 40
1.0
 40
1.0
 40
1.0
 40
1.0
 10
82.0069528554
 20
91.5182044514
 30
0.0
 10
82.009947753
 20
91.5181969533
 30
0.0
 10
82.0166400819
 20
91.5093959613
 30
0.0
 10
82.0219302041
 20
91.4923478563
 30
0.0
 10
82.0289724602
 20
91.4632103632
 30
0.0
 10
82.0388141413
 20
91.4028666883
 30
0.0
 10
82.0507510416
 20
91.2984484139
 30
0.0
 10
82.064073508
 20
91.139739513
 30
0.0
 10
82.0776348935
 20
90.9362088348
 30
0.0
 10
82.0912784715
 20
90.6885099661
 30
0.0
 10
82.1049841634
 20
90.3971090496
 30
0.0
 10
82.1187271393
 20
90.0627097379
 30
0.0
 10
82.1325000608
 20
89.6860880839
 30
0.0
 10
82.1517594106
 20
89.1020838315
 30
0.0
 10
82.175404867
 20
88.2738110605
 30
0.0
 10
82.2027885994
 20
87.1675248096
 30
0.0
 10
82.2302365702
 20
85.9191164582
 30
0.0
 10
82.2577398977
 20
84.5400827003
 30
0.0
 10
82.2852771511
 20
83.0431500767
 30
0.0
 10
82.3128400272
 20
81.442130264
 30
0.0
 10
82.3503540549
 20
79.1427466879
 30
0.0
 10
82.3965121059
 20
76.1255414535
 30
0.0
 10
82.4509672934
 20
72.4122569647
 30
0.0
 10
82.5054318235
 20
68.6749347414
 30
0.0
 10
82.5598301692
 20
65.051159059
 30
0.0
 10
82.614094398
 20
61.6743310822
 30
0.0
 10
82.6607585863
 20
59.0721719679
 30
0.0
 10
82.6990012117
 20
57.206238436
 30
0.0
 10
82.7264334525
 20
55.9997868373
 30
0.0
 10
82.7537853015
 20
54.9387152086
 30
0.0
 10
82.7809660837
 20
54.03279237
 30
0.0
 10
82.80799533
 20
53.2903740318
 30
0.0
 10
82.831607522
 20
52.7771807822
 30
0.0
 10
82.8515222117
 20
52.4534790319
 30
0.0
 10
82.8649146477
 20
52.2770386316
 30
0.0
 10
82.8782347475
 20
52.1455439208
 30
0.0
 10
82.8884166762
 20
52.0729301958
 30
0.0
 10
82.8946291963
 20
52.0444802921
 30
0.0
  0
SPLINE
  5
4C6
100
AcDbEntity
  8
0
100
AcDbSpline
 62
7
  6
CONTINUOUS
 70
0
 71
3
 72
9
 73
5
 74
0
 42
0.0000001
 43
0.0000001
 44
0.0000000001
 40
0.0
 40
0.0
 40
0.0
 40
0.0
 40
0.3204878025
 40
1.0
 40
1.0
 40
1.0
 40
1.0
 10
82.8946291963
 20
52.0444802921
 30
0.0
 10
82.8954997003
 20
52.0404938654
 30
0.0
 10
82.8984439811
 20
52.0281399323
 30
0.0
 10
82.9018544039
 20
52.0156862399
 30
0.0
 10
82.9058514108
 20
52.0080135558
 30
0.0
  0
SPLINE
  5
4C7
100
AcDbEntity
  8
0
100
AcDbSpline
 62
7
  6
CONTINUOUS
 70
0
 71
3
 72
47
 73
43
 74
0
 42
0.0000001
 43
0.0000001
 44
0.0000000001
 40
0.0
 40
0.0
 40
0.0
 40
0.0
 40
0.0002238412
 40
0.0006988207
 40
0.0014574923
 40
0.002505819
 40
0.00547686
 40
0.0096147326
 40
0.014911558
 40
0.0213544237
 40
0.0289298033
 40
0.037621142
 40
0.0474062626
 40
0.058262272
 40
0.0830860747
 40
0.1118557588
 40
0.1443019202
 40
0.180116631
 40
0.2189607525
 40
0.2604673315
 40
0.304241077
 40
0.3969187589
 40
0.4934979237
 40
0.5903281877
 40
0.6837480582
 40
0.7280680987
 40
0.7702312886
 40
0.8098363151
 40
0.8465104923
 40
0.8799055554
 40
0.9097060049
 40
0.9356309365
 40
0.9574335087
 40
0.9667245684
 40
0.9749111548
 40
0.9819733194
 40
0.9878967462
 40
0.9926679915
 40
0.9962753557
 40
0.9987154668
 40
0.9995000519
 40
1.0
 40
1.0
 40
1.0
 40
1.0
 10
78.4802730575
 20
50.8367382481
 30
0.0
 10
78.4771498837
 20
50.8367382481
 30
0.0
 10
78.4703893372
 20
50.8466056363
 30
0.0
 10
78.4651144362
 20
50.8648301204
 30
0.0
 10
78.4579609424
 20
50.8966164602
 30
0.0
 10
78.4480074814
 20
50.9621385084
 30
0.0
 10
78.435892207
 20
51.0756488408
 30
0.0
 10
78.4223988298
 20
51.2480751455
 30
0.0
 10
78.4086610849
 20
51.4692469167
 30
0.0
 10
78.3948415905
 20
51.7383709018
 30
0.0
 10
78.3809545303
 20
52.0549341099
 30
0.0
 10
78.3670330029
 20
52.4181581229
 30
0.0
 10
78.3530800471
 20
52.8271869813
 30
0.0
 10
78.3335687324
 20
53.4612428542
 30
0.0
 10
78.3096166488
 20
54.3601673834
 30
0.0
 10
78.2818749997
 20
55.5603275548
 30
0.0
 10
78.2540673315
 20
56.9138746147
 30
0.0
 10
78.2262037578
 20
58.4080118177
 30
0.0
 10
78.1983051625
 20
60.0285851489
 30
0.0
 10
78.1703814871
 20
61.7602227679
 30
0.0
 10
78.1324013635
 20
64.2429147437
 30
0.0
 10
78.085678638
 20
67.493969217
 30
0.0
 10
78.0305304943
 20
71.4852558832
 30
0.0
 10
77.9753775657
 20
75.4868989412
 30
0.0
 10
77.9287037209
 20
78.7594374526
 30
0.0
 10
77.8907768371
 20
81.2692725282
 30
0.0
 10
77.8628489058
 20
83.0283138875
 30
0.0
 10
77.8349429477
 20
84.6806615352
 30
0.0
 10
77.8070713994
 20
86.2106527792
 30
0.0
 10
77.7792438038
 20
87.6038206217
 30
0.0
 10
77.7514892356
 20
88.8469771261
 30
0.0
 10
77.7238297306
 20
89.9283444469
 30
0.0
 10
77.6998289096
 20
90.7235463486
 30
0.0
 10
77.6801792562
 20
91.2712586202
 30
0.0
 10
77.6662668693
 20
91.6133706909
 30
0.0
 10
77.6524149006
 20
91.9084611002
 30
0.0
 10
77.6385992138
 20
92.1558199269
 30
0.0
 10
77.6250285986
 20
92.3549553636
 30
0.0
 10
77.6114331441
 20
92.5052178087
 30
0.0
 10
77.5998759741
 20
92.6000394325
 30
0.0
 10
77.589335744
 20
92.650841173
 30
0.0
 10
77.5841391966
 20
92.6681771183
 30
0.0
 10
77.5809241384
 20
92.6743676169
 30
0.0
  0
SPLINE
  5
4C8
100
AcDbEntity
  8
0
100
AcDbSpline
 62
7
  6
CONTINUOUS
 70
0
 71
3
 72
47
 73
43
 74
0
 42
0.0000001
 43
0.0000001
 44
0.0000000001
 40
0.0
 40
0.0
 40
0.0
 40
0.0
 40
0.0002238399
 40
0.0006988164
 40
0.0014574879
 40
0.0025058214
 40
0.0054769131
 40
0.009614927
 40
0.0149120275
 40
0.0213552428
 40
0.028930992
 40
0.0376229505
 40
0.0474088198
 40
0.0582653944
 40
0.0830901468
 40
0.1118602742
 40
0.1443065463
 40
0.1801202061
 40
0.2189627792
 40
0.2604675871
 40
0.3042401944
 40
0.3969179638
 40
0.4934979978
 40
0.5903287637
 40
0.6837487142
 40
0.7280692441
 40
0.7702336086
 40
0.809840173
 40
0.8465157325
 40
0.8799108895
 40
0.9097111175
 40
0.9356349421
 40
0.9574363812
 40
0.9667266523
 40
0.9749127473
 40
0.9819744436
 40
0.9878973685
 40
0.9926682502
 40
0.9962754571
 40
0.9987154918
 40
0.9995000596
 40
1.0
 40
1.0
 40
1.0
 40
1.0
 10
80.2942730575
 20
50.8367382481
 30
0.0
 10
80.2911499027
 20
50.8367382481
 30
0.0
 10
80.2843893284
 20
50.8466054933
 30
0.0
 10
80.2791144396
 20
50.8648299663
 30
0.0
 10
80.2719609303
 20
50.8966163361
 30
0.0
 10
80.2620074026
 20
50.962139193
 30
0.0
 10
80.2498919212
 20
51.075652293
 30
0.0
 10
80.2363981499
 20
51.248085103
 30
0.0
 10
80.2226600166
 20
51.469267561
 30
0.0
 10
80.2088400107
 20
51.738405409
 30
0.0
 10
80.1949521575
 20
52.0549872853
 30
0.0
 10
80.1810302394
 20
52.4182355536
 30
0.0
 10
80.1670769627
 20
52.8272913975
 30
0.0
 10
80.147564858
 20
53.4613788458
 30
0.0
 10
80.1236126308
 20
54.3603307064
 30
0.0
 10
80.0958708486
 20
55.5605118658
 30
0.0
 10
80.0680640597
 20
56.9140520114
 30
0.0
 10
80.040201066
 20
58.4081545004
 30
0.0
 10
80.0123038951
 20
60.0286668728
 30
0.0
 10
79.9843811468
 20
61.7602423074
 30
0.0
 10
79.9464016968
 20
64.2428949268
 30
0.0
 10
79.8996789341
 20
67.4939468776
 30
0.0
 10
79.8445305274
 20
71.4852539087
 30
0.0
 10
79.7893773022
 20
75.486917224
 30
0.0
 10
79.7427032525
 20
78.7594706928
 30
0.0
 10
79.7047759367
 20
81.2693301065
 30
0.0
 10
79.6768473046
 20
83.0284161409
 30
0.0
 10
79.648940015
 20
84.680820912
 30
0.0
 10
79.6210678114
 20
86.2108542115
 30
0.0
 10
79.5932389371
 20
87.6040395426
 30
0.0
 10
79.5654847086
 20
88.847178831
 30
0.0
 10
79.5378247481
 20
89.9285117846
 30
0.0
 10
79.5138252348
 20
90.7236714534
 30
0.0
 10
79.4941754942
 20
91.2713500334
 30
0.0
 10
79.4802638846
 20
91.6134377213
 30
0.0
 10
79.4664126905
 20
91.9085077525
 30
0.0
 10
79.4525975961
 20
92.1558479765
 30
0.0
 10
79.439027483
 20
92.3549691386
 30
0.0
 10
79.4254327754
 20
92.5052232866
 30
0.0
 10
79.4138758244
 20
92.6000414072
 30
0.0
 10
79.4033357099
 20
92.6508417304
 30
0.0
 10
79.3981391804
 20
92.6681773159
 30
0.0
 10
79.394924139
 20
92.6743677019
 30
0.0
  0
SPLINE
  5
4C9
100
AcDbEntity
  8
0
100
AcDbSpline
 62
7
  6
CONTINUOUS
 70
0
 71
3
 72
47
 73
43
 74
0
 42
0.0000001
 43
0.0000001
 44
0.0000000001
 40
0.0
 40
0.0
 40
0.0
 40
0.0
 40
0.0002238412
 40
0.0006988227
 40
0.0014575015
 40
0.0025058431
 40
0.0054769493
 40
0.0096149749
 40
0.0149121009
 40
0.0213553407
 40
0.0289310957
 40
0.037623057
 40
0.0474089233
 40
0.0582654681
 40
0.0830900639
 40
0.1118600487
 40
0.1443063989
 40
0.1801209432
 40
0.2189650937
 40
0.260471468
 40
0.3042451472
 40
0.3969224506
 40
0.4934984957
 40
0.5903245721
 40
0.6837435586
 40
0.7280643027
 40
0.7702289262
 40
0.8098357275
 40
0.8465114512
 40
0.8799070152
 40
0.9097074249
 40
0.9356318776
 40
0.9574341046
 40
0.9667250024
 40
0.9749115015
 40
0.9819735746
 40
0.9878968997
 40
0.9926680746
 40
0.9962754066
 40
0.9987154868
 40
0.9995000599
 40
1.0
 40
1.0
 40
1.0
 40
1.0
 10
82.1082730575
 20
50.8367382481
 30
0.0
 10
82.1051498834
 20
50.8367382481
 30
0.0
 10
82.0983893202
 20
50.8466056696
 30
0.0
 10
82.0931144277
 20
50.8648302813
 30
0.0
 10
82.0859609058
 20
50.8966169677
 30
0.0
 10
82.0760073584
 20
50.9621402257
 30
0.0
 10
82.0638918247
 20
51.0756538117
 30
0.0
 10
82.050397964
 20
51.2480873346
 30
0.0
 10
82.0366598353
 20
51.4692706587
 30
0.0
 10
82.0228398317
 20
51.7384092856
 30
0.0
 10
82.0089519673
 20
52.0549916228
 30
0.0
 10
81.9950300728
 20
52.4182399706
 30
0.0
 10
81.9810768412
 20
52.8272953976
 30
0.0
 10
81.9615648307
 20
53.4613802054
 30
0.0
 10
81.9376126913
 20
54.3603274753
 30
0.0
 10
81.9098710035
 20
55.5605055509
 30
0.0
 10
81.8820639184
 20
56.9140571344
 30
0.0
 10
81.8542003621
 20
58.4081950585
 30
0.0
 10
81.8263022943
 20
60.0287636293
 30
0.0
 10
81.7983786942
 20
61.7603978773
 30
0.0
 10
81.7603989565
 20
64.2430808045
 30
0.0
 10
81.7136769967
 20
67.4940855597
 30
0.0
 10
81.6585303778
 20
71.4852650144
 30
0.0
 10
81.6033790122
 20
75.486793807
 30
0.0
 10
81.5567061886
 20
78.7592713934
 30
0.0
 10
81.5187791009
 20
81.2691239614
 30
0.0
 10
81.49085051
 20
83.0282199051
 30
0.0
 10
81.4629433529
 20
84.6806338902
 30
0.0
 10
81.4350710093
 20
86.2106784635
 30
0.0
 10
81.4072425808
 20
87.6038743111
 30
0.0
 10
81.3794880626
 20
88.847030574
 30
0.0
 10
81.3518285082
 20
89.9283858395
 30
0.0
 10
81.32782808
 20
90.7235739923
 30
0.0
 10
81.3081784576
 20
91.2712779678
 30
0.0
 10
81.2942662272
 20
91.613385288
 30
0.0
 10
81.2804143732
 20
91.9084717863
 30
0.0
 10
81.2665987669
 20
92.1558269358
 30
0.0
 10
81.2530282509
 20
92.3549595226
 30
0.0
 10
81.239433026
 20
92.505220117
 30
0.0
 10
81.227875928
 20
92.6000406981
 30
0.0
 10
81.2173357298
 20
92.6508417194
 30
0.0
 10
81.2121391885
 20
92.6681773774
 30
0.0
 10
81.2089241385
 20
92.6743677545
 30
0.0
  0
LINE
  5
4CA
100
AcDbEntity
  8
0
100
AcDbLine
 62
7
  6
CONTINUOUS
 10
107.1892730575
 20
99.7592382481
 11
107.2672962679
 21
99.7294295148
  0
SPLINE
  5
4CB
100
AcDbEntity
  8
0
100
AcDbSpline
 62
7
  6
CONTINUOUS
 70
0
 71
3
 72
31
 73
27
 74
0
 42
0.0000001
 43
0.0000001
 44
0.0000000001
 40
0.0
 40
0.0
 40
0.0
 40
0.0
 40
0.0605891286
 40
0.1823381008
 40
0.3442625193
 40
0.4339318489
 40
0.525687593
 40
0.6165459295
 40
0.703596286
 40
0.7841550941
 40
0.8212130935
 40
0.8557002823
 40
0.887294471
 40
0.9156619057
 40
0.9404601555
 40
0.961351525
 40
0.9702282133
 40
0.9780068887
 40
0.9846555409
 40
0.9901426268
 40
0.9944372514
 40
0.9975194124
 40
0.99860217
 40
0.9993774738
 40
0.999843894
 40
1.0
 40
1.0
 40
1.0
 40
1.0
 10
107.2672962679
 20
99.7294295148
 30
0.0
 10
107.7108721704
 20
99.5606745773
 30
0.0
 10
109.0539975018
 20
99.0741902923
 30
0.0
 10
111.6375197173
 20
98.2930796799
 30
0.0
 10
114.5147605048
 20
97.725356942
 30
0.0
 10
117.1949345003
 20
97.4767469313
 30
0.0
 10
119.3297076086
 20
97.4431379088
 30
0.0
 10
121.439963171
 20
97.5746343787
 30
0.0
 10
123.4474903998
 20
97.8491657604
 30
0.0
 10
125.0193109746
 20
98.1697811519
 30
0.0
 10
126.1757018313
 20
98.4569999933
 30
0.0
 10
126.9548022025
 20
98.671032466
 30
0.0
 10
127.663811185
 20
98.8824666274
 30
0.0
 10
128.2963553324
 20
99.0842696905
 30
0.0
 10
128.8461114157
 20
99.2694506738
 30
0.0
 10
129.2493014336
 20
99.4113367072
 30
0.0
 10
129.525889744
 20
99.5113137448
 30
0.0
 10
129.6972780642
 20
99.5741388321
 30
0.0
 10
129.8435178106
 20
99.6284190989
 30
0.0
 10
129.9640027368
 20
99.6736656417
 30
0.0
 10
130.0582704268
 20
99.7092396672
 30
0.0
 10
130.1201760066
 20
99.7329064829
 30
0.0
 10
130.1563773277
 20
99.74653217
 30
0.0
 10
130.173301536
 20
99.7533267121
 30
0.0
 10
130.1836672911
 20
99.7567399099
 30
0.0
 10
130.1880704118
 20
99.7590173085
 30
0.0
 10
130.1892730575
 20
99.7592382481
 30
0.0
  0
SPLINE
  5
4CC
100
AcDbEntity
  8
0
100
AcDbSpline
 62
7
  6
CONTINUOUS
 70
0
 71
3
 72
47
 73
43
 74
0
 42
0.0000001
 43
0.0000001
 44
0.0000000001
 40
0.0
 40
0.0
 40
0.0
 40
0.0
 40
0.0001641089
 40
0.0006547722
 40
0.0014703605
 40
0.0026092456
 40
0.0040698005
 40
0.0058503992
 40
0.0103652084
 40
0.0161348281
 40
0.0231266995
 40
0.0313064087
 40
0.0406396668
 40
0.0626111026
 40
0.088699023
 40
0.1185554393
 40
0.1518311755
 40
0.1881854495
 40
0.227284783
 40
0.3123891672
 40
0.4043670445
 40
0.4999999999
 40
0.5956329553
 40
0.6876108326
 40
0.7727152168
 40
0.8118145503
 40
0.8481688243
 40
0.8814445607
 40
0.9113009769
 40
0.9373888965
 40
0.959360333
 40
0.9686935929
 40
0.9768733041
 40
0.9838651757
 40
0.9896347922
 40
0.9941495938
 40
0.9959301884
 40
0.9973907401
 40
0.9985296239
 40
0.9993452135
 40
0.9998358817
 40
1.0
 40
1.0
 40
1.0
 40
1.0
 10
108.1892730575
 20
100.7592382481
 30
0.0
 10
108.1901523468
 20
100.7584421762
 30
0.0
 10
108.1949920884
 20
100.7573247732
 30
0.0
 10
108.2042507992
 20
100.7523328447
 30
0.0
 10
108.2207362629
 20
100.7457188154
 30
0.0
 10
108.2432654441
 20
100.7357240341
 30
0.0
 10
108.272376841
 20
100.7232489333
 30
0.0
 10
108.3238451069
 20
100.7010527178
 30
0.0
 10
108.404014801
 20
100.666734419
 30
0.0
 10
108.5189090631
 20
100.6178407198
 30
0.0
 10
108.6584266497
 20
100.5591578914
 30
0.0
 10
108.8220110896
 20
100.4912681256
 30
0.0
 10
109.0861711131
 20
100.3832806191
 30
0.0
 10
109.4716338054
 20
100.2299826811
 30
0.0
 10
109.9981627949
 20
100.0301516719
 30
0.0
 10
110.6052428789
 20
99.8125643414
 30
0.0
 10
111.2874530979
 20
99.5851409283
 30
0.0
 10
112.0391994166
 20
99.3557598046
 30
0.0
 10
113.1587241848
 20
99.0497472347
 30
0.0
 10
114.6863023625
 20
98.71439189
 30
0.0
 10
116.6413505619
 20
98.445371981
 30
0.0
 10
118.6892730557
 20
98.3492097345
 30
0.0
 10
120.7371955497
 20
98.4453719804
 30
0.0
 10
122.6922437492
 20
98.7143918895
 30
0.0
 10
124.2198219276
 20
99.0497472303
 30
0.0
 10
125.3393466942
 20
99.3557598056
 30
0.0
 10
126.0910930141
 20
99.5851409303
 30
0.0
 10
126.7733032372
 20
99.8125643336
 30
0.0
 10
127.3803833191
 20
100.0301516536
 30
0.0
 10
127.9069123037
 20
100.2299826715
 30
0.0
 10
128.2923750011
 20
100.3832806321
 30
0.0
 10
128.5565350489
 20
100.4912681662
 30
0.0
 10
128.7201195131
 20
100.5591579486
 30
0.0
 10
128.8596370954
 20
100.6178407665
 30
0.0
 10
128.9745312977
 20
100.6667344101
 30
0.0
 10
129.0547009127
 20
100.7010526208
 30
0.0
 10
129.1061690976
 20
100.7232487513
 30
0.0
 10
129.1352804439
 20
100.7357238159
 30
0.0
 10
129.1578096129
 20
100.7457185593
 30
0.0
 10
129.1742950957
 20
100.7523326553
 30
0.0
 10
129.1835539118
 20
100.7573245826
 30
0.0
 10
129.1883937332
 20
100.7584421142
 30
0.0
 10
129.1892730575
 20
100.7592382481
 30
0.0
  0
SPLINE
  5
4CD
100
AcDbEntity
  8
0
100
AcDbSpline
 62
7
  6
CONTINUOUS
 70
0
 71
3
 72
44
 73
40
 74
0
 42
0.0000001
 43
0.0000001
 44
0.0000000001
 40
0.0
 40
0.0
 40
0.0
 40
0.0
 40
0.0002303911
 40
0.0007055591
 40
0.0014606628
 40
0.0025025305
 40
0.0054534856
 40
0.0095624404
 40
0.0148207817
 40
0.0212163867
 40
0.0287365053
 40
0.0373646244
 40
0.0470787232
 40
0.0578562422
 40
0.0825032274
 40
0.1110711436
 40
0.1432957142
 40
0.1788713457
 40
0.2174663607
 40
0.2587169489
 40
0.3022362096
 40
0.3944282353
 40
0.4905867345
 40
0.5871070308
 40
0.68037097
 40
0.7668827156
 40
0.8065807012
 40
0.8433998987
 40
0.8769975076
 40
0.9070553682
 40
0.933293733
 40
0.9554654534
 40
0.973363278
 40
0.9806560887
 40
0.9868226258
 40
0.9918471369
 40
0.9957196606
 40
0.9984361656
 40
1.0
 40
1.0
 40
1.0
 40
1.0
 10
80.192952851
 20
91.5182272024
 30
0.0
 10
80.1959881548
 20
91.5182192577
 30
0.0
 10
80.2027393087
 20
91.509207218
 30
0.0
 10
80.2080666224
 20
91.491873305
 30
0.0
 10
80.215175907
 20
91.4621720359
 30
0.0
 10
80.2251043329
 20
91.4007251484
 30
0.0
 10
80.2371577863
 20
91.2943872671
 30
0.0
 10
80.2505998491
 20
91.1327666623
 30
0.0
 10
80.2642846039
 20
90.9254943939
 30
0.0
 10
80.2780533503
 20
90.6732721774
 30
0.0
 10
80.2918877056
 20
90.3765800389
 30
0.0
 10
80.3057557256
 20
90.0361364058
 30
0.0
 10
80.3196545449
 20
89.6527452457
 30
0.0
 10
80.3390910787
 20
89.058378379
 30
0.0
 10
80.362950686
 20
88.2156366036
 30
0.0
 10
80.3905868224
 20
87.0903420355
 30
0.0
 10
80.4182852685
 20
85.8210297818
 30
0.0
 10
80.4460421185
 20
84.4195876152
 30
0.0
 10
80.4738306739
 20
82.8992103981
 30
0.0
 10
80.501647071
 20
81.2741632086
 30
0.0
 10
80.5394868871
 20
78.9430649587
 30
0.0
 10
80.5860411268
 20
75.8886232729
 30
0.0
 10
80.6409828309
 20
72.1359611999
 30
0.0
 10
80.6959248046
 20
68.3691754743
 30
0.0
 10
80.7508065043
 20
64.7294950001
 30
0.0
 10
80.7976314326
 20
61.8383909321
 30
0.0
 10
80.8357988852
 20
59.6908856768
 30
0.0
 10
80.8635724916
 20
58.2404306936
 30
0.0
 10
80.8912951202
 20
56.9170045397
 30
0.0
 10
80.9189611098
 20
55.7330098177
 30
0.0
 10
80.9465100512
 20
54.6995875172
 30
0.0
 10
80.9739368275
 20
53.8264368485
 30
0.0
 10
80.9978430512
 20
53.2028956729
 30
0.0
 10
81.0176702351
 20
52.7902602082
 30
0.0
 10
81.0313839891
 20
52.547101261
 30
0.0
 10
81.0451400878
 20
52.3491782835
 30
0.0
 10
81.0582784344
 20
52.1965691243
 30
0.0
 10
81.0718804523
 20
52.0903096418
 30
0.0
 10
81.0815112302
 20
52.0342381502
 30
0.0
 10
81.0888039535
 20
52.0149690931
 30
0.0
  0
SPLINE
  5
4CE
100
AcDbEntity
  8
0
100
AcDbSpline
 62
7
  6
CONTINUOUS
 70
0
 71
3
 72
8
 73
4
 74
0
 42
0.0000001
 43
0.0000001
 44
0.0000000001
 40
0.0
 40
0.0
 40
0.0
 40
0.0
 40
1.0
 40
1.0
 40
1.0
 40
1.0
 10
81.0888039535
 20
52.0149690931
 30
0.0
 10
81.0896993044
 20
52.0126033694
 30
0.0
 10
81.090682378
 20
52.0102625706
 30
0.0
 10
81.0918514533
 20
52.0080194557
 30
0.0
  0
SPLINE
  5
4CF
100
AcDbEntity
  8
0
100
AcDbSpline
 62
7
  6
CONTINUOUS
 70
0
 71
3
 72
47
 73
43
 74
0
 42
0.0000001
 43
0.0000001
 44
0.0000000001
 40
0.0
 40
0.0
 40
0.0
 40
0.0
 40
0.0002238411
 40
0.0006988219
 40
0.0014574994
 40
0.0025058392
 40
0.0054769399
 40
0.0096149555
 40
0.0149120614
 40
0.021355277
 40
0.0289310102
 40
0.0376229344
 40
0.0474087469
 40
0.0582652344
 40
0.083089683
 40
0.1118596692
 40
0.1443062312
 40
0.1801210172
 40
0.2189653569
 40
0.2604718822
 40
0.3042456834
 40
0.3969229708
 40
0.4934987679
 40
0.5903250496
 40
0.6837441174
 40
0.7280647575
 40
0.7702292297
 40
0.8098358597
 40
0.8465113517
 40
0.8799066842
 40
0.9097070125
 40
0.9356316133
 40
0.9574339543
 40
0.9667248999
 40
0.9749114258
 40
0.9819735223
 40
0.9878968706
 40
0.9926680615
 40
0.9962754003
 40
0.9987154848
 40
0.9995000592
 40
1.0
 40
1.0
 40
1.0
 40
1.0
 10
82.6126325842
 20
92.6817382481
 30
0.0
 10
82.615755756
 20
92.6817382481
 30
0.0
 10
82.6225163195
 20
92.6718708491
 30
0.0
 10
82.6277912119
 20
92.6536462609
 30
0.0
 10
82.6349447307
 20
92.6218596313
 30
0.0
 10
82.6448982707
 20
92.5563364891
 30
0.0
 10
82.6570137837
 20
92.4428231452
 30
0.0
 10
82.6705076072
 20
92.2703901172
 30
0.0
 10
82.6842457157
 20
92.049207553
 30
0.0
 10
82.698065691
 20
91.7800698472
 30
0.0
 10
82.7119535053
 20
91.4634886682
 30
0.0
 10
82.7258753705
 20
91.1002418927
 30
0.0
 10
82.7398285735
 20
90.6911885334
 30
0.0
 10
82.7593404963
 20
90.0571073285
 30
0.0
 10
82.783292633
 20
89.1581628927
 30
0.0
 10
82.8110343386
 20
87.9579838983
 30
0.0
 10
82.8388415873
 20
86.6044259709
 30
0.0
 10
82.8667053346
 20
85.1102790817
 30
0.0
 10
82.894603519
 20
83.4897023915
 30
0.0
 10
82.9225272133
 20
81.758061694
 30
0.0
 10
82.9605069877
 20
79.2753751822
 30
0.0
 10
83.0072289061
 20
76.0243724093
 30
0.0
 10
83.0623755052
 20
72.0331937742
 30
0.0
 10
83.1175268839
 20
68.0316644446
 30
0.0
 10
83.1641997627
 20
64.759184311
 30
0.0
 10
83.2021268198
 20
62.2493341711
 30
0.0
 10
83.230055338
 20
60.4902441791
 30
0.0
 10
83.2579623742
 20
58.8378379278
 30
0.0
 10
83.2858345646
 20
57.3078022065
 30
0.0
 10
83.3136627747
 20
55.9146139546
 30
0.0
 10
83.3414172863
 20
54.6714599925
 30
0.0
 10
83.3690767921
 20
53.5901022046
 30
0.0
 10
83.393077342
 20
52.7949097293
 30
0.0
 10
83.4127269946
 20
52.2472031208
 30
0.0
 10
83.4266392717
 20
51.9050944342
 30
0.0
 10
83.4404911628
 20
51.6100069133
 30
0.0
 10
83.4543067952
 20
51.3626508922
 30
0.0
 10
83.4678773342
 20
51.1635176629
 30
0.0
 10
83.4814725969
 20
51.0132566919
 30
0.0
 10
83.4930297062
 20
50.9184359374
 30
0.0
 10
83.5035699099
 20
50.8676348277
 30
0.0
 10
83.5087664522
 20
50.8502991408
 30
0.0
 10
83.5119815033
 20
50.8441087528
 30
0.0
  0
SPLINE
  5
4D0
100
AcDbEntity
  8
0
100
AcDbSpline
 62
7
  6
CONTINUOUS
 70
0
 71
3
 72
47
 73
43
 74
0
 42
0.0000001
 43
0.0000001
 44
0.0000000001
 40
0.0
 40
0.0
 40
0.0
 40
0.0
 40
0.000223842
 40
0.0006988234
 40
0.0014574965
 40
0.0025058222
 40
0.0054768469
 40
0.0096146699
 40
0.014911418
 40
0.021354228
 40
0.0289296224
 40
0.0376210129
 40
0.0474061925
 40
0.0582622614
 40
0.083086158
 40
0.1118558715
 40
0.1443020249
 40
0.180116675
 40
0.2189606768
 40
0.2604670427
 40
0.3042405756
 40
0.3969184162
 40
0.4934984889
 40
0.5903292121
 40
0.6837491926
 40
0.7280690291
 40
0.7702319564
 40
0.8098369959
 40
0.8465113355
 40
0.8799064347
 40
0.9097068786
 40
0.9356316491
 40
0.9574340577
 40
0.9667250012
 40
0.9749115268
 40
0.9819736073
 40
0.9878969286
 40
0.9926680997
 40
0.9962754283
 40
0.9987154971
 40
0.9995000642
 40
1.0
 40
1.0
 40
1.0
 40
1.0
 10
80.7986325841
 20
92.6817382481
 30
0.0
 10
80.8017557685
 20
92.6817382481
 30
0.0
 10
80.8085163011
 20
92.6718707713
 30
0.0
 10
80.8137912036
 20
92.6536462563
 30
0.0
 10
80.8209446906
 20
92.6218598662
 30
0.0
 10
80.8308981268
 20
92.5563380439
 30
0.0
 10
80.8430133398
 20
92.4428286402
 30
0.0
 10
80.8565066395
 20
92.2704043334
 30
0.0
 10
80.8702443273
 20
92.0492351103
 30
0.0
 10
80.8840637682
 20
91.7801127733
 30
0.0
 10
80.8979507763
 20
91.4635494089
 30
0.0
 10
80.9118723782
 20
91.1003236436
 30
0.0
 10
80.9258254623
 20
90.6912924103
 30
0.0
 10
80.9453369367
 20
90.0572335738
 30
0.0
 10
80.9692890676
 20
89.1583064895
 30
0.0
 10
80.9970307329
 20
87.9581447031
 30
0.0
 10
81.0248383763
 20
86.6045981833
 30
0.0
 10
81.0527019072
 20
85.1104636004
 30
0.0
 10
81.0806004014
 20
83.4898957482
 30
0.0
 10
81.1085239703
 20
81.758265729
 30
0.0
 10
81.146504043
 20
79.2755774637
 30
0.0
 10
81.1932269513
 20
76.0245110589
 30
0.0
 10
81.2483753935
 20
72.0332030827
 30
0.0
 10
81.303528598
 20
68.0315393944
 30
0.0
 10
81.3502025744
 20
64.7589957691
 30
0.0
 10
81.3881293805
 20
62.2491656551
 30
0.0
 10
81.4160572576
 20
60.4901306163
 30
0.0
 10
81.4439632552
 20
58.8377841774
 30
0.0
 10
81.4718348459
 20
57.3077899741
 30
0.0
 10
81.4996626496
 20
55.9146194352
 30
0.0
 10
81.527417185
 20
54.671464746
 30
0.0
 10
81.5550767944
 20
53.5901020324
 30
0.0
 10
81.5790774391
 20
52.7949062759
 30
0.0
 10
81.5987271768
 20
52.2471987596
 30
0.0
 10
81.6126394498
 20
51.9050903279
 30
0.0
 10
81.6264913419
 20
51.6100034096
 30
0.0
 10
81.640306975
 20
51.3626482643
 30
0.0
 10
81.6538774904
 20
51.163515831
 30
0.0
 10
81.6674726519
 20
51.0132554938
 30
0.0
 10
81.6790297275
 20
50.9184351971
 30
0.0
 10
81.6895699175
 20
50.8676344841
 30
0.0
 10
81.6947664568
 20
50.8502989725
 30
0.0
 10
81.6979815033
 20
50.8441086619
 30
0.0
  0
SPLINE
  5
4D1
100
AcDbEntity
  8
0
100
AcDbSpline
 62
7
  6
CONTINUOUS
 70
0
 71
3
 72
47
 73
43
 74
0
 42
0.0000001
 43
0.0000001
 44
0.0000000001
 40
0.0
 40
0.0
 40
0.0
 40
0.0
 40
0.0002238432
 40
0.0006988318
 40
0.0014575212
 40
0.0025058758
 40
0.0054770093
 40
0.0096150683
 40
0.0149122643
 40
0.0213555825
 40
0.0289313921
 40
0.0376234411
 40
0.0474094337
 40
0.0582660975
 40
0.0830909872
 40
0.1118611707
 40
0.144307425
 40
0.1801209335
 40
0.2189634406
 40
0.2604684419
 40
0.3042413072
 40
0.3969190371
 40
0.4934986576
 40
0.5903285523
 40
0.6837481764
 40
0.728068894
 40
0.7702334879
 40
0.8098401941
 40
0.8465158281
 40
0.879911004
 40
0.9097112166
 40
0.9356349614
 40
0.9574362832
 40
0.9667264976
 40
0.9749125481
 40
0.9819742663
 40
0.9878972631
 40
0.9926682148
 40
0.9962754534
 40
0.998715495
 40
0.9995000616
 40
1.0
 40
1.0
 40
1.0
 40
1.0
 10
78.9846325842
 20
92.6817382481
 30
0.0
 10
78.987755785
 20
92.6817382481
 30
0.0
 10
78.9945163348
 20
92.6718705796
 30
0.0
 10
78.9997912313
 20
92.6536457621
 30
0.0
 10
79.0069447739
 20
92.6218585997
 30
0.0
 10
79.0168983581
 20
92.5563346507
 30
0.0
 10
79.0290139926
 20
92.442820027
 30
0.0
 10
79.0425080324
 20
92.2703846963
 30
0.0
 10
79.056246199
 20
92.0491988306
 30
0.0
 10
79.0700662603
 20
91.7800573713
 30
0.0
 10
79.0839542452
 20
91.4634719568
 30
0.0
 10
79.0978761856
 20
91.1002198608
 30
0.0
 10
79.1118294467
 20
90.691159787
 30
0.0
 10
79.1313416226
 20
90.0570674587
 30
0.0
 10
79.1552938575
 20
89.158111655
 30
0.0
 10
79.18303561
 20
87.9579280465
 30
0.0
 10
79.2108422376
 20
86.6043894763
 30
0.0
 10
79.2387051653
 20
85.1102902688
 30
0.0
 10
79.2666022625
 20
83.4897782306
 30
0.0
 10
79.294525062
 20
81.75819742
 30
0.0
 10
79.332504582
 20
79.2755390576
 30
0.0
 10
79.3792272603
 20
76.0244898302
 30
0.0
 10
79.4343754098
 20
72.0332012791
 30
0.0
 10
79.4895283235
 20
68.0315604445
 30
0.0
 10
79.5362021603
 20
64.7590210678
 30
0.0
 10
79.5741294951
 20
62.2491603911
 30
0.0
 10
79.6020582294
 20
60.4900665619
 30
0.0
 10
79.6299656308
 20
58.8376555746
 30
0.0
 10
79.6578378875
 20
57.3076189963
 30
0.0
 10
79.685666797
 20
55.9144325791
 30
0.0
 10
79.7134210098
 20
54.6712943578
 30
0.0
 10
79.7410809425
 20
53.5899643702
 30
0.0
 10
79.7650802632
 20
52.7948082396
 30
0.0
 10
79.784729834
 20
52.2471327045
 30
0.0
 10
79.7986414438
 20
51.9050461243
 30
0.0
 10
79.8124926867
 20
51.6099754064
 30
0.0
 10
79.826307847
 20
51.3626328977
 30
0.0
 10
79.8398780114
 20
51.1635093102
 30
0.0
 10
79.8534728078
 20
51.0132536507
 30
0.0
 10
79.865029789
 20
50.9184350048
 30
0.0
 10
79.8755699261
 20
50.867634635
 30
0.0
 10
79.8807664599
 20
50.8502990962
 30
0.0
 10
79.8839815029
 20
50.8441087428
 30
0.0
  0
SPLINE
  5
4D2
100
AcDbEntity
  8
0
100
AcDbSpline
 62
7
  6
CONTINUOUS
 70
0
 71
3
 72
47
 73
43
 74
0
 42
0.0000001
 43
0.0000001
 44
0.0000000001
 40
0.0
 40
0.0
 40
0.0
 40
0.0
 40
0.0002238409
 40
0.0006988211
 40
0.0014574978
 40
0.002505837
 40
0.0054769375
 40
0.0096149553
 40
0.0149120657
 40
0.0213552882
 40
0.0289310316
 40
0.0376229744
 40
0.0474088127
 40
0.0582653285
 40
0.0830898545
 40
0.1118598856
 40
0.1443064532
 40
0.1801212191
 40
0.2189655518
 40
0.260472057
 40
0.3042458339
 40
0.3969230858
 40
0.4934988778
 40
0.5903250157
 40
0.6837439956
 40
0.7280646396
 40
0.7702291395
 40
0.8098358128
 40
0.8465113739
 40
0.8799067824
 40
0.9097071421
 40
0.9356317033
 40
0.9574340128
 40
0.966724944
 40
0.9749114625
 40
0.9819735501
 40
0.9878968877
 40
0.992668071
 40
0.9962754063
 40
0.9987154873
 40
0.9995000601
 40
1.0
 40
1.0
 40
1.0
 40
1.0
 10
77.1706325842
 20
92.6817382481
 30
0.0
 10
77.1737557535
 20
92.6817382481
 30
0.0
 10
77.1805163189
 20
92.671870871
 30
0.0
 10
77.1857912105
 20
92.6536462977
 30
0.0
 10
77.1929447283
 20
92.6218597004
 30
0.0
 10
77.2028982679
 20
92.5563365801
 30
0.0
 10
77.2150137807
 20
92.442823218
 30
0.0
 10
77.2285076051
 20
92.2703900985
 30
0.0
 10
77.2422457245
 20
92.0492073432
 30
0.0
 10
77.2560657142
 20
91.7800693372
 30
0.0
 10
77.2699535505
 20
91.4634876611
 30
0.0
 10
77.2838754334
 20
91.1002401246
 30
0.0
 10
77.2978286564
 20
90.691185751
 30
0.0
 10
77.3173406293
 20
90.0571027109
 30
0.0
 10
77.3412927904
 20
89.1581561733
 30
0.0
 10
77.3690345347
 20
87.9579753932
 30
0.0
 10
77.3968417561
 20
86.60441704
 30
0.0
 10
77.4247054929
 20
85.1102704499
 30
0.0
 10
77.4526036469
 20
83.489694418
 30
0.0
 10
77.4805273297
 20
81.7580544362
 30
0.0
 10
77.5185070759
 20
79.2753690363
 30
0.0
 10
77.5652289799
 20
76.0243671661
 30
0.0
 10
77.6203755421
 20
72.0331911023
 30
0.0
 10
77.6755268757
 20
68.0316650741
 30
0.0
 10
77.7221997062
 20
64.7591881163
 30
0.0
 10
77.7601267502
 20
62.2493387594
 30
0.0
 10
77.7880552795
 20
60.4902477214
 30
0.0
 10
77.815962345
 20
58.8378395139
 30
0.0
 10
77.8438345813
 20
57.3078011632
 30
0.0
 10
77.8716628601
 20
55.9146104493
 30
0.0
 10
77.8994173793
 20
54.6714555408
 30
0.0
 10
77.9270769066
 20
53.5900983079
 30
0.0
 10
77.9510774244
 20
52.7949070249
 30
0.0
 10
77.9707270762
 20
52.2472011612
 30
0.0
 10
77.9846393388
 20
51.9050929023
 30
0.0
 10
77.9984912196
 20
51.6100057572
 30
0.0
 10
78.0123068449
 20
51.3626501145
 30
0.0
 10
78.0258773739
 20
51.1635171888
 30
0.0
 10
78.0394726107
 20
51.0132564217
 30
0.0
 10
78.0510297117
 20
50.9184357862
 30
0.0
 10
78.0615699117
 20
50.8676347616
 30
0.0
 10
78.0667664532
 20
50.8502991093
 30
0.0
 10
78.0699815033
 20
50.844108736
 30
0.0
  0
SPLINE
  5
4D3
100
AcDbEntity
  8
0
100
AcDbSpline
 62
7
  6
CONTINUOUS
 70
0
 71
3
 72
9
 73
5
 74
0
 42
0.0000001
 43
0.0000001
 44
0.0000000001
 40
0.0
 40
0.0
 40
0.0
 40
0.0
 40
0.6169108032
 40
1.0
 40
1.0
 40
1.0
 40
1.0
 10
76.1742726651
 20
51.8309582947
 30
0.0
 10
76.1823720318
 20
51.6521728527
 30
0.0
 10
76.197511516
 20
51.3625391795
 30
0.0
 10
76.2180517722
 20
51.0729321079
 30
0.0
 10
76.2319506838
 20
50.9626686184
 30
0.0
  0
SPLINE
  5
4D4
100
AcDbEntity
  8
0
100
AcDbSpline
 62
7
  6
CONTINUOUS
 70
0
 71
3
 72
9
 73
5
 74
0
 42
0.0000001
 43
0.0000001
 44
0.0000000001
 40
0.0
 40
0.0
 40
0.0
 40
0.0
 40
0.6457517331
 40
1.0
 40
1.0
 40
1.0
 40
1.0
 10
76.2319506838
 20
50.9626686184
 30
0.0
 10
76.2352134273
 20
50.9367844701
 30
0.0
 10
76.2414340885
 20
50.897210734
 30
0.0
 10
76.2493849963
 20
50.8568098279
 30
0.0
 10
76.2559815033
 20
50.8441087119
 30
0.0
  0
SPLINE
  5
4D5
100
AcDbEntity
  8
0
100
AcDbSpline
 62
7
  6
CONTINUOUS
 70
0
 71
3
 72
42
 73
38
 74
0
 42
0.0000001
 43
0.0000001
 44
0.0000000001
 40
0.0
 40
0.0
 40
0.0
 40
0.0
 40
0.0002273016
 40
0.000694581
 40
0.0014367155
 40
0.0024603464
 40
0.0053582878
 40
0.0093921749
 40
0.0145563076
 40
0.0208379517
 40
0.0282232653
 40
0.0366976605
 40
0.0462411492
 40
0.0568304155
 40
0.0810508921
 40
0.1091365116
 40
0.140830121
 40
0.1758378682
 40
0.2138399034
 40
0.2544834537
 40
0.2973965283
 40
0.3884277464
 40
0.4835860887
 40
0.5793720886
 40
0.6722630599
 40
0.7588428218
 40
0.8359276845
 40
0.870007658
 40
0.9006838128
 40
0.9276756337
 40
0.950731994
 40
0.9696449577
 40
0.9842376476
 40
0.9898735106
 40
0.9943837764
 40
0.9977595899
 40
1.0
 40
1.0
 40
1.0
 40
1.0
 10
78.3789528152
 20
91.5182378929
 30
0.0
 10
78.3819449745
 20
91.5182397591
 30
0.0
 10
78.3886432958
 20
91.5094302408
 30
0.0
 10
78.3939201445
 20
91.4923866257
 30
0.0
 10
78.4009630854
 20
91.4632454585
 30
0.0
 10
78.4107945505
 20
91.4029450473
 30
0.0
 10
78.4227344398
 20
91.2986304537
 30
0.0
 10
78.436053115
 20
91.1400645539
 30
0.0
 10
78.4496043103
 20
90.9366922294
 30
0.0
 10
78.4632406128
 20
90.6891908689
 30
0.0
 10
78.4769448168
 20
90.3980403615
 30
0.0
 10
78.4906815696
 20
90.0639195144
 30
0.0
 10
78.5044463505
 20
89.6875898216
 30
0.0
 10
78.5236989034
 20
89.1040480413
 30
0.0
 10
78.5473353415
 20
88.2764376476
 30
0.0
 10
78.5747068272
 20
87.1710168572
 30
0.0
 10
78.6021430664
 20
85.9235572772
 30
0.0
 10
78.629636201
 20
84.5455328169
 30
0.0
 10
78.6571601932
 20
83.0496719988
 30
0.0
 10
78.6847134945
 20
81.4497309885
 30
0.0
 10
78.72221083
 20
79.1517913618
 30
0.0
 10
78.768352103
 20
76.1362748059
 30
0.0
 10
78.8227849362
 20
72.4247946002
 30
0.0
 10
78.8772276763
 20
68.6888304692
 30
0.0
 10
78.9316045016
 20
65.0658042766
 30
0.0
 10
78.985847874
 20
61.6889841143
 30
0.0
 10
79.0324915835
 20
59.0863215441
 30
0.0
 10
79.0707152996
 20
57.2195406433
 30
0.0
 10
79.0981380612
 20
56.0120956133
 30
0.0
 10
79.1254768077
 20
54.9498044811
 30
0.0
 10
79.1526547468
 20
54.0424115957
 30
0.0
 10
79.1796672747
 20
53.2983296185
 30
0.0
 10
79.2032830096
 20
52.7835889311
 30
0.0
 10
79.2231780128
 20
52.458543837
 30
0.0
 10
79.2365680654
 20
52.2810158942
 30
0.0
 10
79.2498868185
 20
52.1484113633
 30
0.0
 10
79.2600794313
 20
52.0750703308
 30
0.0
 10
79.2662580753
 20
52.0462324185
 30
0.0
  0
SPLINE
  5
4D6
100
AcDbEntity
  8
0
100
AcDbSpline
 62
7
  6
CONTINUOUS
 70
0
 71
3
 72
9
 73
5
 74
0
 42
0.0000001
 43
0.0000001
 44
0.0000000001
 40
0.0
 40
0.0
 40
0.0
 40
0.0
 40
0.3218594454
 40
1.0
 40
1.0
 40
1.0
 40
1.0
 10
79.2662580753
 20
52.0462324185
 30
0.0
 10
79.267156509
 20
52.0420391111
 30
0.0
 10
79.270189356
 20
52.0291008091
 30
0.0
 10
79.2736816931
 20
52.0160392879
 30
0.0
 10
79.2778514146
 20
52.0080233533
 30
0.0
  0
SPLINE
  5
4D7
100
AcDbEntity
  8
0
100
AcDbSpline
 62
7
  6
CONTINUOUS
 70
0
 71
3
 72
9
 73
5
 74
0
 42
0.0000001
 43
0.0000001
 44
0.0000000001
 40
0.0
 40
0.0
 40
0.0
 40
0.0
 40
0.4979981639
 40
1.0
 40
1.0
 40
1.0
 40
1.0
 10
107.9310278264
 20
147.5663702825
 30
0.0
 10
107.9579517716
 20
147.5386213847
 30
0.0
 10
108.0013747926
 20
147.4715898355
 30
0.0
 10
108.0162836664
 20
147.3932130267
 30
0.0
 10
108.0162836326
 20
147.3542382481
 30
0.0
  0
SPLINE
  5
4D8
100
AcDbEntity
  8
0
100
AcDbSpline
 62
7
  6
CONTINUOUS
 70
0
 71
3
 72
9
 73
5
 74
0
 42
0.0000001
 43
0.0000001
 44
0.0000000001
 40
0.0
 40
0.0
 40
0.0
 40
0.0
 40
0.3933674475
 40
1.0
 40
1.0
 40
1.0
 40
1.0
 10
107.1874876424
 20
147.4592382481
 30
0.0
 10
107.2030450232
 20
147.4592250858
 30
0.0
 10
107.2413066262
 20
147.4453323347
 30
0.0
 10
107.277544454
 20
147.4307686155
 30
0.0
 10
107.2997653396
 20
147.4217219793
 30
0.0
  0
SPLINE
  5
4D9
100
AcDbEntity
  8
0
100
AcDbSpline
 62
7
  6
CONTINUOUS
 70
0
 71
3
 72
9
 73
5
 74
0
 42
0.0000001
 43
0.0000001
 44
0.0000000001
 40
0.0
 40
0.0
 40
0.0
 40
0.0
 40
0.2422658025
 40
1.0
 40
1.0
 40
1.0
 40
1.0
 10
107.3210593175
 20
147.413103403
 30
0.0
 10
107.327541635
 20
147.4151148545
 30
0.0
 10
107.3539811503
 20
147.4244269708
 30
0.0
 10
107.3790185744
 20
147.4375732949
 30
0.0
 10
107.3968289507
 20
147.4491246803
 30
0.0
  0
SPLINE
  5
4DA
100
AcDbEntity
  8
0
100
AcDbSpline
 62
7
  6
CONTINUOUS
 70
0
 71
3
 72
9
 73
5
 74
0
 42
0.0000001
 43
0.0000001
 44
0.0000000001
 40
0.0
 40
0.0
 40
0.0
 40
0.0
 40
0.2425560003
 40
1.0
 40
1.0
 40
1.0
 40
1.0
 10
107.3672997568
 20
147.3941045285
 30
0.0
 10
107.3780015867
 20
147.3896031424
 30
0.0
 10
107.4220290312
 20
147.3708226149
 30
0.0
 10
107.4657443991
 20
147.3513154064
 30
0.0
 10
107.4987185657
 20
147.3362441773
 30
0.0
  0
SPLINE
  5
4DB
100
AcDbEntity
  8
0
100
AcDbSpline
 62
7
  6
CONTINUOUS
 70
0
 71
3
 72
11
 73
7
 74
0
 42
0.0000001
 43
0.0000001
 44
0.0000000001
 40
0.0
 40
0.0
 40
0.0
 40
0.0
 40
0.3130772725
 40
0.6133327425
 40
0.852554879
 40
1.0
 40
1.0
 40
1.0
 40
1.0
 10
107.7252021029
 20
147.2278096767
 30
0.0
 10
107.757848603
 20
147.2546996297
 30
0.0
 10
107.811748296
 20
147.3186690017
 30
0.0
 10
107.8801342894
 20
147.4112308118
 30
0.0
 10
107.9246756283
 20
147.4931903534
 30
0.0
 10
107.9340654871
 20
147.5466842705
 30
0.0
 10
107.9310278264
 20
147.5663702825
 30
0.0
  0
SPLINE
  5
4DC
100
AcDbEntity
  8
0
100
AcDbSpline
 62
7
  6
CONTINUOUS
 70
0
 71
3
 72
9
 73
5
 74
0
 42
0.0000001
 43
0.0000001
 44
0.0000000001
 40
0.0
 40
0.0
 40
0.0
 40
0.0
 40
0.2374393624
 40
1.0
 40
1.0
 40
1.0
 40
1.0
 10
107.6772794344
 20
147.7785069493
 30
0.0
 10
107.697803193
 20
147.76225547
 30
0.0
 10
107.7836804177
 20
147.6931037873
 30
0.0
 10
107.8677503338
 20
147.6217234862
 30
0.0
 10
107.9310340942
 20
147.5663702824
 30
0.0
  0
SPLINE
  5
4DD
100
AcDbEntity
  8
0
100
AcDbSpline
 62
7
  6
CONTINUOUS
 70
0
 71
3
 72
12
 73
8
 74
0
 42
0.0000001
 43
0.0000001
 44
0.0000000001
 40
0.0
 40
0.0
 40
0.0
 40
0.0
 40
0.0956766756
 40
0.1902000674
 40
0.3266721271
 40
0.6651937939
 40
1.0
 40
1.0
 40
1.0
 40
1.0
 10
107.6772852293
 20
147.7785069493
 30
0.0
 10
107.6666444918
 20
147.7785069494
 30
0.0
 10
107.6497158175
 20
147.7583456717
 30
0.0
 10
107.6404512065
 20
147.724578092
 30
0.0
 10
107.6301723455
 20
147.6612152952
 30
0.0
 10
107.6301996526
 20
147.5712189481
 30
0.0
 10
107.6341187973
 20
147.4963749194
 30
0.0
 10
107.6368322136
 20
147.4592382481
 30
0.0
  0
LINE
  5
4DE
100
AcDbEntity
  8
0
100
AcDbLine
 62
7
  6
CONTINUOUS
 10
107.8724997572
 20
140.8009903463
 11
107.6960492317
 21
140.8584017634
  0
SPLINE
  5
4DF
100
AcDbEntity
  8
0
100
AcDbSpline
 62
7
  6
CONTINUOUS
 70
0
 71
3
 72
9
 73
5
 74
0
 42
0.0000001
 43
0.0000001
 44
0.0000000001
 40
0.0
 40
0.0
 40
0.0
 40
0.0
 40
0.7468438981
 40
1.0
 40
1.0
 40
1.0
 40
1.0
 10
107.8007659801
 20
140.9122652906
 30
0.0
 10
107.8375752032
 20
140.8910117174
 30
0.0
 10
107.8808538938
 20
140.849852097
 30
0.0
 10
107.9082952858
 20
140.7998914075
 30
0.0
 10
107.914280664
 20
140.7867858353
 30
0.0
  0
SPLINE
  5
4E0
100
AcDbEntity
  8
0
100
AcDbSpline
 62
7
  6
CONTINUOUS
 70
0
 71
3
 72
9
 73
5
 74
0
 42
0.0000001
 43
0.0000001
 44
0.0000000001
 40
0.0
 40
0.0
 40
0.0
 40
0.0
 40
0.5332903193
 40
1.0
 40
1.0
 40
1.0
 40
1.0
 10
107.9598795731
 20
140.8132994551
 30
0.0
 10
107.9558485257
 20
140.8036307867
 30
0.0
 10
107.9463507143
 20
140.7827374263
 30
0.0
 10
107.9229781066
 20
140.7838838191
 30
0.0
 10
107.9142823421
 20
140.7867866906
 30
0.0
  0
SPLINE
  5
4E1
100
AcDbEntity
  8
0
100
AcDbSpline
 62
7
  6
CONTINUOUS
 70
0
 71
3
 72
9
 73
5
 74
0
 42
0.0000001
 43
0.0000001
 44
0.0000000001
 40
0.0
 40
0.0
 40
0.0
 40
0.0
 40
0.2564620601
 40
1.0
 40
1.0
 40
1.0
 40
1.0
 10
107.8226570817
 20
140.9416358733
 30
0.0
 10
107.8342834487
 20
140.9363283933
 30
0.0
 10
107.8783269199
 20
140.912964512
 30
0.0
 10
107.9166472285
 20
140.8784599013
 30
0.0
 10
107.9384264051
 20
140.8484828202
 30
0.0
  0
SPLINE
  5
4E2
100
AcDbEntity
  8
0
100
AcDbSpline
 62
7
  6
CONTINUOUS
 70
0
 71
3
 72
13
 73
9
 74
0
 42
0.0000001
 43
0.0000001
 44
0.0000000001
 40
0.0
 40
0.0
 40
0.0
 40
0.0
 40
0.3420994894
 40
0.5536984782
 40
0.6261310262
 40
0.715156469
 40
0.8404691262
 40
1.0
 40
1.0
 40
1.0
 40
1.0
 10
107.8226636212
 20
140.941647208
 30
0.0
 10
107.8242951149
 20
140.9349200753
 30
0.0
 10
107.8265191402
 20
140.9245451325
 30
0.0
 10
107.828074438
 20
140.9103862339
 30
0.0
 10
107.8219261679
 20
140.9049358125
 30
0.0
 10
107.8157557716
 20
140.9054063682
 30
0.0
 10
107.8087017011
 20
140.9079511436
 30
0.0
 10
107.8035607119
 20
140.9106499168
 30
0.0
 10
107.8007643914
 20
140.912262539
 30
0.0
  0
SPLINE
  5
4E3
100
AcDbEntity
  8
0
100
AcDbSpline
 62
7
  6
CONTINUOUS
 70
0
 71
3
 72
9
 73
5
 74
0
 42
0.0000001
 43
0.0000001
 44
0.0000000001
 40
0.0
 40
0.0
 40
0.0
 40
0.0
 40
0.5851380935
 40
1.0
 40
1.0
 40
1.0
 40
1.0
 10
107.9944741553
 20
140.9211184634
 30
0.0
 10
107.9868947146
 20
140.9003740619
 30
0.0
 10
107.9754885956
 20
140.8644025532
 30
0.0
 10
107.9657797298
 20
140.8278040667
 30
0.0
 10
107.9598795731
 20
140.8132994551
 30
0.0
  0
SPLINE
  5
4E4
100
AcDbEntity
  8
0
100
AcDbSpline
 62
7
  6
CONTINUOUS
 70
0
 71
3
 72
9
 73
5
 74
0
 42
0.0000001
 43
0.0000001
 44
0.0000000001
 40
0.0
 40
0.0
 40
0.0
 40
0.0
 40
0.2928781509
 40
1.0
 40
1.0
 40
1.0
 40
1.0
 10
107.7973648939
 20
141.0849134375
 30
0.0
 10
107.8215827432
 20
141.0770281179
 30
0.0
 10
107.9008098543
 20
141.0443520943
 30
0.0
 10
107.9772512979
 20
140.9801499509
 30
0.0
 10
107.9944743139
 20
140.9211184634
 30
0.0
  0
SPLINE
  5
4E5
100
AcDbEntity
  8
0
100
AcDbSpline
 62
7
  6
CONTINUOUS
 70
0
 71
3
 72
9
 73
5
 74
0
 42
0.0000001
 43
0.0000001
 44
0.0000000001
 40
0.0
 40
0.0
 40
0.0
 40
0.0
 40
0.5464339078
 40
1.0
 40
1.0
 40
1.0
 40
1.0
 10
107.7973650707
 20
141.0849137437
 30
0.0
 10
107.7981087384
 20
141.0583792835
 30
0.0
 10
107.804412495
 20
141.0098623379
 30
0.0
 10
107.8173957822
 20
140.9630417273
 30
0.0
 10
107.8226636212
 20
140.941647208
 30
0.0
  0
SPLINE
  5
4E6
100
AcDbEntity
  8
0
100
AcDbSpline
 62
7
  6
CONTINUOUS
 70
0
 71
3
 72
9
 73
5
 74
0
 42
0.0000001
 43
0.0000001
 44
0.0000000001
 40
0.0
 40
0.0
 40
0.0
 40
0.0
 40
0.5253604245
 40
1.0
 40
1.0
 40
1.0
 40
1.0
 10
108.0323148938
 20
141.4082605821
 30
0.0
 10
108.0323128199
 20
141.3226152729
 30
0.0
 10
108.0267804598
 20
141.1595685757
 30
0.0
 10
108.0083845934
 20
140.9972345104
 30
0.0
 10
107.9944741553
 20
140.9211184634
 30
0.0
  0
SPLINE
  5
4E7
100
AcDbEntity
  8
0
100
AcDbSpline
 62
7
  6
CONTINUOUS
 70
0
 71
3
 72
9
 73
5
 74
0
 42
0.0000001
 43
0.0000001
 44
0.0000000001
 40
0.0
 40
0.0
 40
0.0
 40
0.0
 40
0.5209340688
 40
1.0
 40
1.0
 40
1.0
 40
1.0
 10
107.7416705803
 20
141.4082605821
 30
0.0
 10
107.7567163019
 20
141.3532160217
 30
0.0
 10
107.7815326199
 20
141.2464597781
 30
0.0
 10
107.7959399605
 20
141.1373718997
 30
0.0
 10
107.7973650707
 20
141.0849137437
 30
0.0
  0
SPLINE
  5
4E8
100
AcDbEntity
  8
0
100
AcDbSpline
 62
7
  6
CONTINUOUS
 70
0
 71
3
 72
10
 73
6
 74
0
 42
0.0000001
 43
0.0000001
 44
0.0000000001
 40
0.0
 40
0.0
 40
0.0
 40
0.0
 40
0.5886751223
 40
0.8240666629
 40
1.0
 40
1.0
 40
1.0
 40
1.0
 10
107.7252021029
 20
147.2278096767
 30
0.0
 10
107.7888687516
 20
147.2338760299
 30
0.0
 10
107.8785202888
 20
147.2533106101
 30
0.0
 10
107.9745867759
 20
147.3045476481
 30
0.0
 10
108.0076641461
 20
147.3371783025
 30
0.0
 10
108.0162836326
 20
147.3542382481
 30
0.0
  0
SPLINE
  5
4E9
100
AcDbEntity
  8
0
100
AcDbSpline
 62
7
  6
CONTINUOUS
 70
0
 71
3
 72
9
 73
5
 74
0
 42
0.0000001
 43
0.0000001
 44
0.0000000001
 40
0.0
 40
0.0
 40
0.0
 40
0.0
 40
0.2397186048
 40
1.0
 40
1.0
 40
1.0
 40
1.0
 10
107.7252633135
 20
147.2277684971
 30
0.0
 10
107.7279482269
 20
147.2144946505
 30
0.0
 10
107.7376306567
 20
147.1588239303
 30
0.0
 10
107.7416800553
 20
147.1021895895
 30
0.0
 10
107.7416705803
 20
147.0592382481
 30
0.0
  0
SPLINE
  5
4EA
100
AcDbEntity
  8
0
100
AcDbSpline
 62
7
  6
CONTINUOUS
 70
0
 71
3
 72
9
 73
5
 74
0
 42
0.0000001
 43
0.0000001
 44
0.0000000001
 40
0.0
 40
0.0
 40
0.0
 40
0.0
 40
0.2399382059
 40
1.0
 40
1.0
 40
1.0
 40
1.0
 10
108.0163026824
 20
147.3542382481
 30
0.0
 10
108.0189497137
 20
147.3307514094
 30
0.0
 10
108.0284401871
 20
147.2326953802
 30
0.0
 10
108.032333189
 20
147.1341094598
 30
0.0
 10
108.0323148938
 20
147.0592382481
 30
0.0
  0
SPLINE
  5
4EB
100
AcDbEntity
  8
0
100
AcDbSpline
 62
7
  6
CONTINUOUS
 70
0
 71
3
 72
9
 73
5
 74
0
 42
0.0000001
 43
0.0000001
 44
0.0000000001
 40
0.0
 40
0.0
 40
0.0
 40
0.0
 40
0.2553194622
 40
1.0
 40
1.0
 40
1.0
 40
1.0
 10
84.1617703594
 20
79.8369854525
 30
0.0
 10
84.1650006225
 20
79.8980891187
 30
0.0
 10
84.1774838393
 20
80.1374203776
 30
0.0
 10
84.188987192
 20
80.3768029204
 30
0.0
 10
84.1986741339
 20
80.5550074266
 30
0.0
  0
SPLINE
  5
4EC
100
AcDbEntity
  8
0
100
AcDbSpline
 62
7
  6
CONTINUOUS
 70
0
 71
3
 72
9
 73
5
 74
0
 42
0.0000001
 43
0.0000001
 44
0.0000000001
 40
0.0
 40
0.0
 40
0.0
 40
0.0
 40
0.2567765128
 40
1.0
 40
1.0
 40
1.0
 40
1.0
 10
84.1986741343
 20
80.5533182805
 30
0.0
 10
84.153844692
 20
80.5487768707
 30
0.0
 10
83.9800590533
 20
80.5239788548
 30
0.0
 10
83.809716499
 20
80.4747402151
 30
0.0
 10
83.6892350531
 20
80.4248039714
 30
0.0
  0
LINE
  5
4ED
100
AcDbEntity
  8
0
100
AcDbLine
 62
7
  6
CONTINUOUS
 10
103.1357196669
 20
48.592945178
 11
101.6357196135
 21
48.6127916757
  0
SPLINE
  5
4EE
100
AcDbEntity
  8
0
100
AcDbSpline
 62
7
  6
CONTINUOUS
 70
0
 71
3
 72
13
 73
9
 74
0
 42
0.0000001
 43
0.0000001
 44
0.0000000001
 40
0.0
 40
0.0
 40
0.0
 40
0.0
 40
0.2524618095
 40
0.3760901534
 40
0.4988566751
 40
0.6217945274
 40
0.7459141689
 40
1.0
 40
1.0
 40
1.0
 40
1.0
 10
103.1357196669
 20
61.3241748671
 30
0.0
 10
102.6774049042
 20
60.3905055455
 30
0.0
 10
102.1068603265
 20
58.9346795905
 30
0.0
 10
101.7040746886
 20
56.9146692248
 30
0.0
 10
101.6017226638
 20
55.3919025439
 30
0.0
 10
101.7042763875
 20
53.8671581879
 30
0.0
 10
102.107268314
 20
51.8376123885
 30
0.0
 10
102.6778746297
 20
50.3726951591
 30
0.0
 10
103.1357196669
 20
49.4313497005
 30
0.0
  0
SPLINE
  5
4EF
100
AcDbEntity
  8
0
100
AcDbSpline
 62
7
  6
CONTINUOUS
 70
0
 71
3
 72
13
 73
9
 74
0
 42
0.0000001
 43
0.0000001
 44
0.0000000001
 40
0.0
 40
0.0
 40
0.0
 40
0.0
 40
0.2529129219
 40
0.376902595
 40
0.4999985865
 40
0.6230944764
 40
0.7470840839
 40
1.0
 40
1.0
 40
1.0
 40
1.0
 10
102.6317036916
 20
61.2076132956
 30
0.0
 10
102.2155262688
 20
60.3023271504
 30
0.0
 10
101.7021899264
 20
58.8957566347
 30
0.0
 10
101.3430748029
 20
56.955133011
 30
0.0
 10
101.2518917512
 20
55.495799791
 30
0.0
 10
101.3430626635
 20
54.0364652073
 30
0.0
 10
101.7021904548
 20
52.0958328136
 30
0.0
 10
102.2155172239
 20
50.6892467895
 30
0.0
 10
102.6317022457
 20
49.7839511552
 30
0.0
  0
SPLINE
  5
4F0
100
AcDbEntity
  8
0
100
AcDbSpline
 62
7
  6
CONTINUOUS
 70
0
 71
3
 72
13
 73
9
 74
0
 42
0.0000001
 43
0.0000001
 44
0.0000000001
 40
0.0
 40
0.0
 40
0.0
 40
0.0
 40
0.2499211205
 40
0.3749578094
 40
0.5000000409
 40
0.6250422881
 40
0.7500789484
 40
1.0
 40
1.0
 40
1.0
 40
1.0
 10
102.6317300313
 20
79.8369847141
 30
0.0
 10
102.2083941419
 20
78.5346143808
 30
0.0
 10
101.6971173121
 20
76.5347709406
 30
0.0
 10
101.3425114776
 20
73.8154386016
 30
0.0
 10
101.2519928618
 20
71.7592375435
 30
0.0
 10
101.3425120479
 20
69.7030367007
 30
0.0
 10
101.697116945
 20
66.9837047001
 30
0.0
 10
102.2083938311
 20
64.9838617942
 30
0.0
 10
102.6317294926
 20
63.6814917834
 30
0.0
  0
SPLINE
  5
4F1
100
AcDbEntity
  8
0
100
AcDbSpline
 62
7
  6
CONTINUOUS
 70
0
 71
3
 72
13
 73
9
 74
0
 42
0.0000001
 43
0.0000001
 44
0.0000000001
 40
0.0
 40
0.0
 40
0.0
 40
0.0
 40
0.249917337
 40
0.3749544126
 40
0.5000015681
 40
0.6250480952
 40
0.7500875148
 40
1.0
 40
1.0
 40
1.0
 40
1.0
 10
103.1357196669
 20
80.1748069569
 30
0.0
 10
102.6689277285
 20
78.8237336634
 30
0.0
 10
102.102601025
 20
76.7439916651
 30
0.0
 10
101.7036013705
 20
73.9090178524
 30
0.0
 10
101.6018652737
 20
71.762509576
 30
0.0
 10
101.703250364
 20
69.6160267284
 30
0.0
 10
102.1002149491
 20
66.780710333
 30
0.0
 10
102.6689759555
 20
64.7015674623
 30
0.0
 10
103.1357196669
 20
63.3505068674
 30
0.0
  0
SPLINE
  5
4F2
100
AcDbEntity
  8
0
100
AcDbSpline
 62
7
  6
CONTINUOUS
 70
0
 71
3
 72
13
 73
9
 74
0
 42
0.0000001
 43
0.0000001
 44
0.0000000001
 40
0.0
 40
0.0
 40
0.0
 40
0.0
 40
0.2540721658
 40
0.3782004063
 40
0.501143288
 40
0.6239140649
 40
0.74754915
 40
1.0
 40
1.0
 40
1.0
 40
1.0
 10
103.1357196669
 20
94.0876567838
 30
0.0
 10
102.6778980603
 20
93.146409401
 30
0.0
 10
102.1075823515
 20
91.6814842391
 30
0.0
 10
101.7043480248
 20
89.6520837504
 30
0.0
 10
101.6017206848
 20
88.1273226643
 30
0.0
 10
101.7040110656
 20
86.6045583806
 30
0.0
 10
102.1064709098
 20
84.5845471814
 30
0.0
 10
102.6774540481
 20
83.1289617537
 30
0.0
 10
103.1357196999
 20
82.1953652729
 30
0.0
  0
SPLINE
  5
4F3
100
AcDbEntity
  8
0
100
AcDbSpline
 62
7
  6
CONTINUOUS
 70
0
 71
3
 72
13
 73
9
 74
0
 42
0.0000001
 43
0.0000001
 44
0.0000000001
 40
0.0
 40
0.0
 40
0.0
 40
0.0
 40
0.2529176911
 40
0.3769071706
 40
0.500002814
 40
0.6230986285
 40
0.7470880643
 40
1.0
 40
1.0
 40
1.0
 40
1.0
 10
102.6317008455
 20
93.7345253765
 30
0.0
 10
102.2155108011
 20
92.8292243414
 30
0.0
 10
101.702190961
 20
91.422629278
 30
0.0
 10
101.3430525393
 20
89.4819930988
 30
0.0
 10
101.2518940158
 20
88.0226595158
 30
0.0
 10
101.3430785295
 20
86.563329595
 30
0.0
 10
101.7021890685
 20
84.622710422
 30
0.0
 10
102.215528847
 20
83.2161462469
 30
0.0
 10
102.6317038363
 20
82.310863246
 30
0.0
  0
LINE
  5
4F4
100
AcDbEntity
  8
0
100
AcDbLine
 62
7
  6
CONTINUOUS
 10
101.6357196669
 20
94.9056848575
 11
103.1357196669
 21
94.9268976099
  0
SPLINE
  5
4F5
100
AcDbEntity
  8
0
100
AcDbSpline
 62
7
  6
CONTINUOUS
 70
0
 71
3
 72
8
 73
4
 74
0
 42
0.0000001
 43
0.0000001
 44
0.0000000001
 40
0.0
 40
0.0
 40
0.0
 40
0.0
 40
1.0
 40
1.0
 40
1.0
 40
1.0
 10
102.6707439139
 20
79.8621606156
 30
0.0
 10
102.6563833533
 20
79.8563879021
 30
0.0
 10
102.6435178494
 20
79.8470138964
 30
0.0
 10
102.6317295967
 20
79.8369845884
 30
0.0
  0
SPLINE
  5
4F6
100
AcDbEntity
  8
0
100
AcDbSpline
 62
7
  6
CONTINUOUS
 70
0
 71
3
 72
11
 73
7
 74
0
 42
0.0000001
 43
0.0000001
 44
0.0000000001
 40
0.0
 40
0.0
 40
0.0
 40
0.0
 40
0.2237490654
 40
0.4654245314
 40
0.7246209366
 40
1.0
 40
1.0
 40
1.0
 40
1.0
 10
103.1357196669
 20
80.1679556513
 30
0.0
 10
103.1134620646
 20
80.1993922732
 30
0.0
 10
103.0637129343
 20
80.2623232848
 30
0.0
 10
102.9811723255
 20
80.3558966037
 30
0.0
 10
102.887161565
 20
80.4510158295
 30
0.0
 10
102.8180926518
 20
80.5119042261
 30
0.0
 10
102.7821662763
 20
80.5428342188
 30
0.0
  0
SPLINE
  5
4F7
100
AcDbEntity
  8
0
100
AcDbSpline
 62
7
  6
CONTINUOUS
 70
0
 71
3
 72
10
 73
6
 74
0
 42
0.0000001
 43
0.0000001
 44
0.0000000001
 40
0.0
 40
0.0
 40
0.0
 40
0.0
 40
0.2386613097
 40
0.485050354
 40
1.0
 40
1.0
 40
1.0
 40
1.0
 10
103.1357184259
 20
80.1679593807
 30
0.0
 10
103.1045902242
 20
80.1361741684
 30
0.0
 10
103.036081086
 20
80.0766910862
 30
0.0
 10
102.8850073492
 20
79.967594852
 30
0.0
 10
102.7599689546
 20
79.8975636559
 30
0.0
 10
102.6707441352
 20
79.8621605434
 30
0.0
  0
SPLINE
  5
4F8
100
AcDbEntity
  8
0
100
AcDbSpline
 62
7
  6
CONTINUOUS
 70
0
 71
3
 72
9
 73
5
 74
0
 42
0.0000001
 43
0.0000001
 44
0.0000000001
 40
0.0
 40
0.0
 40
0.0
 40
0.0
 40
0.4793669119
 40
1.0
 40
1.0
 40
1.0
 40
1.0
 10
83.6892351478
 20
81.7305520089
 30
0.0
 10
83.7706715376
 20
81.7340753454
 30
0.0
 10
83.9409435454
 20
81.73189837
 30
0.0
 10
84.1105797855
 20
81.7192882129
 30
0.0
 10
84.1986741343
 20
81.7105207214
 30
0.0
  0
SPLINE
  5
4F9
100
AcDbEntity
  8
0
100
AcDbSpline
 62
7
  6
CONTINUOUS
 70
0
 71
3
 72
9
 73
5
 74
0
 42
0.0000001
 43
0.0000001
 44
0.0000000001
 40
0.0
 40
0.0
 40
0.0
 40
0.0
 40
0.2253487915
 40
1.0
 40
1.0
 40
1.0
 40
1.0
 10
84.1617699967
 20
82.3108643764
 30
0.0
 10
84.1651477556
 20
82.2656851164
 30
0.0
 10
84.1791796753
 20
82.065126597
 30
0.0
 10
84.1900408031
 20
81.8643658894
 30
0.0
 10
84.1986741352
 20
81.708865259
 30
0.0
  0
SPLINE
  5
4FA
100
AcDbEntity
  8
0
100
AcDbSpline
 62
7
  6
CONTINUOUS
 70
0
 71
3
 72
9
 73
5
 74
0
 42
0.0000001
 43
0.0000001
 44
0.0000000001
 40
0.0
 40
0.0
 40
0.0
 40
0.0
 40
0.2511520044
 40
1.0
 40
1.0
 40
1.0
 40
1.0
 10
83.6893009469
 20
82.0967254519
 30
0.0
 10
83.7245569474
 20
82.1223563236
 30
0.0
 10
83.8698921881
 20
82.2173030599
 30
0.0
 10
84.0349376008
 20
82.2829566503
 30
0.0
 10
84.162128752
 20
82.3096632275
 30
0.0
  0
SPLINE
  5
4FB
100
AcDbEntity
  8
0
100
AcDbSpline
 62
7
  6
CONTINUOUS
 70
0
 71
3
 72
8
 73
4
 74
0
 42
0.0000001
 43
0.0000001
 44
0.0000000001
 40
0.0
 40
0.0
 40
0.0
 40
0.0
 40
1.0
 40
1.0
 40
1.0
 40
1.0
 10
102.631704147
 20
81.7088637541
 30
0.0
 10
102.682015255
 20
81.7088883776
 30
0.0
 10
102.7325049909
 20
81.7127209453
 30
0.0
 10
102.7821662763
 20
81.7207810274
 30
0.0
  0
SPLINE
  5
4FC
100
AcDbEntity
  8
0
100
AcDbSpline
 62
7
  6
CONTINUOUS
 70
0
 71
3
 72
8
 73
4
 74
0
 42
0.0000001
 43
0.0000001
 44
0.0000000001
 40
0.0
 40
0.0
 40
0.0
 40
0.0
 40
1.0
 40
1.0
 40
1.0
 40
1.0
 10
102.6317042687
 20
82.3108622233
 30
0.0
 10
102.6438982126
 20
82.3035568687
 30
0.0
 10
102.6569185256
 20
82.2970392605
 30
0.0
 10
102.6707266529
 20
82.2936634501
 30
0.0
  0
SPLINE
  5
4FD
100
AcDbEntity
  8
0
100
AcDbSpline
 62
7
  6
CONTINUOUS
 70
0
 71
3
 72
11
 73
7
 74
0
 42
0.0000001
 43
0.0000001
 44
0.0000000001
 40
0.0
 40
0.0
 40
0.0
 40
0.0
 40
0.2853609237
 40
0.5477528789
 40
0.7864483432
 40
1.0
 40
1.0
 40
1.0
 40
1.0
 10
102.6707268599
 20
82.2936608725
 30
0.0
 10
102.7146381677
 20
82.282851188
 30
0.0
 10
102.7991533154
 20
82.2630605691
 30
0.0
 10
102.9207223333
 20
82.2354713876
 30
0.0
 10
103.0321053336
 20
82.2150263415
 30
0.0
 10
103.1028516277
 20
82.203160901
 30
0.0
 10
103.1357831748
 20
82.1953622754
 30
0.0
  0
SPLINE
  5
4FE
100
AcDbEntity
  8
0
100
AcDbSpline
 62
7
  6
CONTINUOUS
 70
0
 71
3
 72
9
 73
5
 74
0
 42
0.0000001
 43
0.0000001
 44
0.0000000001
 40
0.0
 40
0.0
 40
0.0
 40
0.0
 40
0.226973584
 40
1.0
 40
1.0
 40
1.0
 40
1.0
 10
102.6707268599
 20
82.2936608725
 30
0.0
 10
102.679987728
 20
82.2504862725
 30
0.0
 10
102.7196878189
 20
82.0600315884
 30
0.0
 10
102.7556835995
 20
81.8688180904
 30
0.0
 10
102.7821662764
 20
81.7207795071
 30
0.0
  0
SPLINE
  5
4FF
100
AcDbEntity
  8
0
100
AcDbSpline
 62
7
  6
CONTINUOUS
 70
0
 71
3
 72
9
 73
5
 74
0
 42
0.0000001
 43
0.0000001
 44
0.0000000001
 40
0.0
 40
0.0
 40
0.0
 40
0.0
 40
0.4957797785
 40
1.0
 40
1.0
 40
1.0
 40
1.0
 10
102.7821662763
 20
81.7207810274
 30
0.0
 10
102.8584992321
 20
81.7827442108
 30
0.0
 10
102.9895138506
 20
81.9346333026
 30
0.0
 10
103.0946141733
 20
82.1041463245
 30
0.0
 10
103.1357196999
 20
82.1952968487
 30
0.0
  0
SPLINE
  5
500
100
AcDbEntity
  8
0
100
AcDbSpline
 62
7
  6
CONTINUOUS
 70
0
 71
3
 72
9
 73
5
 74
0
 42
0.0000001
 43
0.0000001
 44
0.0000000001
 40
0.0
 40
0.0
 40
0.0
 40
0.0
 40
0.2668213313
 40
1.0
 40
1.0
 40
1.0
 40
1.0
 10
84.1621286988
 20
93.7356461443
 30
0.0
 10
84.120810823
 20
93.7443381262
 30
0.0
 10
83.9650413078
 20
93.7715637024
 30
0.0
 10
83.8042932328
 20
93.7771478866
 30
0.0
 10
83.6893010285
 20
93.7617437103
 30
0.0
  0
SPLINE
  5
501
100
AcDbEntity
  8
0
100
AcDbSpline
 62
7
  6
CONTINUOUS
 70
0
 71
3
 72
9
 73
5
 74
0
 42
0.0000001
 43
0.0000001
 44
0.0000000001
 40
0.0
 40
0.0
 40
0.0
 40
0.0
 40
0.2988209205
 40
1.0
 40
1.0
 40
1.0
 40
1.0
 10
84.161770006
 20
93.734524056
 30
0.0
 10
84.1648525909
 20
93.7757552313
 30
0.0
 10
84.1756201506
 20
93.9136865453
 30
0.0
 10
84.1866470622
 20
94.0516913373
 30
0.0
 10
84.1986741355
 20
94.1479613573
 30
0.0
  0
SPLINE
  5
502
100
AcDbEntity
  8
0
100
AcDbSpline
 62
7
  6
CONTINUOUS
 70
0
 71
3
 72
9
 73
5
 74
0
 42
0.0000001
 43
0.0000001
 44
0.0000000001
 40
0.0
 40
0.0
 40
0.0
 40
0.0
 40
0.4993478921
 40
1.0
 40
1.0
 40
1.0
 40
1.0
 10
84.1986741343
 20
94.1472263064
 30
0.0
 10
84.1090443561
 20
94.1433040686
 30
0.0
 10
83.9298920134
 20
94.1107310543
 30
0.0
 10
83.7653598668
 20
94.0334273593
 30
0.0
 10
83.6892350562
 20
93.9855108281
 30
0.0
  0
SPLINE
  5
503
100
AcDbEntity
  8
0
100
AcDbSpline
 62
7
  6
CONTINUOUS
 70
0
 71
3
 72
9
 73
5
 74
0
 42
0.0000001
 43
0.0000001
 44
0.0000000001
 40
0.0
 40
0.0
 40
0.0
 40
0.0
 40
0.2491084214
 40
1.0
 40
1.0
 40
1.0
 40
1.0
 10
83.6892730575
 20
51.7837056716
 30
0.0
 10
83.7210535972
 20
51.6160384506
 30
0.0
 10
83.8565646833
 20
50.9444871327
 30
0.0
 10
84.0222720077
 20
50.279110796
 30
0.0
 10
84.1616506751
 20
49.7839524405
 30
0.0
  0
SPLINE
  5
504
100
AcDbEntity
  8
0
100
AcDbSpline
 62
7
  6
CONTINUOUS
 70
0
 71
3
 72
9
 73
5
 74
0
 42
0.0000001
 43
0.0000001
 44
0.0000000001
 40
0.0
 40
0.0
 40
0.0
 40
0.0
 40
0.2509789417
 40
1.0
 40
1.0
 40
1.0
 40
1.0
 10
84.1616504143
 20
61.2076121202
 30
0.0
 10
84.1150646521
 20
61.0421110287
 30
0.0
 10
83.9361830988
 20
60.3808231964
 30
0.0
 10
83.7848302916
 20
59.7119967999
 30
0.0
 10
83.6892730575
 20
59.2078575669
 30
0.0
  0
SPLINE
  5
505
100
AcDbEntity
  8
0
100
AcDbSpline
 62
7
  6
CONTINUOUS
 70
0
 71
3
 72
9
 73
5
 74
0
 42
0.0000001
 43
0.0000001
 44
0.0000000001
 40
0.0
 40
0.0
 40
0.0
 40
0.0
 40
0.2491084178
 40
1.0
 40
1.0
 40
1.0
 40
1.0
 10
83.6892730575
 20
84.3106196474
 30
0.0
 10
83.7210536249
 20
84.1429522697
 30
0.0
 10
83.8565644859
 20
83.4714002487
 30
0.0
 10
84.0222716442
 20
82.8060231877
 30
0.0
 10
84.1616504989
 20
82.3108643764
 30
0.0
  0
SPLINE
  5
506
100
AcDbEntity
  8
0
100
AcDbSpline
 62
7
  6
CONTINUOUS
 70
0
 71
3
 72
10
 73
6
 74
0
 42
0.0000001
 43
0.0000001
 44
0.0000000001
 40
0.0
 40
0.0
 40
0.0
 40
0.0
 40
0.1390038823
 40
0.3511621399
 40
1.0
 40
1.0
 40
1.0
 40
1.0
 10
81.815054211
 20
91.5104127241
 30
0.0
 10
81.8180399958
 20
91.5046777746
 30
0.0
 10
81.8230306488
 20
91.4889771033
 30
0.0
 10
81.8330490235
 20
91.443612611
 30
0.0
 10
81.8382507055
 20
91.4037961779
 30
0.0
 10
81.8418783872
 20
91.3738348698
 30
0.0
  0
SPLINE
  5
507
100
AcDbEntity
  8
0
100
AcDbSpline
 62
7
  6
CONTINUOUS
 70
0
 71
3
 72
39
 73
35
 74
0
 42
0.0000001
 43
0.0000001
 44
0.0000000001
 40
0.0
 40
0.0
 40
0.0
 40
0.0
 40
0.0079534446
 40
0.0202569359
 40
0.0368109081
 40
0.0574667734
 40
0.0820443071
 40
0.1103237483
 40
0.1769541377
 40
0.2549924094
 40
0.3416667627
 40
0.4338981761
 40
0.528409998
 40
0.621844468
 40
0.7108820934
 40
0.7527537947
 40
0.7923596947
 40
0.8293448077
 40
0.863382944
 40
0.8941681328
 40
0.921429682
 40
0.9449226107
 40
0.9551909074
 40
0.9644407574
 40
0.9726528279
 40
0.9798103222
 40
0.985896602
 40
0.9908973151
 40
0.9948046737
 40
0.9976134546
 40
0.9986056443
 40
0.9993247348
 40
0.9997777838
 40
1.0
 40
1.0
 40
1.0
 40
1.0
 10
81.8418783872
 20
91.3738348698
 30
0.0
 10
81.8544314328
 20
91.2701582789
 30
0.0
 10
81.8742077845
 20
91.0047510159
 30
0.0
 10
81.9003594527
 20
90.5221644274
 30
0.0
 10
81.9265060352
 20
89.8725047224
 30
0.0
 10
81.9532245895
 20
89.0616459043
 30
0.0
 10
81.9800194876
 20
88.0967400184
 30
0.0
 10
82.0180322095
 20
86.528255338
 30
0.0
 10
82.0640458036
 20
84.2577948392
 30
0.0
 10
82.1172040461
 20
81.2205784766
 30
0.0
 10
82.1705649647
 20
77.8471607094
 30
0.0
 10
82.2240666101
 20
74.257412699
 30
0.0
 10
82.2776086362
 20
70.5788910364
 30
0.0
 10
82.3311356573
 20
66.9423101494
 30
0.0
 10
82.3765349868
 20
63.9968827846
 30
0.0
 10
82.4134248496
 20
61.7582132101
 30
0.0
 10
82.4405046245
 20
60.2029579607
 30
0.0
 10
82.4675616953
 20
58.750578485
 30
0.0
 10
82.4945809896
 20
57.4140414117
 30
0.0
 10
82.5215520355
 20
56.2052080716
 30
0.0
 10
82.548451446
 20
55.1348769124
 30
0.0
 10
82.5716910067
 20
54.333942429
 30
0.0
 10
82.5906117228
 20
53.7694959609
 30
0.0
 10
82.6041422217
 20
53.4056305341
 30
0.0
 10
82.6176456793
 20
53.0826443416
 30
0.0
 10
82.6311121586
 20
52.801230189
 30
0.0
 10
82.6445114488
 20
52.5620547767
 30
0.0
 10
82.6578362504
 20
52.3655728071
 30
0.0
 10
82.6709312416
 20
52.2123772103
 30
0.0
 10
82.6826593598
 20
52.1115906867
 30
0.0
 10
82.6923236507
 20
52.0533038169
 30
0.0
 10
82.699239388
 20
52.0251836862
 30
0.0
 10
82.7044492083
 20
52.0086606025
 30
0.0
 10
82.7110349107
 20
52.0002384223
 30
0.0
 10
82.71395275
 20
52.0002391065
 30
0.0
  0
SPLINE
  5
508
100
AcDbEntity
  8
0
100
AcDbSpline
 62
7
  6
CONTINUOUS
 70
0
 71
3
 72
9
 73
5
 74
0
 42
0.0000001
 43
0.0000001
 44
0.0000000001
 40
0.0
 40
0.0
 40
0.0
 40
0.0
 40
0.2509789266
 40
1.0
 40
1.0
 40
1.0
 40
1.0
 10
84.1616505876
 20
93.734524056
 30
0.0
 10
84.1150648896
 20
93.5690231215
 30
0.0
 10
83.9361835882
 20
92.9077358792
 30
0.0
 10
83.7848302108
 20
92.2389102571
 30
0.0
 10
83.6892730575
 20
91.7347714787
 30
0.0
  0
SPLINE
  5
509
100
AcDbEntity
  8
0
100
AcDbSpline
 62
7
  6
CONTINUOUS
 70
0
 71
3
 72
9
 73
5
 74
0
 42
0.0000001
 43
0.0000001
 44
0.0000000001
 40
0.0
 40
0.0
 40
0.0
 40
0.0
 40
0.5603184039
 40
1.0
 40
1.0
 40
1.0
 40
1.0
 10
102.67072437
 20
93.7529398848
 30
0.0
 10
102.6869130727
 20
93.8269554492
 30
0.0
 10
102.718804492
 20
93.9583984355
 30
0.0
 10
102.7599945218
 20
94.0874968328
 30
0.0
 10
102.7821662766
 20
94.142660864
 30
0.0
  0
SPLINE
  5
50A
100
AcDbEntity
  8
0
100
AcDbSpline
 62
7
  6
CONTINUOUS
 70
0
 71
3
 72
8
 73
4
 74
0
 42
0.0000001
 43
0.0000001
 44
0.0000000001
 40
0.0
 40
0.0
 40
0.0
 40
0.0
 40
1.0
 40
1.0
 40
1.0
 40
1.0
 10
102.67072437
 20
93.7529398848
 30
0.0
 10
102.6570059577
 20
93.7486165844
 30
0.0
 10
102.6440361072
 20
93.7419219884
 30
0.0
 10
102.63170088
 20
93.7345241554
 30
0.0
  0
SPLINE
  5
50B
100
AcDbEntity
  8
0
100
AcDbSpline
 62
7
  6
CONTINUOUS
 70
0
 71
3
 72
11
 73
7
 74
0
 42
0.0000001
 43
0.0000001
 44
0.0000000001
 40
0.0
 40
0.0
 40
0.0
 40
0.0
 40
0.1953018528
 40
0.4267651788
 40
0.6923382658
 40
1.0
 40
1.0
 40
1.0
 40
1.0
 10
103.1357196669
 20
94.0871586592
 30
0.0
 10
103.1122795324
 20
94.0857021011
 30
0.0
 10
103.0609857265
 20
94.0827957337
 30
0.0
 10
102.9776431919
 20
94.0890501581
 30
0.0
 10
102.8829118589
 20
94.1097188853
 30
0.0
 10
102.8169620178
 20
94.1300918575
 30
0.0
 10
102.7821662763
 20
94.1426624212
 30
0.0
  0
SPLINE
  5
50C
100
AcDbEntity
  8
0
100
AcDbSpline
 62
7
  6
CONTINUOUS
 70
0
 71
3
 72
11
 73
7
 74
0
 42
0.0000001
 43
0.0000001
 44
0.0000000001
 40
0.0
 40
0.0
 40
0.0
 40
0.0
 40
0.2135524875
 40
0.4522474565
 40
0.7146386694
 40
1.0
 40
1.0
 40
1.0
 40
1.0
 10
103.1357827495
 20
61.3231146787
 30
0.0
 10
103.10285016
 20
61.315319846
 30
0.0
 10
103.0321040274
 20
61.3034545554
 30
0.0
 10
102.920721775
 20
61.283004977
 30
0.0
 10
102.7991531446
 20
61.2554149553
 30
0.0
 10
102.714637635
 20
61.2356258838
 30
0.0
 10
102.6707263629
 20
61.2248157349
 30
0.0
  0
SPLINE
  5
50D
100
AcDbEntity
  8
0
100
AcDbSpline
 62
7
  6
CONTINUOUS
 70
0
 71
3
 72
9
 73
5
 74
0
 42
0.0000001
 43
0.0000001
 44
0.0000000001
 40
0.0
 40
0.0
 40
0.0
 40
0.0
 40
0.5042204646
 40
1.0
 40
1.0
 40
1.0
 40
1.0
 10
103.1357196669
 20
61.3231798393
 30
0.0
 10
103.0946097744
 20
61.4143283774
 30
0.0
 10
102.9895139486
 20
61.5838429619
 30
0.0
 10
102.8584987071
 20
61.735731917
 30
0.0
 10
102.7821662763
 20
61.7976955713
 30
0.0
  0
SPLINE
  5
50E
100
AcDbEntity
  8
0
100
AcDbSpline
 62
7
  6
CONTINUOUS
 70
0
 71
3
 72
8
 73
4
 74
0
 42
0.0000001
 43
0.0000001
 44
0.0000000001
 40
0.0
 40
0.0
 40
0.0
 40
0.0
 40
1.0
 40
1.0
 40
1.0
 40
1.0
 10
102.6707261006
 20
61.2248124732
 30
0.0
 10
102.6569435655
 20
61.2213337965
 30
0.0
 10
102.6438947995
 20
61.2149241502
 30
0.0
 10
102.631703504
 20
61.2076144457
 30
0.0
  0
SPLINE
  5
50F
100
AcDbEntity
  8
0
100
AcDbSpline
 62
7
  6
CONTINUOUS
 70
0
 71
3
 72
9
 73
5
 74
0
 42
0.0000001
 43
0.0000001
 44
0.0000000001
 40
0.0
 40
0.0
 40
0.0
 40
0.0
 40
0.2269736568
 40
1.0
 40
1.0
 40
1.0
 40
1.0
 10
102.6707261006
 20
61.2248124732
 30
0.0
 10
102.6799910086
 20
61.2679867658
 30
0.0
 10
102.7197037791
 20
61.458441233
 30
0.0
 10
102.7556944255
 20
61.6496583533
 30
0.0
 10
102.7821662792
 20
61.797700701
 30
0.0
  0
SPLINE
  5
510
100
AcDbEntity
  8
0
100
AcDbSpline
 62
7
  6
CONTINUOUS
 70
0
 71
3
 72
9
 73
5
 74
0
 42
0.0000001
 43
0.0000001
 44
0.0000000001
 40
0.0
 40
0.0
 40
0.0
 40
0.0
 40
0.5206327385
 40
1.0
 40
1.0
 40
1.0
 40
1.0
 10
84.1986741343
 20
61.8079573919
 30
0.0
 10
84.1105796492
 20
61.799191422
 30
0.0
 10
83.9409438347
 20
61.7865761516
 30
0.0
 10
83.7706714668
 20
61.7843994877
 30
0.0
 10
83.689235056
 20
61.7879246603
 30
0.0
  0
SPLINE
  5
511
100
AcDbEntity
  8
0
100
AcDbSpline
 62
7
  6
CONTINUOUS
 70
0
 71
3
 72
9
 73
5
 74
0
 42
0.0000001
 43
0.0000001
 44
0.0000000001
 40
0.0
 40
0.0
 40
0.0
 40
0.0
 40
0.2253487913
 40
1.0
 40
1.0
 40
1.0
 40
1.0
 10
84.1617700167
 20
61.2076121202
 30
0.0
 10
84.165147773
 20
61.2527913803
 30
0.0
 10
84.1791796826
 20
61.4533499001
 30
0.0
 10
84.1900408043
 20
61.6541106079
 30
0.0
 10
84.1986741352
 20
61.8096112383
 30
0.0
  0
SPLINE
  5
512
100
AcDbEntity
  8
0
100
AcDbSpline
 62
7
  6
CONTINUOUS
 70
0
 71
3
 72
9
 73
5
 74
0
 42
0.0000001
 43
0.0000001
 44
0.0000000001
 40
0.0
 40
0.0
 40
0.0
 40
0.0
 40
0.2482072469
 40
1.0
 40
1.0
 40
1.0
 40
1.0
 10
84.1621287094
 20
61.2088125343
 30
0.0
 10
84.1199633613
 20
61.217665705
 30
0.0
 10
83.9522162618
 20
61.2630827156
 30
0.0
 10
83.7948553269
 20
61.3450160539
 30
0.0
 10
83.6893010285
 20
61.4217511854
 30
0.0
  0
SPLINE
  5
513
100
AcDbEntity
  8
0
100
AcDbSpline
 62
7
  6
CONTINUOUS
 70
0
 71
3
 72
11
 73
7
 74
0
 42
0.0000001
 43
0.0000001
 44
0.0000000001
 40
0.0
 40
0.0
 40
0.0
 40
0.0
 40
0.2753389978
 40
0.5345872176
 40
0.7758306281
 40
1.0
 40
1.0
 40
1.0
 40
1.0
 10
102.7821662763
 20
62.9756422786
 30
0.0
 10
102.8186502397
 20
63.0058989705
 30
0.0
 10
102.8873308538
 20
63.0673057233
 30
0.0
 10
102.9804857292
 20
63.1631065252
 30
0.0
 10
103.0643322368
 20
63.255416414
 30
0.0
 10
103.1145415781
 20
63.3181756813
 30
0.0
 10
103.1357196669
 20
63.3504343005
 30
0.0
  0
SPLINE
  5
514
100
AcDbEntity
  8
0
100
AcDbSpline
 62
7
  6
CONTINUOUS
 70
0
 71
3
 72
10
 73
6
 74
0
 42
0.0000001
 43
0.0000001
 44
0.0000000001
 40
0.0
 40
0.0
 40
0.0
 40
0.0
 40
0.5149440297
 40
0.7613551049
 40
1.0
 40
1.0
 40
1.0
 40
1.0
 10
102.6707441813
 20
63.6563159682
 30
0.0
 10
102.7599838804
 20
63.6209082285
 30
0.0
 10
102.8850325139
 20
63.5508384393
 30
0.0
 10
103.036153668
 20
63.4417593502
 30
0.0
 10
103.1046883258
 20
63.3822716124
 30
0.0
 10
103.135787561
 20
63.3504515895
 30
0.0
  0
SPLINE
  5
515
100
AcDbEntity
  8
0
100
AcDbSpline
 62
7
  6
CONTINUOUS
 70
0
 71
3
 72
8
 73
4
 74
0
 42
0.0000001
 43
0.0000001
 44
0.0000000001
 40
0.0
 40
0.0
 40
0.0
 40
0.0
 40
1.0
 40
1.0
 40
1.0
 40
1.0
 10
102.6317295978
 20
63.6814919536
 30
0.0
 10
102.6435394841
 20
63.6714881128
 30
0.0
 10
102.6563901599
 20
63.6621055016
 30
0.0
 10
102.6707439251
 20
63.6563158843
 30
0.0
  0
SPLINE
  5
516
100
AcDbEntity
  8
0
100
AcDbSpline
 62
7
  6
CONTINUOUS
 70
0
 71
3
 72
8
 73
4
 74
0
 42
0.0000001
 43
0.0000001
 44
0.0000000001
 40
0.0
 40
0.0
 40
0.0
 40
0.0
 40
1.0
 40
1.0
 40
1.0
 40
1.0
 10
102.6317297085
 20
62.96346969
 30
0.0
 10
102.6820391099
 20
62.9635030377
 30
0.0
 10
102.7325278695
 20
62.9674529226
 30
0.0
 10
102.7821662763
 20
62.9756422786
 30
0.0
  0
SPLINE
  5
517
100
AcDbEntity
  8
0
100
AcDbSpline
 62
7
  6
CONTINUOUS
 70
0
 71
3
 72
9
 73
5
 74
0
 42
0.0000001
 43
0.0000001
 44
0.0000000001
 40
0.0
 40
0.0
 40
0.0
 40
0.0
 40
0.2553194623
 40
1.0
 40
1.0
 40
1.0
 40
1.0
 10
84.1617703854
 20
63.6814910437
 30
0.0
 10
84.1650006473
 20
63.6203873776
 30
0.0
 10
84.1774838585
 20
63.3810561188
 30
0.0
 10
84.1889872042
 20
63.1416735762
 30
0.0
 10
84.1986741339
 20
62.9634690696
 30
0.0
  0
SPLINE
  5
518
100
AcDbEntity
  8
0
100
AcDbSpline
 62
7
  6
CONTINUOUS
 70
0
 71
3
 72
11
 73
7
 74
0
 42
0.0000001
 43
0.0000001
 44
0.0000000001
 40
0.0
 40
0.0
 40
0.0
 40
0.0
 40
0.3076614856
 40
0.5732374965
 40
0.8047053401
 40
1.0
 40
1.0
 40
1.0
 40
1.0
 10
102.7821662763
 20
49.3758141706
 30
0.0
 10
102.8169620081
 20
49.3883845433
 30
0.0
 10
102.8829118564
 20
49.4087582034
 30
0.0
 10
102.9776442184
 20
49.4294263771
 30
0.0
 10
103.0609869993
 20
49.4356774187
 30
0.0
 10
103.1122802033
 20
49.4327706382
 30
0.0
 10
103.1357196669
 20
49.4313176858
 30
0.0
  0
SPLINE
  5
519
100
AcDbEntity
  8
0
100
AcDbSpline
 62
7
  6
CONTINUOUS
 70
0
 71
3
 72
9
 73
5
 74
0
 42
0.0000001
 43
0.0000001
 44
0.0000000001
 40
0.0
 40
0.0
 40
0.0
 40
0.0
 40
0.560315692
 40
1.0
 40
1.0
 40
1.0
 40
1.0
 10
102.6707250781
 20
49.7655394721
 30
0.0
 10
102.6869115344
 20
49.6915236119
 30
0.0
 10
102.7188004467
 20
49.5600796492
 30
0.0
 10
102.7599921548
 20
49.4309812129
 30
0.0
 10
102.7821662764
 20
49.3758175892
 30
0.0
  0
SPLINE
  5
51A
100
AcDbEntity
  8
0
100
AcDbSpline
 62
7
  6
CONTINUOUS
 70
0
 71
3
 72
9
 73
5
 74
0
 42
0.0000001
 43
0.0000001
 44
0.0000000001
 40
0.0
 40
0.0
 40
0.0
 40
0.0
 40
0.4968788864
 40
1.0
 40
1.0
 40
1.0
 40
1.0
 10
102.6707250781
 20
49.7655394721
 30
0.0
 10
102.762040499
 20
49.7367853601
 30
0.0
 10
102.9330201789
 20
49.6394965299
 30
0.0
 10
103.0740579717
 20
49.5060200499
 30
0.0
 10
103.1357827113
 20
49.4312731888
 30
0.0
  0
SPLINE
  5
51B
100
AcDbEntity
  8
0
100
AcDbSpline
 62
7
  6
CONTINUOUS
 70
0
 71
3
 72
8
 73
4
 74
0
 42
0.0000001
 43
0.0000001
 44
0.0000000001
 40
0.0
 40
0.0
 40
0.0
 40
0.0
 40
1.0
 40
1.0
 40
1.0
 40
1.0
 10
102.631701644
 20
49.7839521421
 30
0.0
 10
102.6440270461
 20
49.7765380039
 30
0.0
 10
102.6570333671
 20
49.7699438021
 30
0.0
 10
102.6707248011
 20
49.7655358978
 30
0.0
  0
SPLINE
  5
51C
100
AcDbEntity
  8
0
100
AcDbSpline
 62
7
  6
CONTINUOUS
 70
0
 71
3
 72
9
 73
5
 74
0
 42
0.0000001
 43
0.0000001
 44
0.0000000001
 40
0.0
 40
0.0
 40
0.0
 40
0.0
 40
0.2313541263
 40
1.0
 40
1.0
 40
1.0
 40
1.0
 10
83.6893009468
 20
49.7567326899
 30
0.0
 10
83.725598027
 20
49.7518709907
 30
0.0
 10
83.883649234
 20
49.7395976733
 30
0.0
 10
84.0430654397
 20
49.7577812412
 30
0.0
 10
84.1621287438
 20
49.7828294025
 30
0.0
  0
SPLINE
  5
51D
100
AcDbEntity
  8
0
100
AcDbSpline
 62
7
  6
CONTINUOUS
 70
0
 71
3
 72
9
 73
5
 74
0
 42
0.0000001
 43
0.0000001
 44
0.0000000001
 40
0.0
 40
0.0
 40
0.0
 40
0.0
 40
0.2988209203
 40
1.0
 40
1.0
 40
1.0
 40
1.0
 10
84.1617699886
 20
49.7839524405
 30
0.0
 10
84.1648525757
 20
49.7427212653
 30
0.0
 10
84.1756201422
 20
49.6047899514
 30
0.0
 10
84.1866470614
 20
49.4667851598
 30
0.0
 10
84.1986741354
 20
49.3705151396
 30
0.0
  0
SPLINE
  5
51E
100
AcDbEntity
  8
0
100
AcDbSpline
 62
7
  6
CONTINUOUS
 70
0
 71
3
 72
9
 73
5
 74
0
 42
0.0000001
 43
0.0000001
 44
0.0000000001
 40
0.0
 40
0.0
 40
0.0
 40
0.0
 40
0.5006519201
 40
1.0
 40
1.0
 40
1.0
 40
1.0
 10
83.6892351479
 20
49.5329656829
 30
0.0
 10
83.7653595388
 20
49.485048588
 30
0.0
 10
83.9298918694
 20
49.4077444049
 30
0.0
 10
84.1090443795
 20
49.3751739705
 30
0.0
 10
84.1986741343
 20
49.3712509086
 30
0.0
  0
SPLINE
  5
51F
100
AcDbEntity
  8
0
100
AcDbSpline
 62
7
  6
CONTINUOUS
 70
0
 71
3
 72
9
 73
5
 74
0
 42
0.0000001
 43
0.0000001
 44
0.0000000001
 40
0.0
 40
0.0
 40
0.0
 40
0.0
 40
0.4799866859
 40
1.0
 40
1.0
 40
1.0
 40
1.0
 10
103.1357853304
 20
48.5915295097
 30
0.0
 10
103.0700171283
 20
48.6367926416
 30
0.0
 10
102.9230603897
 20
48.7182026364
 30
0.0
 10
102.7571389895
 20
48.7541846257
 30
0.0
 10
102.6707444157
 20
48.7583818276
 30
0.0
  0
SPLINE
  5
520
100
AcDbEntity
  8
0
100
AcDbSpline
 62
7
  6
CONTINUOUS
 70
0
 71
3
 72
9
 73
5
 74
0
 42
0.0000001
 43
0.0000001
 44
0.0000000001
 40
0.0
 40
0.0
 40
0.0
 40
0.0
 40
0.5054697506
 40
1.0
 40
1.0
 40
1.0
 40
1.0
 10
103.1357196669
 20
48.5916041308
 30
0.0
 10
103.0941538649
 20
48.658585876
 30
0.0
 10
102.9918236551
 20
48.7789574981
 30
0.0
 10
102.8556535587
 20
48.8644872396
 30
0.0
 10
102.7821662763
 20
48.8878927636
 30
0.0
  0
SPLINE
  5
521
100
AcDbEntity
  8
0
100
AcDbSpline
 62
7
  6
CONTINUOUS
 70
0
 71
3
 72
9
 73
5
 74
0
 42
0.0000001
 43
0.0000001
 44
0.0000000001
 40
0.0
 40
0.0
 40
0.0
 40
0.0
 40
0.2690702541
 40
1.0
 40
1.0
 40
1.0
 40
1.0
 10
102.6707441534
 20
48.7583771273
 30
0.0
 10
102.66724805
 20
48.7585462982
 30
0.0
 10
102.6542494472
 20
48.7590652792
 30
0.0
 10
102.6412389022
 20
48.7592380792
 30
0.0
 10
102.63173062
 20
48.7592380577
 30
0.0
  0
SPLINE
  5
522
100
AcDbEntity
  8
0
100
AcDbSpline
 62
7
  6
CONTINUOUS
 70
0
 71
3
 72
9
 73
5
 74
0
 42
0.0000001
 43
0.0000001
 44
0.0000000001
 40
0.0
 40
0.0
 40
0.0
 40
0.0
 40
0.380679178
 40
1.0
 40
1.0
 40
1.0
 40
1.0
 10
102.6707441534
 20
48.7583771273
 30
0.0
 10
102.689324673
 20
48.7595498333
 30
0.0
 10
102.7326245104
 20
48.7922435668
 30
0.0
 10
102.7558108548
 20
48.8346098767
 30
0.0
 10
102.7695335389
 20
48.8616113746
 30
0.0
  0
SPLINE
  5
523
100
AcDbEntity
  8
0
100
AcDbSpline
 62
7
  6
CONTINUOUS
 70
0
 71
3
 72
9
 73
5
 74
0
 42
0.0000001
 43
0.0000001
 44
0.0000000001
 40
0.0
 40
0.0
 40
0.0
 40
0.0
 40
0.5031216083
 40
1.0
 40
1.0
 40
1.0
 40
1.0
 10
103.1357824651
 20
94.0872029984
 30
0.0
 10
103.0740567362
 20
94.0124568898
 30
0.0
 10
102.9330194526
 20
93.8789801274
 30
0.0
 10
102.762039602
 20
93.7816921142
 30
0.0
 10
102.6707245772
 20
93.752937212
 30
0.0
  0
SPLINE
  5
524
100
AcDbEntity
  8
0
100
AcDbSpline
 62
7
  6
CONTINUOUS
 70
0
 71
3
 72
9
 73
5
 74
0
 42
0.0000001
 43
0.0000001
 44
0.0000000001
 40
0.0
 40
0.0
 40
0.0
 40
0.0
 40
0.2564660369
 40
1.0
 40
1.0
 40
1.0
 40
1.0
 10
84.1986741343
 20
48.8919219857
 30
0.0
 10
84.1540848624
 20
48.8901644618
 30
0.0
 10
83.9800598972
 20
48.8930185603
 30
0.0
 10
83.8060614692
 20
48.9365338082
 30
0.0
 10
83.6892350319
 20
48.9921085729
 30
0.0
  0
SPLINE
  5
525
100
AcDbEntity
  8
0
100
AcDbSpline
 62
7
  6
CONTINUOUS
 70
0
 71
3
 72
9
 73
5
 74
0
 42
0.0000001
 43
0.0000001
 44
0.0000000001
 40
0.0
 40
0.0
 40
0.0
 40
0.0
 40
0.2445797652
 40
1.0
 40
1.0
 40
1.0
 40
1.0
 10
83.6892351259
 20
94.5263681666
 30
0.0
 10
83.7276702713
 20
94.5446515627
 30
0.0
 10
83.8897176244
 20
94.6088773034
 30
0.0
 10
84.0673165335
 20
94.6317334932
 30
0.0
 10
84.1986741343
 20
94.6265551336
 30
0.0
  0
SPLINE
  5
526
100
AcDbEntity
  8
0
100
AcDbSpline
 62
7
  6
CONTINUOUS
 70
0
 71
3
 72
9
 73
5
 74
0
 42
0.0000001
 43
0.0000001
 44
0.0000000001
 40
0.0
 40
0.0
 40
0.0
 40
0.0
 40
0.5023165435
 40
1.0
 40
1.0
 40
1.0
 40
1.0
 10
84.1621308083
 20
48.7592936352
 30
0.0
 10
84.0791474795
 20
48.7592698397
 30
0.0
 10
83.9130904313
 20
48.781632054
 30
0.0
 10
83.7595288463
 20
48.8486592102
 30
0.0
 10
83.6893010357
 20
48.8914125063
 30
0.0
  0
SPLINE
  5
527
100
AcDbEntity
  8
0
100
AcDbSpline
 62
7
  6
CONTINUOUS
 70
0
 71
3
 72
9
 73
5
 74
0
 42
0.0000001
 43
0.0000001
 44
0.0000000001
 40
0.0
 40
0.0
 40
0.0
 40
0.0
 40
0.2322749534
 40
1.0
 40
1.0
 40
1.0
 40
1.0
 10
102.6317301452
 20
94.759238645
 30
0.0
 10
102.6347516402
 20
94.7592386751
 30
0.0
 10
102.6477595828
 20
94.7592953589
 30
0.0
 10
102.6607686576
 20
94.7596135346
 30
0.0
 10
102.6707436601
 20
94.760098275
 30
0.0
  0
SPLINE
  5
528
100
AcDbEntity
  8
0
100
AcDbSpline
 62
7
  6
CONTINUOUS
 70
0
 71
3
 72
9
 73
5
 74
0
 42
0.0000001
 43
0.0000001
 44
0.0000000001
 40
0.0
 40
0.0
 40
0.0
 40
0.0
 40
0.515692399
 40
1.0
 40
1.0
 40
1.0
 40
1.0
 10
102.7705143653
 20
94.7715360185
 30
0.0
 10
102.8380830149
 20
94.7836357732
 30
0.0
 10
102.9669722572
 20
94.8227329059
 30
0.0
 10
103.0826641378
 20
94.8903478523
 30
0.0
 10
103.135750188
 20
94.9269226919
 30
0.0
  0
SPLINE
  5
529
100
AcDbEntity
  8
0
100
AcDbSpline
 62
7
  6
CONTINUOUS
 70
0
 71
3
 72
9
 73
5
 74
0
 42
0.0000001
 43
0.0000001
 44
0.0000000001
 40
0.0
 40
0.0
 40
0.0
 40
0.0
 40
0.380636588
 40
1.0
 40
1.0
 40
1.0
 40
1.0
 10
102.6707438671
 20
94.7600945607
 30
0.0
 10
102.6893205489
 20
94.7589219892
 30
0.0
 10
102.7326122418
 20
94.7262259255
 30
0.0
 10
102.755801947
 20
94.6838694427
 30
0.0
 10
102.7695288574
 20
94.6568709616
 30
0.0
  0
SPLINE
  5
52A
100
AcDbEntity
  8
0
100
AcDbSpline
 62
7
  6
CONTINUOUS
 70
0
 71
3
 72
9
 73
5
 74
0
 42
0.0000001
 43
0.0000001
 44
0.0000000001
 40
0.0
 40
0.0
 40
0.0
 40
0.0
 40
0.4945524433
 40
1.0
 40
1.0
 40
1.0
 40
1.0
 10
102.7821662763
 20
94.6305837988
 30
0.0
 10
102.8556585359
 20
94.6539907292
 30
0.0
 10
102.9918352507
 20
94.7395205194
 30
0.0
 10
103.0941546016
 20
94.8599054682
 30
0.0
 10
103.1357196669
 20
94.9268856513
 30
0.0
  0
ELLIPSE
  5
52B
100
AcDbEntity
  8
0
100
AcDbEllipse
 62
7
  6
CONTINUOUS
 10
112.0216540342
 20
157.5592382481
 30
0.0
 11
3.0
 21
-0.0
 31
0.0
 40
1.0
 41
-0.0
 42
1.5707963268
  0
ELLIPSE
  5
52C
100
AcDbEntity
  8
0
100
AcDbEllipse
 62
7
  6
CONTINUOUS
 10
132.8458973846
 20
157.5592382481
 30
0.0
 11
-0.0
 21
3.0
 31
0.0
 40
0.5773502692
 41
0.1060960822
 42
1.5707963256
  0
ENDSEC
  0
SECTION
  2
OBJECTS
  0
DICTIONARY
  5
52D
100
AcDbDictionary
  3
ACAD_GROUP
350
52E
  3
ACAD_MLINESTYLE
350
52F
  0
DICTIONARY
  5
52E
102
{ACAD_REACTORS
330
52D
102
}
100
AcDbDictionary
  0
DICTIONARY
  5
52F
102
{ACAD_REACTORS
330
52D
102
}
100
AcDbDictionary
  3
STANDARD
350
530
  0
MLINESTYLE
  5
530
102
{ACAD_REACTORS
330
52F
102
}
100
AcDbMlineStyle
  2
STANDARD
 70
0
  3

 62
256
 51
90.0
 52
90.0
 71
2
 49
0.5
 62
256
  6
BYLAYER
 49
-0.5
 62
256
  6
BYLAYER
  0
ENDSEC
  0
EOF
