999
DXF file: C:\Users\64ciro\AppData\Local\Temp\5lmzc8h8\h34nll040_3083_2.dxf
999
Pro/ENGINEER 2017260 by Parametric Technology Corporation
  0
SECTION
  2
HEADER
  9
$ACADVER
  1
AC1014
  9
$DWGCODEPAGE
  3
ANSI_1252
  9
$EXTMAX
 10
297.0
 20
210.0
 30
0.0
  9
$EXTMIN
 10
0.0
 20
0.0
 30
0.0
  9
$LIMMIN
 10
0.0
 20
0.0
  9
$LIMMAX
 10
297.0
 20
210.0
  9
$VIEWCTR
 10
148.5
 20
105.0
  9
$VIEWSIZE
 40
210.0
  9
$CLAYER
  8
0
  9
$LTSCALE
 40
16.335
  9
$CELTYPE
  6
BYLAYER
  9
$DIMSCALE
 40
1.0
  9
$DIMASZ
 40
2.5
  9
$DIMEXO
 40
0.0625
  9
$DIMDLI
 40
11.286
  9
$DIMEXE
 40
0.125
  9
$DIMCEN
 40
2.673
  9
$DIMLFAC
 40
1.0
  9
$DIMBLK
  1
_CLOSED
  9
$DIMALT
 70
0
  9
$DIMALTF
 40
25.4
  9
$DIMTXT
 40
2.5
  9
$DIMTOL
 70
1
  9
$DIMLIM
 70
0
  9
$DIMTFAC
 40
1.0
  9
$DIMTP
 40
0.01
  9
$DIMTM
 40
0.01
  9
$DIMGAP
 40
0.625
  9
$AUNITS
 70
0
  9
$PDMODE
 70
3
  9
$PDSIZE
 40
0.3125
  9
$HANDSEED
  5
3FA
  9
$TILEMODE
 70
1
  9
$MEASUREMENT
 70
1
  0
ENDSEC
  0
SECTION
  2
CLASSES
  0
ENDSEC
  0
SECTION
  2
TABLES
  0
TABLE
  2
VPORT
  5
8
100
AcDbSymbolTable
 70
2
  0
VPORT
  5
1F4
100
AcDbSymbolTableRecord
100
AcDbViewportTableRecord
  2
*ACTIVE
 70
0
 10
0.0
 20
0.0
 11
1.0
 21
1.0
 12
148.5
 22
105.0
 13
0.0
 23
0.0
 14
1.0
 24
1.0
 15
0.0
 25
0.0
 16
0.0
 26
0.0
 36
1.0
 17
0.0
 27
0.0
 37
0.0
 40
210.0
 41
1.4142857143
 42
50.0
 43
0.0
 44
0.0
 50
0.0
 51
0.0
 71
0
 72
100
 73
1
 74
1
 75
0
 76
0
 77
0
 78
0
  0
ENDTAB
  0
TABLE
  2
LTYPE
  5
5
100
AcDbSymbolTable
 70
6
  0
LTYPE
  5
14
100
AcDbSymbolTableRecord
100
AcDbLinetypeTableRecord
  2
BYBLOCK
 70
0
  3

 72
65
 73
0
 40
0.0
  0
LTYPE
  5
15
100
AcDbSymbolTableRecord
100
AcDbLinetypeTableRecord
  2
BYLAYER
 70
0
  3

 72
65
 73
0
 40
0.0
  0
LTYPE
  5
16
100
AcDbSymbolTableRecord
100
AcDbLinetypeTableRecord
  2
CONTINUOUS
 70
64
  3
Solid line
 72
65
 73
0
 40
0.0
  0
LTYPE
  5
1F5
100
AcDbSymbolTableRecord
100
AcDbLinetypeTableRecord
  2
CENTER
 70
64
  3
____ _ ____ _ ____ _ ____ _ ____ _ ____ _ ____
 72
65
 73
4
 40
0.6
 49
0.375
 74
0
 49
-0.075
 74
0
 49
0.075
 74
0
 49
-0.075
 74
0
  0
LTYPE
  5
1F6
100
AcDbSymbolTableRecord
100
AcDbLinetypeTableRecord
  2
HIDDEN
 70
64
  3
- - - - - - - - - - - - - - - - - - - -
 72
65
 73
2
 40
0.2
 49
0.1
 74
0
 49
-0.1
 74
0
  0
LTYPE
  5
1F7
100
AcDbSymbolTableRecord
100
AcDbLinetypeTableRecord
  2
PHANTOM
 70
64
  3
_____ _ _ _____ _ _ _____ _ _ _____
 72
65
 73
6
 40
0.8
 49
0.45
 74
0
 49
-0.05
 74
0
 49
0.1
 74
0
 49
-0.05
 74
0
 49
0.1
 74
0
 49
-0.05
 74
0
  0
LTYPE
  5
1F8
100
AcDbSymbolTableRecord
100
AcDbLinetypeTableRecord
  2
DOT
 70
64
  3
. . . . . . . . . . . . . . . . . . . .
 72
65
 73
2
 40
0.2
 49
0.1
 74
0
 49
-0.1
 74
0
  0
LTYPE
  5
1F9
100
AcDbSymbolTableRecord
100
AcDbLinetypeTableRecord
  2
DASHED
 70
64
  3
- - - - - - - - - - - - - - - - - - - -
 72
65
 73
2
 40
0.2
 49
0.1
 74
0
 49
-0.1
 74
0
  0
ENDTAB
  0
TABLE
  2
LAYER
  5
2
100
AcDbSymbolTable
 70
36
  0
LAYER
  5
10
100
AcDbSymbolTableRecord
100
AcDbLayerTableRecord
  2
0
 70
0
 62
7
  6
CONTINUOUS
  0
LAYER
  5
1FA
100
AcDbSymbolTableRecord
100
AcDbLayerTableRecord
  2
DEFAULT_1
 70
0
 62
7
  6
CENTER
  0
LAYER
  5
1FB
100
AcDbSymbolTableRecord
100
AcDbLayerTableRecord
  2
DEFAULT_2
 70
0
 62
8
  6
HIDDEN
  0
LAYER
  5
1FC
100
AcDbSymbolTableRecord
100
AcDbLayerTableRecord
  2
DEFAULT_3
 70
0
 62
7
  6
PHANTOM
  0
LAYER
  5
1FD
100
AcDbSymbolTableRecord
100
AcDbLayerTableRecord
  2
ASSI
 70
0
 62
7
  6
CONTINUOUS
  0
LAYER
  5
1FE
100
AcDbSymbolTableRecord
100
AcDbLayerTableRecord
  2
COSMETICA
 70
0
 62
7
  6
CONTINUOUS
  0
LAYER
  5
1FF
100
AcDbSymbolTableRecord
100
AcDbLayerTableRecord
  2
CSYS
 70
0
 62
7
  6
CONTINUOUS
  0
LAYER
  5
200
100
AcDbSymbolTableRecord
100
AcDbLayerTableRecord
  2
CURVE
 70
0
 62
7
  6
CONTINUOUS
  0
LAYER
  5
201
100
AcDbSymbolTableRecord
100
AcDbLayerTableRecord
  2
DETTAGLI
 70
0
 62
7
  6
CONTINUOUS
  0
LAYER
  5
202
100
AcDbSymbolTableRecord
100
AcDbLayerTableRecord
  2
FILETTI
 70
0
 62
7
  6
CONTINUOUS
  0
LAYER
  5
203
100
AcDbSymbolTableRecord
100
AcDbLayerTableRecord
  2
GEOM
 70
0
 62
7
  6
CONTINUOUS
  0
LAYER
  5
204
100
AcDbSymbolTableRecord
100
AcDbLayerTableRecord
  2
GEOMETRIA_SOLIDA
 70
0
 62
7
  6
CONTINUOUS
  0
LAYER
  5
205
100
AcDbSymbolTableRecord
100
AcDbLayerTableRecord
  2
NOGEOM
 70
0
 62
7
  6
CONTINUOUS
  0
LAYER
  5
206
100
AcDbSymbolTableRecord
100
AcDbLayerTableRecord
  2
PIANI
 70
0
 62
7
  6
CONTINUOUS
  0
LAYER
  5
207
100
AcDbSymbolTableRecord
100
AcDbLayerTableRecord
  2
QUOTE
 70
0
 62
7
  6
CONTINUOUS
  0
LAYER
  5
208
100
AcDbSymbolTableRecord
100
AcDbLayerTableRecord
  2
RACCORDI
 70
0
 62
7
  6
CONTINUOUS
  0
LAYER
  5
209
100
AcDbSymbolTableRecord
100
AcDbLayerTableRecord
  2
SKETCH
 70
0
 62
7
  6
CONTINUOUS
  0
LAYER
  5
20A
100
AcDbSymbolTableRecord
100
AcDbLayerTableRecord
  2
TABELLE
 70
0
 62
7
  6
CONTINUOUS
  0
ENDTAB
  0
TABLE
  2
STYLE
  5
3
100
AcDbSymbolTable
 70
1
  0
STYLE
  5
11
100
AcDbSymbolTableRecord
100
AcDbTextStyleTableRecord
  2
STANDARD
 70
0
 40
0.0
 41
1.0
 50
0.0
 71
0
 42
0.2
  3
trium.ttf
  4

  0
STYLE
  5
20B
100
AcDbSymbolTableRecord
100
AcDbTextStyleTableRecord
  2
TEXTSTYLE_1
 70
0
 40
0.0
 41
0.8
 50
0.0
 71
0
 42
0.2
  3
gdt
  4

  0
ENDTAB
  0
TABLE
  2
VIEW
  5
6
100
AcDbSymbolTable
 70
0
  0
ENDTAB
  0
TABLE
  2
UCS
  5
7
100
AcDbSymbolTable
 70
0
  0
ENDTAB
  0
TABLE
  2
APPID
  5
9
100
AcDbSymbolTable
 70
1
  0
APPID
  5
20C
100
AcDbSymbolTableRecord
100
AcDbRegAppTableRecord
  2
ACAD
 70
0
  0
ENDTAB
  0
TABLE
  2
BLOCK_RECORD
  5
1
100
AcDbSymbolTable
 70
0
  0
BLOCK_RECORD
  5
1F
100
AcDbSymbolTableRecord
100
AcDbBlockTableRecord
  2
*MODEL_SPACE
  0
BLOCK_RECORD
  5
1B
100
AcDbSymbolTableRecord
100
AcDbBlockTableRecord
  2
*PAPER_SPACE
  0
ENDTAB
  0
TABLE
  2
DIMSTYLE
  5
A
100
AcDbSymbolTable
 70
1
  0
DIMSTYLE
105
20D
100
AcDbSymbolTableRecord
100
AcDbDimStyleTableRecord
  2
STANDARD
 70
0
  3

  4

  5
_CLOSED
  6
_CLOSED
  7
_CLOSED
 40
1.0
 41
2.5
 42
0.0625
 43
0.38
 44
0.125
 45
0.0
 46
0.0
 47
0.01
 48
0.01
140
2.5
141
0.09
142
0.0
143
25.4
144
1.0
145
0.0
146
1.0
147
0.625
 71
1.0
 72
0.0
 73
0
 74
0
 75
0
 76
0
 77
1
 78
8
 79
2
170
0
171
1
172
0
173
0
174
0
175
0
176
0
177
0
178
0
270
2
179
2
271
2
272
2
273
2
274
2
275
0
280
0
281
0
282
0
283
1
284
8
285
0
286
0
287
3
288
0
340
11
  0
ENDTAB
  0
ENDSEC
  0
SECTION
  2
BLOCKS
  0
BLOCK
  5
20
100
AcDbEntity
  8
0
100
AcDbBlockBegin
  2
*MODEL_SPACE
 70
0
 10
0.0
 20
0.0
 30
0.0
  3
*MODEL_SPACE
  1

  0
ENDBLK
  5
21
100
AcDbEntity
  8
0
100
AcDbBlockEnd
  0
BLOCK
  5
1C
100
AcDbEntity
  8
0
100
AcDbBlockBegin
  2
*PAPER_SPACE
 70
0
 10
0.0
 20
0.0
 30
0.0
  3
*PAPER_SPACE
  1

  0
ENDBLK
  5
1D
100
AcDbEntity
  8
0
100
AcDbBlockEnd
  0
ENDSEC
  0
SECTION
  2
ENTITIES
  0
LINE
  5
20E
100
AcDbEntity
  8
0
100
AcDbLine
 62
7
  6
CONTINUOUS
 10
0.0
 20
0.0
 11
0.0
 21
210.0
  0
LINE
  5
20F
100
AcDbEntity
  8
0
100
AcDbLine
 62
7
  6
CONTINUOUS
 10
0.0
 20
0.0
 11
297.0
 21
0.0
  0
LINE
  5
210
100
AcDbEntity
  8
0
100
AcDbLine
 62
7
  6
CONTINUOUS
 10
0.0
 20
210.0
 11
297.0
 21
210.0
  0
LINE
  5
211
100
AcDbEntity
  8
0
100
AcDbLine
 62
7
  6
CONTINUOUS
 10
297.0
 20
0.0
 11
297.0
 21
210.0
  0
LINE
  5
212
100
AcDbEntity
  8
GEOM
100
AcDbLine
 62
7
  6
CONTINUOUS
 10
62.5272969996
 20
34.1406525241
 11
64.4036853745
 21
30.8906525241
  0
LINE
  5
213
100
AcDbEntity
  8
GEOM
100
AcDbLine
 62
7
  6
CONTINUOUS
 10
92.6557241244
 20
28.0622253994
 11
87.9988698749
 21
32.7190796489
  0
LINE
  5
214
100
AcDbEntity
  8
GEOM
100
AcDbLine
 62
7
  6
CONTINUOUS
 10
62.5272969996
 20
34.1406525241
 11
62.5272969996
 21
88.6406525241
  0
LINE
  5
215
100
AcDbEntity
  8
GEOM
100
AcDbLine
 62
7
  6
CONTINUOUS
 10
62.7272969996
 20
36.422580955
 11
62.7272969996
 21
38.7273268851
  0
LINE
  5
216
100
AcDbEntity
  8
GEOM
100
AcDbLine
 62
7
  6
CONTINUOUS
 10
62.7272969996
 20
59.085906594
 11
62.7272969996
 21
63.6953984543
  0
LINE
  5
217
100
AcDbEntity
  8
GEOM
100
AcDbLine
 62
7
  6
CONTINUOUS
 10
62.7272969996
 20
84.0539781631
 11
62.7272969996
 21
86.3587240933
  0
LINE
  5
218
100
AcDbEntity
  8
GEOM
100
AcDbLine
 62
7
  6
CONTINUOUS
 10
64.4036853745
 20
30.8906525241
 11
64.4036853745
 21
30.9795009409
  0
LINE
  5
219
100
AcDbEntity
  8
GEOM
100
AcDbLine
 62
7
  6
CONTINUOUS
 10
64.4036853745
 20
44.1704068992
 11
64.4036853745
 21
48.1997465659
  0
LINE
  5
21A
100
AcDbEntity
  8
GEOM
100
AcDbLine
 62
7
  6
CONTINUOUS
 10
64.4036853745
 20
74.5815584824
 11
64.4036853745
 21
78.6108981491
  0
LINE
  5
21B
100
AcDbEntity
  8
GEOM
100
AcDbLine
 62
7
  6
CONTINUOUS
 10
64.4036853745
 20
91.8018041073
 11
64.4036853745
 21
91.8906525241
  0
LINE
  5
21C
100
AcDbEntity
  8
0
100
AcDbLine
 62
7
  6
CONTINUOUS
 10
90.5272969996
 20
170.3645532029
 11
90.8009268198
 21
170.6906525241
  0
LINE
  5
21D
100
AcDbEntity
  8
0
100
AcDbLine
 62
7
  6
CONTINUOUS
 10
103.7537943077
 20
179.9440705367
 11
104.5272969996
 21
180.3906525241
  0
LINE
  5
21E
100
AcDbEntity
  8
0
100
AcDbLine
 62
7
  6
CONTINUOUS
 10
103.7537943077
 20
176.5987710751
 11
102.8272969996
 21
176.0638576049
  0
LINE
  5
21F
100
AcDbEntity
  8
0
100
AcDbLine
 62
7
  6
CONTINUOUS
 10
138.1881973685
 20
25.8906525241
 11
136.5272969996
 21
25.8906525241
  0
LINE
  5
220
100
AcDbEntity
  8
GEOM
100
AcDbLine
 62
7
  6
CONTINUOUS
 10
136.5272969996
 20
25.8906525241
 11
127.4486173432
 21
25.8906525241
  0
LINE
  5
221
100
AcDbEntity
  8
GEOM
100
AcDbLine
 62
7
  6
CONTINUOUS
 10
76.9292207883
 20
91.8906525241
 11
76.9292207883
 21
91.8022570476
  0
LINE
  5
222
100
AcDbEntity
  8
GEOM
100
AcDbLine
 62
7
  6
CONTINUOUS
 10
76.9292207883
 20
78.6059900099
 11
76.9292207883
 21
74.5869195994
  0
LINE
  5
223
100
AcDbEntity
  8
GEOM
100
AcDbLine
 62
7
  6
CONTINUOUS
 10
76.9292207883
 20
48.1943853771
 11
76.9292207883
 21
44.1753151752
  0
LINE
  5
224
100
AcDbEntity
  8
GEOM
100
AcDbLine
 62
7
  6
CONTINUOUS
 10
76.9292207883
 20
30.9790480202
 11
76.9292207883
 21
30.8906525241
  0
LINE
  5
225
100
AcDbEntity
  8
GEOM
100
AcDbLine
 62
7
  6
CONTINUOUS
 10
78.228258894
 20
91.1406525241
 11
78.228258894
 21
91.078358884
  0
LINE
  5
226
100
AcDbEntity
  8
GEOM
100
AcDbLine
 62
7
  6
CONTINUOUS
 10
78.228258894
 20
77.9009220145
 11
78.228258894
 21
74.5680893936
  0
LINE
  5
227
100
AcDbEntity
  8
GEOM
100
AcDbLine
 62
7
  6
CONTINUOUS
 10
78.228258894
 20
48.2132156546
 11
78.228258894
 21
44.8803830338
  0
LINE
  5
228
100
AcDbEntity
  8
GEOM
100
AcDbLine
 62
7
  6
CONTINUOUS
 10
78.228258894
 20
31.7029461643
 11
78.228258894
 21
31.6406525241
  0
LINE
  5
229
100
AcDbEntity
  8
GEOM
100
AcDbLine
 62
7
  6
CONTINUOUS
 10
79.5272940868
 20
54.9245010218
 11
79.5272947721
 21
41.4757641616
  0
LINE
  5
22A
100
AcDbEntity
  8
GEOM
100
AcDbLine
 62
7
  6
CONTINUOUS
 10
79.5272969996
 20
88.8906525241
 11
79.527297045
 21
87.7717339484
  0
LINE
  5
22B
100
AcDbEntity
  8
GEOM
100
AcDbLine
 62
7
  6
CONTINUOUS
 10
79.5272968833
 20
81.3055111748
 11
79.5272969379
 21
67.8568745639
  0
LINE
  5
22C
100
AcDbEntity
  8
GEOM
100
AcDbLine
 62
7
  6
CONTINUOUS
 10
79.5272971353
 20
35.0095708043
 11
79.5272969996
 21
33.8906525241
  0
LINE
  5
22D
100
AcDbEntity
  8
GEOM
100
AcDbLine
 62
7
  6
CONTINUOUS
 10
91.1772969996
 20
153.0040499838
 11
91.3272969996
 21
153.2638576049
  0
LINE
  5
22E
100
AcDbEntity
  8
0
100
AcDbLine
 62
7
  6
CONTINUOUS
 10
102.6272969996
 20
170.2906525241
 11
103.0272969996
 21
170.6906525241
  0
LINE
  5
22F
100
AcDbEntity
  8
GEOM
100
AcDbLine
 62
7
  6
CONTINUOUS
 10
95.7772969996
 20
162.8906525241
 11
96.0772969996
 21
163.1906525241
  0
LINE
  5
230
100
AcDbEntity
  8
0
100
AcDbLine
 62
7
  6
CONTINUOUS
 10
99.5272969996
 20
165.1906525241
 11
99.0543764969
 21
164.7177320214
  0
LINE
  5
231
100
AcDbEntity
  8
0
100
AcDbLine
 62
7
  6
CONTINUOUS
 10
99.5272969996
 20
168.1133022549
 11
100.5272969996
 21
168.6906525241
  0
LINE
  5
232
100
AcDbEntity
  8
0
100
AcDbLine
 62
7
  6
CONTINUOUS
 10
99.3354809663
 20
164.3841800571
 11
98.5348841889
 21
163.9671054153
  0
LINE
  5
233
100
AcDbEntity
  8
GEOM
100
AcDbLine
 62
7
  6
CONTINUOUS
 10
125.2059766561
 20
26.8906525241
 11
95.4841512491
 21
26.8906525241
  0
LINE
  5
234
100
AcDbEntity
  8
0
100
AcDbLine
 62
7
  6
CONTINUOUS
 10
76.9292207883
 20
30.8906525241
 11
64.4036853745
 21
30.8906525241
  0
LINE
  5
235
100
AcDbEntity
  8
0
100
AcDbLine
 62
7
  6
CONTINUOUS
 10
140.5802116081
 20
30.8906525241
 11
154.7952461921
 21
30.8906525241
  0
LINE
  5
236
100
AcDbEntity
  8
GEOM
100
AcDbLine
 62
7
  6
CONTINUOUS
 10
76.8398703642
 20
30.9795009409
 11
64.4036853745
 21
30.9795009409
  0
LINE
  5
237
100
AcDbEntity
  8
0
100
AcDbLine
 62
7
  6
CONTINUOUS
 10
140.5937484892
 20
30.9795009409
 11
154.7952461921
 21
30.9795009409
  0
LINE
  5
238
100
AcDbEntity
  8
ASSI
100
AcDbLine
 62
7
  6
CONTINUOUS
 10
85.1704427501
 20
33.8906525241
 11
79.5272969996
 21
33.8906525241
  0
LINE
  5
239
100
AcDbEntity
  8
0
100
AcDbLine
 62
7
  6
CONTINUOUS
 10
126.3879571714
 20
26.3299923524
 11
126.2666368279
 21
26.4513126959
  0
LINE
  5
23A
100
AcDbEntity
  8
ASSI
100
AcDbLine
 62
7
  6
CONTINUOUS
 10
78.228258894
 20
91.1406525241
 11
79.5272969996
 21
88.8906525241
  0
LINE
  5
23B
100
AcDbEntity
  8
GEOM
100
AcDbLine
 62
7
  6
CONTINUOUS
 10
85.1704427501
 20
88.8906525241
 11
85.1704427501
 21
33.8906525241
  0
LINE
  5
23C
100
AcDbEntity
  8
GEOM
100
AcDbLine
 62
7
  6
CONTINUOUS
 10
87.9988698749
 20
90.0622253994
 11
87.9988698749
 21
32.7190796489
  0
LINE
  5
23D
100
AcDbEntity
  8
0
100
AcDbLine
 62
7
  6
CONTINUOUS
 10
90.5272969996
 20
153.6906525241
 11
90.5272969996
 21
170.6906525241
  0
LINE
  5
23E
100
AcDbEntity
  8
0
100
AcDbLine
 62
7
  6
CONTINUOUS
 10
111.6904159603
 20
174.8906525241
 11
111.6021670162
 21
174.6906525241
  0
LINE
  5
23F
100
AcDbEntity
  8
0
100
AcDbLine
 62
7
  6
CONTINUOUS
 10
113.6417937657
 20
174.8906525241
 11
113.534147394
 21
174.6906525241
  0
LINE
  5
240
100
AcDbEntity
  8
0
100
AcDbLine
 62
7
  6
CONTINUOUS
 10
116.1846926137
 20
174.8906525241
 11
116.0707302206
 21
174.6906525241
  0
LINE
  5
241
100
AcDbEntity
  8
GEOM
100
AcDbLine
 62
7
  6
CONTINUOUS
 10
62.5272969996
 20
88.6406525241
 11
64.4036853745
 21
91.8906525241
  0
LINE
  5
242
100
AcDbEntity
  8
0
100
AcDbLine
 62
7
  6
CONTINUOUS
 10
115.1904159603
 20
174.8906525241
 11
115.0739093379
 21
174.6906525241
  0
LINE
  5
243
100
AcDbEntity
  8
GEOM
100
AcDbLine
 62
7
  6
CONTINUOUS
 10
96.8286476832
 20
151.1714137086
 11
97.0318755299
 21
151.3835457372
  0
LINE
  5
244
100
AcDbEntity
  8
GEOM
100
AcDbLine
 62
7
  6
CONTINUOUS
 10
96.6573331151
 20
151.335627271
 11
96.860782182
 21
151.5477593049
  0
LINE
  5
245
100
AcDbEntity
  8
0
100
AcDbLine
 62
7
  6
CONTINUOUS
 10
143.9770444679
 20
190.2261864301
 11
128.7344037808
 21
174.9835457429
  0
LINE
  5
246
100
AcDbEntity
  8
0
100
AcDbLine
 62
7
  6
CONTINUOUS
 10
101.9272969996
 20
62.8891632272
 11
104.0395296234
 21
58.7436732898
  0
LINE
  5
247
100
AcDbEntity
  8
0
100
AcDbLine
 62
7
  6
CONTINUOUS
 10
103.0496232373
 20
62.8891632272
 11
104.6006927422
 21
59.845017922
  0
LINE
  5
248
100
AcDbEntity
  8
GEOM
100
AcDbLine
 62
7
  6
CONTINUOUS
 10
91.0272969996
 20
156.7906525241
 11
91.0272969996
 21
153.2638576049
  0
LINE
  5
249
100
AcDbEntity
  8
GEOM
100
AcDbLine
 62
7
  6
CONTINUOUS
 10
91.3272969996
 20
153.2638576049
 11
91.3272969996
 21
157.0906525241
  0
LINE
  5
24A
100
AcDbEntity
  8
GEOM
100
AcDbLine
 62
7
  6
CONTINUOUS
 10
92.6557241244
 20
28.0622253994
 11
92.6557241244
 21
94.7190796489
  0
LINE
  5
24B
100
AcDbEntity
  8
0
100
AcDbLine
 62
7
  6
CONTINUOUS
 10
94.5272969996
 20
157.0906525241
 11
94.5272969996
 21
170.1906525241
  0
LINE
  5
24C
100
AcDbEntity
  8
GEOM
100
AcDbLine
 62
7
  6
CONTINUOUS
 10
95.4841512491
 20
26.8906525241
 11
95.4841512491
 21
95.4422812293
  0
LINE
  5
24D
100
AcDbEntity
  8
GEOM
100
AcDbLine
 62
7
  6
CONTINUOUS
 10
95.7772969996
 20
159.3378767895
 11
95.7772969996
 21
162.8906525241
  0
LINE
  5
24E
100
AcDbEntity
  8
GEOM
100
AcDbLine
 62
7
  6
CONTINUOUS
 10
96.0272969996
 20
157.3906525241
 11
96.0272969996
 21
158.6764389618
  0
LINE
  5
24F
100
AcDbEntity
  8
GEOM
100
AcDbLine
 62
7
  6
CONTINUOUS
 10
96.2607978382
 20
156.7906525241
 11
96.2607978382
 21
152.2548660865
  0
LINE
  5
250
100
AcDbEntity
  8
GEOM
100
AcDbLine
 62
7
  6
CONTINUOUS
 10
96.5491999939
 20
156.7906525241
 11
96.5491999939
 21
152.2548660865
  0
LINE
  5
251
100
AcDbEntity
  8
GEOM
100
AcDbLine
 62
7
  6
CONTINUOUS
 10
96.7772969996
 20
98.2776316865
 11
96.7772969996
 21
149.5976833955
  0
LINE
  5
252
100
AcDbEntity
  8
GEOM
100
AcDbLine
 62
7
  6
CONTINUOUS
 10
97.0428066216
 20
150.6764389618
 11
97.0428066216
 21
149.9640065861
  0
LINE
  5
253
100
AcDbEntity
  8
GEOM
100
AcDbLine
 62
7
  6
CONTINUOUS
 10
97.3298064004
 20
150.6764389618
 11
97.3298064004
 21
149.9640065861
  0
LINE
  5
254
100
AcDbEntity
  8
0
100
AcDbLine
 62
7
  6
CONTINUOUS
 10
98.5272969996
 20
163.959201587
 11
98.5272969996
 21
163.6551056301
  0
LINE
  5
255
100
AcDbEntity
  8
0
100
AcDbLine
 62
7
  6
CONTINUOUS
 10
109.5272969996
 20
174.8906525241
 11
109.4670839047
 21
174.6906525241
  0
LINE
  5
256
100
AcDbEntity
  8
0
100
AcDbLine
 62
7
  6
CONTINUOUS
 10
116.5272969996
 20
174.8906525241
 11
116.4270342688
 21
174.6906525241
  0
LINE
  5
257
100
AcDbEntity
  8
0
100
AcDbLine
 62
7
  6
CONTINUOUS
 10
131.5628309056
 20
172.1551186182
 11
146.5125783739
 21
187.1048660865
  0
LINE
  5
258
100
AcDbEntity
  8
GEOM
100
AcDbLine
 62
7
  6
CONTINUOUS
 10
76.8398703642
 20
44.1704068992
 11
64.4036853745
 21
44.1704068992
  0
LINE
  5
259
100
AcDbEntity
  8
0
100
AcDbLine
 62
7
  6
CONTINUOUS
 10
140.5937484892
 20
44.1704068992
 11
154.7952461921
 21
44.1704068992
  0
LINE
  5
25A
100
AcDbEntity
  8
GEOM
100
AcDbLine
 62
7
  6
CONTINUOUS
 10
76.8398703642
 20
48.1997465659
 11
64.4036853745
 21
48.1997465659
  0
LINE
  5
25B
100
AcDbEntity
  8
0
100
AcDbLine
 62
7
  6
CONTINUOUS
 10
140.5937484892
 20
48.1997465659
 11
154.7952461921
 21
48.1997465659
  0
LINE
  5
25C
100
AcDbEntity
  8
0
100
AcDbLine
 62
7
  6
CONTINUOUS
 10
99.3272995163
 20
163.2386505745
 11
99.3272995163
 21
163.1906525241
  0
LINE
  5
25D
100
AcDbEntity
  8
0
100
AcDbLine
 62
7
  6
CONTINUOUS
 10
99.3273000774
 20
164.575656954
 11
99.3273000774
 21
164.3799179528
  0
LINE
  5
25E
100
AcDbEntity
  8
0
100
AcDbLine
 62
7
  6
CONTINUOUS
 10
99.5272969996
 20
67.2891632272
 11
99.5272969996
 21
55.2891632272
  0
LINE
  5
25F
100
AcDbEntity
  8
0
100
AcDbLine
 62
7
  6
CONTINUOUS
 10
99.5272969996
 20
165.1906525241
 11
99.5272969996
 21
168.1133022549
  0
LINE
  5
260
100
AcDbEntity
  8
0
100
AcDbLine
 62
7
  6
CONTINUOUS
 10
99.5536188938
 20
165.1906525241
 11
99.5536188938
 21
168.1133022549
  0
LINE
  5
261
100
AcDbEntity
  8
0
100
AcDbLine
 62
7
  6
CONTINUOUS
 10
100.5272969996
 20
66.2891632272
 11
100.5272969996
 21
56.2891632272
  0
LINE
  5
262
100
AcDbEntity
  8
0
100
AcDbLine
 62
7
  6
CONTINUOUS
 10
102.5272969996
 20
175.5442423626
 11
102.5272969996
 21
174.8906525241
  0
LINE
  5
263
100
AcDbEntity
  8
0
100
AcDbLine
 62
7
  6
CONTINUOUS
 10
102.6272969996
 20
168.6906525241
 11
102.6272969996
 21
170.2906525241
  0
LINE
  5
264
100
AcDbEntity
  8
0
100
AcDbLine
 62
7
  6
CONTINUOUS
 10
103.7537943077
 20
176.5987710751
 11
103.7537943077
 21
179.9440705367
  0
LINE
  5
265
100
AcDbEntity
  8
0
100
AcDbLine
 62
7
  6
CONTINUOUS
 10
103.9125178373
 20
165.1906525241
 11
103.9125178373
 21
168.1133022549
  0
LINE
  5
266
100
AcDbEntity
  8
0
100
AcDbLine
 62
7
  6
CONTINUOUS
 10
104.909930508
 20
170.6906525241
 11
104.909930508
 21
170.3645532029
  0
LINE
  5
267
100
AcDbEntity
  8
0
100
AcDbLine
 62
7
  6
CONTINUOUS
 10
105.1683980561
 20
165.1906525241
 11
105.1683980561
 21
168.1133022549
  0
LINE
  5
268
100
AcDbEntity
  8
0
100
AcDbLine
 62
7
  6
CONTINUOUS
 10
106.6405456537
 20
176.5987710751
 11
106.6405456537
 21
179.9440705367
  0
LINE
  5
269
100
AcDbEntity
  8
0
100
AcDbLine
 62
7
  6
CONTINUOUS
 10
107.364178039
 20
174.8906525241
 11
107.3378948704
 21
174.6906525241
  0
LINE
  5
26A
100
AcDbEntity
  8
0
100
AcDbLine
 62
7
  6
CONTINUOUS
 10
123.4084948461
 20
163.2399360241
 11
125.7178959229
 21
169.584963335
  0
LINE
  5
26B
100
AcDbEntity
  8
0
100
AcDbLine
 62
7
  6
CONTINUOUS
 10
120.5272969996
 20
153.6906525241
 11
125.0728721701
 21
166.1795176634
  0
LINE
  5
26C
100
AcDbEntity
  8
0
100
AcDbLine
 62
7
  6
CONTINUOUS
 10
122.7344037808
 20
151.5477593053
 11
122.5701902184
 21
151.3835457429
  0
LINE
  5
26D
100
AcDbEntity
  8
0
100
AcDbLine
 62
7
  6
CONTINUOUS
 10
99.5272969996
 20
55.2891632272
 11
119.5272969996
 21
55.2891632272
  0
LINE
  5
26E
100
AcDbEntity
  8
0
100
AcDbLine
 62
7
  6
CONTINUOUS
 10
100.5272969996
 20
56.2891632272
 11
118.5272969996
 21
56.2891632272
  0
LINE
  5
26F
100
AcDbEntity
  8
0
100
AcDbLine
 62
7
  6
CONTINUOUS
 10
104.4510434448
 20
57.7891632272
 11
105.5733696825
 21
57.7891632272
  0
LINE
  5
270
100
AcDbEntity
  8
0
100
AcDbLine
 62
7
  6
CONTINUOUS
 10
109.5719494749
 20
57.7891632272
 11
110.5719494749
 21
57.7891632272
  0
LINE
  5
271
100
AcDbEntity
  8
0
100
AcDbLine
 62
7
  6
CONTINUOUS
 10
111.9719494749
 20
57.8291632272
 11
112.9719494749
 21
57.8291632272
  0
LINE
  5
272
100
AcDbEntity
  8
0
100
AcDbLine
 62
7
  6
CONTINUOUS
 10
105.4128002336
 20
174.8906525241
 11
105.423019771
 21
174.6906525241
  0
LINE
  5
273
100
AcDbEntity
  8
0
100
AcDbLine
 62
7
  6
CONTINUOUS
 10
109.5719494749
 20
64.8891632272
 11
109.5719494749
 21
63.8891632272
  0
LINE
  5
274
100
AcDbEntity
  8
0
100
AcDbLine
 62
7
  6
CONTINUOUS
 10
109.5719494749
 20
62.8891632272
 11
109.5719494749
 21
57.7891632272
  0
LINE
  5
275
100
AcDbEntity
  8
0
100
AcDbLine
 62
7
  6
CONTINUOUS
 10
110.5719494749
 20
64.8891632272
 11
110.5719494749
 21
63.8891632272
  0
LINE
  5
276
100
AcDbEntity
  8
0
100
AcDbLine
 62
7
  6
CONTINUOUS
 10
110.5719494749
 20
62.8891632272
 11
110.5719494749
 21
57.7891632272
  0
LINE
  5
277
100
AcDbEntity
  8
0
100
AcDbLine
 62
7
  6
CONTINUOUS
 10
111.9719494749
 20
62.8891632272
 11
111.9719494749
 21
61.0389786783
  0
LINE
  5
278
100
AcDbEntity
  8
0
100
AcDbLine
 62
7
  6
CONTINUOUS
 10
111.9719494749
 20
58.0891632272
 11
111.9719494749
 21
57.8291632272
  0
LINE
  5
279
100
AcDbEntity
  8
0
100
AcDbLine
 62
7
  6
CONTINUOUS
 10
112.4140483456
 20
176.5987710751
 11
112.4140483456
 21
179.9440705367
  0
LINE
  5
27A
100
AcDbEntity
  8
0
100
AcDbLine
 62
7
  6
CONTINUOUS
 10
112.9719494749
 20
62.8891632272
 11
112.9719494749
 21
61.8891632272
  0
LINE
  5
27B
100
AcDbEntity
  8
0
100
AcDbLine
 62
7
  6
CONTINUOUS
 10
113.0272969996
 20
153.6906525241
 11
113.0272969996
 21
160.6906525241
  0
LINE
  5
27C
100
AcDbEntity
  8
0
100
AcDbLine
 62
7
  6
CONTINUOUS
 10
115.3007996915
 20
176.5987710751
 11
115.3007996915
 21
179.9440705367
  0
LINE
  5
27D
100
AcDbEntity
  8
0
100
AcDbLine
 62
7
  6
CONTINUOUS
 10
115.7719494749
 20
62.2891632272
 11
115.7719494749
 21
61.2891632272
  0
LINE
  5
27E
100
AcDbEntity
  8
0
100
AcDbLine
 62
7
  6
CONTINUOUS
 10
115.1719494749
 20
61.2891632272
 11
115.7719494749
 21
61.2891632272
  0
LINE
  5
27F
100
AcDbEntity
  8
0
100
AcDbLine
 62
7
  6
CONTINUOUS
 10
115.7719494749
 20
62.2891632272
 11
116.7719494749
 21
62.2891632272
  0
LINE
  5
280
100
AcDbEntity
  8
0
100
AcDbLine
 62
7
  6
CONTINUOUS
 10
101.9272969996
 20
62.8891632272
 11
103.0496232373
 21
62.8891632272
  0
LINE
  5
281
100
AcDbEntity
  8
0
100
AcDbLine
 62
7
  6
CONTINUOUS
 10
107.0496232373
 20
62.8891632272
 11
108.1719494749
 21
62.8891632272
  0
LINE
  5
282
100
AcDbEntity
  8
0
100
AcDbLine
 62
7
  6
CONTINUOUS
 10
109.5719494749
 20
62.8891632272
 11
110.5719494749
 21
62.8891632272
  0
LINE
  5
283
100
AcDbEntity
  8
0
100
AcDbLine
 62
7
  6
CONTINUOUS
 10
111.9719494749
 20
62.8891632272
 11
112.9719494749
 21
62.8891632272
  0
LINE
  5
284
100
AcDbEntity
  8
0
100
AcDbLine
 62
7
  6
CONTINUOUS
 10
109.5719494749
 20
63.8891632272
 11
110.5719494749
 21
63.8891632272
  0
LINE
  5
285
100
AcDbEntity
  8
0
100
AcDbLine
 62
7
  6
CONTINUOUS
 10
109.5719494749
 20
64.8891632272
 11
110.5719494749
 21
64.8891632272
  0
LINE
  5
286
100
AcDbEntity
  8
0
100
AcDbLine
 62
7
  6
CONTINUOUS
 10
100.5272969996
 20
66.2891632272
 11
118.5272969996
 21
66.2891632272
  0
LINE
  5
287
100
AcDbEntity
  8
0
100
AcDbLine
 62
7
  6
CONTINUOUS
 10
99.5272969996
 20
67.2891632272
 11
119.5272969996
 21
67.2891632272
  0
LINE
  5
288
100
AcDbEntity
  8
0
100
AcDbLine
 62
7
  6
CONTINUOUS
 10
116.5272969996
 20
175.5442423626
 11
116.5272969996
 21
174.8906525241
  0
LINE
  5
289
100
AcDbEntity
  8
0
100
AcDbLine
 62
7
  6
CONTINUOUS
 10
116.7719494749
 20
62.2891632272
 11
116.7719494749
 21
60.9964964904
  0
LINE
  5
28A
100
AcDbEntity
  8
0
100
AcDbLine
 62
7
  6
CONTINUOUS
 10
118.5272969996
 20
66.2891632272
 11
118.5272969996
 21
56.2891632272
  0
LINE
  5
28B
100
AcDbEntity
  8
0
100
AcDbLine
 62
7
  6
CONTINUOUS
 10
119.5272969996
 20
67.2891632272
 11
119.5272969996
 21
55.2891632272
  0
LINE
  5
28C
100
AcDbEntity
  8
GEOM
100
AcDbLine
 62
7
  6
CONTINUOUS
 10
122.2772969996
 20
98.3906525241
 11
122.2772969996
 21
150.6764389618
  0
LINE
  5
28D
100
AcDbEntity
  8
GEOM
100
AcDbLine
 62
7
  6
CONTINUOUS
 10
123.0272969996
 20
152.2548660865
 11
123.0272969996
 21
158.6764389618
  0
LINE
  5
28E
100
AcDbEntity
  8
GEOM
100
AcDbLine
 62
7
  6
CONTINUOUS
 10
123.2772969996
 20
159.3378767895
 11
123.2772969996
 21
161.2462154276
  0
LINE
  5
28F
100
AcDbEntity
  8
0
100
AcDbLine
 62
7
  6
CONTINUOUS
 10
123.4084948461
 20
170.6906525241
 11
123.4084948461
 21
163.2399360241
  0
LINE
  5
290
100
AcDbEntity
  8
GEOM
100
AcDbLine
 62
7
  6
CONTINUOUS
 10
92.6557241244
 20
94.7190796489
 11
87.9988698749
 21
90.0622253994
  0
LINE
  5
291
100
AcDbEntity
  8
GEOM
100
AcDbLine
 62
7
  6
CONTINUOUS
 10
76.8398703642
 20
74.5815584824
 11
64.4036853745
 21
74.5815584824
  0
LINE
  5
292
100
AcDbEntity
  8
0
100
AcDbLine
 62
7
  6
CONTINUOUS
 10
140.5937484892
 20
74.5815584824
 11
154.7952461921
 21
74.5815584824
  0
LINE
  5
293
100
AcDbEntity
  8
0
100
AcDbLine
 62
7
  6
CONTINUOUS
 10
103.864178039
 20
174.8906525241
 11
103.909899923
 21
174.6906525241
  0
LINE
  5
294
100
AcDbEntity
  8
0
100
AcDbLine
 62
7
  6
CONTINUOUS
 10
125.2059766561
 20
95.8906525241
 11
125.2059766561
 21
26.8906525241
  0
LINE
  5
295
100
AcDbEntity
  8
0
100
AcDbLine
 62
7
  6
CONTINUOUS
 10
125.7178959229
 20
169.584963335
 11
125.7178959229
 21
169.6906525241
  0
LINE
  5
296
100
AcDbEntity
  8
0
100
AcDbLine
 62
7
  6
CONTINUOUS
 10
126.2666368279
 20
96.3299923524
 11
126.2666368279
 21
26.4513126959
  0
LINE
  5
297
100
AcDbEntity
  8
0
100
AcDbLine
 62
7
  6
CONTINUOUS
 10
126.3879571714
 20
26.3299923524
 11
126.3879571714
 21
96.4513126959
  0
LINE
  5
298
100
AcDbEntity
  8
0
100
AcDbLine
 62
7
  6
CONTINUOUS
 10
127.4486173432
 20
25.8906525241
 11
127.4486173432
 21
96.8906525241
  0
LINE
  5
299
100
AcDbEntity
  8
0
100
AcDbLine
 62
7
  6
CONTINUOUS
 10
128.0272969996
 20
170.6906525241
 11
128.0272969996
 21
174.6906525241
  0
LINE
  5
29A
100
AcDbEntity
  8
0
100
AcDbLine
 62
7
  6
CONTINUOUS
 10
104.6006927422
 20
59.845017922
 11
104.0395296234
 21
58.7436732898
  0
LINE
  5
29B
100
AcDbEntity
  8
ASSI
100
AcDbLine
 62
7
  6
CONTINUOUS
 10
78.228258894
 20
31.6406525241
 11
79.5272969996
 21
33.8906525241
  0
LINE
  5
29C
100
AcDbEntity
  8
GEOM
100
AcDbLine
 62
7
  6
CONTINUOUS
 10
76.8398703642
 20
78.6108981491
 11
64.4036853745
 21
78.6108981491
  0
LINE
  5
29D
100
AcDbEntity
  8
0
100
AcDbLine
 62
7
  6
CONTINUOUS
 10
140.5937484892
 20
78.6108981491
 11
154.7952461921
 21
78.6108981491
  0
LINE
  5
29E
100
AcDbEntity
  8
0
100
AcDbLine
 62
7
  6
CONTINUOUS
 10
102.8699013856
 20
174.8906525241
 11
102.9466500395
 21
174.6906525241
  0
LINE
  5
29F
100
AcDbEntity
  8
GEOM
100
AcDbLine
 62
7
  6
CONTINUOUS
 10
136.5272969996
 20
96.8906525241
 11
136.5272969996
 21
25.8906525241
  0
LINE
  5
2A0
100
AcDbEntity
  8
0
100
AcDbLine
 62
7
  6
CONTINUOUS
 10
136.5272969996
 20
25.8911551929
 11
136.5272969996
 21
96.8901498553
  0
LINE
  5
2A1
100
AcDbEntity
  8
0
100
AcDbLine
 62
7
  6
CONTINUOUS
 10
138.1881973685
 20
96.8906525241
 11
138.1881973685
 21
25.8906525241
  0
LINE
  5
2A2
100
AcDbEntity
  8
0
100
AcDbLine
 62
7
  6
CONTINUOUS
 10
139.1730051236
 20
96.0643006897
 11
139.1730051236
 21
26.7170043585
  0
LINE
  5
2A3
100
AcDbEntity
  8
0
100
AcDbLine
 62
7
  6
CONTINUOUS
 10
139.7923654057
 20
92.551733982
 11
139.7923654057
 21
92.4465277701
  0
LINE
  5
2A4
100
AcDbEntity
  8
0
100
AcDbLine
 62
7
  6
CONTINUOUS
 10
139.7923654057
 20
79.1342633493
 11
139.7923654057
 21
74.7029169506
  0
LINE
  5
2A5
100
AcDbEntity
  8
0
100
AcDbLine
 62
7
  6
CONTINUOUS
 10
139.7923654057
 20
48.0783880979
 11
139.7923654057
 21
43.6470416991
  0
LINE
  5
2A6
100
AcDbEntity
  8
0
100
AcDbLine
 62
7
  6
CONTINUOUS
 10
139.7923654057
 20
30.3347772782
 11
139.7923654057
 21
30.2295710663
  0
LINE
  5
2A7
100
AcDbEntity
  8
0
100
AcDbLine
 62
7
  6
CONTINUOUS
 10
140.5802116081
 20
91.8906525241
 11
140.5802116081
 21
91.8017839634
  0
LINE
  5
2A8
100
AcDbEntity
  8
0
100
AcDbLine
 62
7
  6
CONTINUOUS
 10
140.5802116081
 20
78.6111161161
 11
140.5802116081
 21
74.5813203706
  0
LINE
  5
2A9
100
AcDbEntity
  8
0
100
AcDbLine
 62
7
  6
CONTINUOUS
 10
140.5802116081
 20
48.1999846777
 11
140.5802116081
 21
44.1701889321
  0
LINE
  5
2AA
100
AcDbEntity
  8
0
100
AcDbLine
 62
7
  6
CONTINUOUS
 10
140.5802116081
 20
30.9795210849
 11
140.5802116081
 21
30.8906525241
  0
LINE
  5
2AB
100
AcDbEntity
  8
0
100
AcDbLine
 62
7
  6
CONTINUOUS
 10
107.0496232373
 20
62.8891632272
 11
104.4510434448
 21
57.7891632272
  0
LINE
  5
2AC
100
AcDbEntity
  8
0
100
AcDbLine
 62
7
  6
CONTINUOUS
 10
108.1719494749
 20
62.8891632272
 11
105.5733696825
 21
57.7891632272
  0
LINE
  5
2AD
100
AcDbEntity
  8
ASSI
100
AcDbLine
 62
7
  6
CONTINUOUS
 10
85.1704427501
 20
88.8906525241
 11
79.5272969996
 21
88.8906525241
  0
LINE
  5
2AE
100
AcDbEntity
  8
GEOM
100
AcDbLine
 62
7
  6
CONTINUOUS
 10
76.8398703642
 20
91.8018041073
 11
64.4036853745
 21
91.8018041073
  0
LINE
  5
2AF
100
AcDbEntity
  8
0
100
AcDbLine
 62
7
  6
CONTINUOUS
 10
140.5937484892
 20
91.8018041073
 11
154.7952461921
 21
91.8018041073
  0
LINE
  5
2B0
100
AcDbEntity
  8
0
100
AcDbLine
 62
7
  6
CONTINUOUS
 10
76.9292207883
 20
91.8906525241
 11
64.4036853745
 21
91.8906525241
  0
LINE
  5
2B1
100
AcDbEntity
  8
0
100
AcDbLine
 62
7
  6
CONTINUOUS
 10
140.5802116081
 20
91.8906525241
 11
154.7952461921
 21
91.8906525241
  0
LINE
  5
2B2
100
AcDbEntity
  8
0
100
AcDbLine
 62
7
  6
CONTINUOUS
 10
102.5272969996
 20
174.8906525241
 11
102.6275597305
 21
174.6906525241
  0
LINE
  5
2B3
100
AcDbEntity
  8
0
100
AcDbLine
 62
7
  6
CONTINUOUS
 10
139.7923654057
 20
92.551733982
 11
139.1730051215
 21
96.0643007018
  0
LINE
  5
2B4
100
AcDbEntity
  8
0
100
AcDbLine
 62
7
  6
CONTINUOUS
 10
126.3879571714
 20
96.4513126959
 11
126.2666368279
 21
96.3299923524
  0
LINE
  5
2B5
100
AcDbEntity
  8
GEOM
100
AcDbLine
 62
7
  6
CONTINUOUS
 10
125.2059766561
 20
95.8906525241
 11
124.7772969996
 21
95.8906525241
  0
LINE
  5
2B6
100
AcDbEntity
  8
0
100
AcDbLine
 62
7
  6
CONTINUOUS
 10
138.1881973685
 20
96.8906525241
 11
136.5272969996
 21
96.8906525241
  0
LINE
  5
2B7
100
AcDbEntity
  8
GEOM
100
AcDbLine
 62
7
  6
CONTINUOUS
 10
136.5272969996
 20
96.8906525241
 11
127.4486173432
 21
96.8906525241
  0
LINE
  5
2B8
100
AcDbEntity
  8
0
100
AcDbLine
 62
7
  6
CONTINUOUS
 10
156.5272969996
 20
88.8906525241
 11
154.7952461921
 21
91.8906525241
  0
LINE
  5
2B9
100
AcDbEntity
  8
0
100
AcDbLine
 62
7
  6
CONTINUOUS
 10
151.5272969996
 20
186.9906525241
 11
151.5272969996
 21
187.6906525241
  0
LINE
  5
2BA
100
AcDbEntity
  8
0
100
AcDbLine
 62
7
  6
CONTINUOUS
 10
151.5272969996
 20
187.6978123671
 11
151.5272969996
 21
191.6847599587
  0
LINE
  5
2BB
100
AcDbEntity
  8
0
100
AcDbLine
 62
7
  6
CONTINUOUS
 10
151.5272969996
 20
191.6906525241
 11
151.5272969996
 21
192.3906525241
  0
LINE
  5
2BC
100
AcDbEntity
  8
0
100
AcDbLine
 62
7
  6
CONTINUOUS
 10
152.3272969996
 20
186.1906525241
 11
152.3272969996
 21
193.1906525241
  0
LINE
  5
2BD
100
AcDbEntity
  8
0
100
AcDbLine
 62
7
  6
CONTINUOUS
 10
154.7952461921
 20
91.8906525241
 11
154.7952461921
 21
91.8018041073
  0
LINE
  5
2BE
100
AcDbEntity
  8
0
100
AcDbLine
 62
7
  6
CONTINUOUS
 10
154.7952461921
 20
78.6108981491
 11
154.7952461921
 21
74.5815584824
  0
LINE
  5
2BF
100
AcDbEntity
  8
0
100
AcDbLine
 62
7
  6
CONTINUOUS
 10
154.7952461921
 20
48.1997465659
 11
154.7952461921
 21
44.1704068992
  0
LINE
  5
2C0
100
AcDbEntity
  8
0
100
AcDbLine
 62
7
  6
CONTINUOUS
 10
154.7952461921
 20
30.8906525241
 11
154.7952461921
 21
30.9795009409
  0
LINE
  5
2C1
100
AcDbEntity
  8
0
100
AcDbLine
 62
7
  6
CONTINUOUS
 10
156.5272969996
 20
33.8906525241
 11
156.5272969996
 21
88.8906525241
  0
LINE
  5
2C2
100
AcDbEntity
  8
GEOM
100
AcDbLine
 62
7
  6
CONTINUOUS
 10
156.5650219996
 20
193.1906525241
 11
156.5650219996
 21
193.2340487741
  0
LINE
  5
2C3
100
AcDbEntity
  8
GEOM
100
AcDbLine
 62
7
  6
CONTINUOUS
 10
158.0060179313
 20
193.1906525241
 11
158.0060179313
 21
193.2340487741
  0
LINE
  5
2C4
100
AcDbEntity
  8
0
100
AcDbLine
 62
7
  6
CONTINUOUS
 10
139.7923654057
 20
30.2295710663
 11
139.1730051215
 21
26.7170043465
  0
LINE
  5
2C5
100
AcDbEntity
  8
0
100
AcDbLine
 62
7
  6
CONTINUOUS
 10
113.0272969996
 20
160.6906525241
 11
104.6363006879
 21
170.6906525241
  0
LINE
  5
2C6
100
AcDbEntity
  8
GEOM
100
AcDbLine
 62
7
  6
CONTINUOUS
 10
159.0650219996
 20
193.1906525241
 11
159.0650219996
 21
193.2340487741
  0
LINE
  5
2C7
100
AcDbEntity
  8
GEOM
100
AcDbLine
 62
7
  6
CONTINUOUS
 10
160.4450925309
 20
193.1906525241
 11
160.4450925309
 21
193.2340487741
  0
LINE
  5
2C8
100
AcDbEntity
  8
GEOM
100
AcDbLine
 62
7
  6
CONTINUOUS
 10
162.4715067809
 20
193.1906525241
 11
162.4715067809
 21
193.2340487741
  0
LINE
  5
2C9
100
AcDbEntity
  8
GEOM
100
AcDbLine
 62
7
  6
CONTINUOUS
 10
163.6869751712
 20
193.1906525241
 11
163.6869751712
 21
193.2340487741
  0
LINE
  5
2CA
100
AcDbEntity
  8
GEOM
100
AcDbLine
 62
7
  6
CONTINUOUS
 10
96.7820446171
 20
149.5949492532
 11
96.7772969996
 21
149.5976833955
  0
LINE
  5
2CB
100
AcDbEntity
  8
GEOM
100
AcDbLine
 62
7
  6
CONTINUOUS
 10
91.1772969996
 20
153.0040499838
 11
97.0257160708
 21
149.6274636587
  0
LINE
  5
2CC
100
AcDbEntity
  8
GEOM
100
AcDbLine
 62
7
  6
CONTINUOUS
 10
91.3272969996
 20
153.2638576049
 11
97.0428066216
 21
149.9640065861
  0
LINE
  5
2CD
100
AcDbEntity
  8
GEOM
100
AcDbLine
 62
7
  6
CONTINUOUS
 10
97.1665570116
 20
149.3676560376
 11
96.7772969986
 21
149.5976833979
  0
LINE
  5
2CE
100
AcDbEntity
  8
GEOM
100
AcDbLine
 62
7
  6
CONTINUOUS
 10
168.5322561712
 20
193.1906525241
 11
168.5322561712
 21
193.2340487741
  0
LINE
  5
2CF
100
AcDbEntity
  8
GEOM
100
AcDbLine
 62
7
  6
CONTINUOUS
 10
169.7681347651
 20
193.1906525241
 11
169.7681347651
 21
193.2340487741
  0
LINE
  5
2D0
100
AcDbEntity
  8
GEOM
100
AcDbLine
 62
7
  6
CONTINUOUS
 10
171.9530395151
 20
193.1906525241
 11
171.9530395151
 21
193.2340487741
  0
LINE
  5
2D1
100
AcDbEntity
  8
GEOM
100
AcDbLine
 62
7
  6
CONTINUOUS
 10
172.9039825151
 20
193.1906525241
 11
172.9039825151
 21
193.2340487741
  0
LINE
  5
2D2
100
AcDbEntity
  8
GEOM
100
AcDbLine
 62
7
  6
CONTINUOUS
 10
173.0737937651
 20
193.1906525241
 11
173.0737937651
 21
193.2340487741
  0
LINE
  5
2D3
100
AcDbEntity
  8
GEOM
100
AcDbLine
 62
7
  6
CONTINUOUS
 10
173.3681332651
 20
193.1906525241
 11
173.3681332651
 21
193.2340487741
  0
LINE
  5
2D4
100
AcDbEntity
  8
GEOM
100
AcDbLine
 62
7
  6
CONTINUOUS
 10
174.5432271151
 20
193.1906525241
 11
174.5432271151
 21
193.2340487741
  0
LINE
  5
2D5
100
AcDbEntity
  8
GEOM
100
AcDbLine
 62
7
  6
CONTINUOUS
 10
175.4143588276
 20
193.1906525241
 11
175.4143588276
 21
193.2340487741
  0
LINE
  5
2D6
100
AcDbEntity
  8
GEOM
100
AcDbLine
 62
7
  6
CONTINUOUS
 10
176.3341697651
 20
193.1906525241
 11
176.3341697651
 21
193.2340487741
  0
LINE
  5
2D7
100
AcDbEntity
  8
GEOM
100
AcDbLine
 62
7
  6
CONTINUOUS
 10
177.2511505151
 20
193.1906525241
 11
177.2511505151
 21
193.2340487741
  0
LINE
  5
2D8
100
AcDbEntity
  8
GEOM
100
AcDbLine
 62
7
  6
CONTINUOUS
 10
177.8058672651
 20
193.1906525241
 11
177.8058672651
 21
193.2340487741
  0
LINE
  5
2D9
100
AcDbEntity
  8
GEOM
100
AcDbLine
 62
7
  6
CONTINUOUS
 10
179.1077535151
 20
193.1906525241
 11
179.1077535151
 21
193.2340487741
  0
LINE
  5
2DA
100
AcDbEntity
  8
GEOM
100
AcDbLine
 62
7
  6
CONTINUOUS
 10
180.4888850151
 20
193.1906525241
 11
180.4888850151
 21
193.2340487741
  0
LINE
  5
2DB
100
AcDbEntity
  8
GEOM
100
AcDbLine
 62
7
  6
CONTINUOUS
 10
180.5054798416
 20
193.1906525241
 11
180.5054798416
 21
193.2340487741
  0
LINE
  5
2DC
100
AcDbEntity
  8
GEOM
100
AcDbLine
 62
7
  6
CONTINUOUS
 10
181.2926582651
 20
193.1906525241
 11
181.2926582651
 21
193.2340487741
  0
LINE
  5
2DD
100
AcDbEntity
  8
GEOM
100
AcDbLine
 62
7
  6
CONTINUOUS
 10
181.7907712651
 20
193.1906525241
 11
181.7907712651
 21
193.2340487741
  0
LINE
  5
2DE
100
AcDbEntity
  8
0
100
AcDbLine
 62
7
  6
CONTINUOUS
 10
98.5348842016
 20
163.6472017891
 11
99.3255535132
 21
163.2352992126
  0
LINE
  5
2DF
100
AcDbEntity
  8
0
100
AcDbLine
 62
7
  6
CONTINUOUS
 10
99.0568840961
 20
164.7122755672
 11
99.3255540752
 21
164.5723055942
  0
LINE
  5
2E0
100
AcDbEntity
  8
0
100
AcDbLine
 62
7
  6
CONTINUOUS
 10
116.1846926137
 20
174.8906525241
 11
116.424932542
 21
174.6906525241
  0
LINE
  5
2E1
100
AcDbEntity
  8
GEOM
100
AcDbLine
 62
7
  6
CONTINUOUS
 10
185.1983170151
 20
193.1906525241
 11
185.1983170151
 21
193.2340487741
  0
LINE
  5
2E2
100
AcDbEntity
  8
GEOM
100
AcDbLine
 62
7
  6
CONTINUOUS
 10
187.8285658696
 20
193.1906525241
 11
187.8285658696
 21
193.2340487741
  0
LINE
  5
2E3
100
AcDbEntity
  8
GEOM
100
AcDbLine
 62
7
  6
CONTINUOUS
 10
187.9945422651
 20
193.1906525241
 11
187.9945422651
 21
193.2340487741
  0
LINE
  5
2E4
100
AcDbEntity
  8
GEOM
100
AcDbLine
 62
7
  6
CONTINUOUS
 10
189.4096360151
 20
193.1906525241
 11
189.4096360151
 21
193.2340487741
  0
LINE
  5
2E5
100
AcDbEntity
  8
GEOM
100
AcDbLine
 62
7
  6
CONTINUOUS
 10
189.6586892914
 20
193.2340487741
 11
189.6586892914
 21
193.1906525241
  0
LINE
  5
2E6
100
AcDbEntity
  8
GEOM
100
AcDbLine
 62
7
  6
CONTINUOUS
 10
190.3945412651
 20
193.1906525241
 11
190.3945412651
 21
193.2340487741
  0
LINE
  5
2E7
100
AcDbEntity
  8
0
100
AcDbLine
 62
7
  6
CONTINUOUS
 10
102.5272969996
 20
174.8906525241
 11
102.911440829
 21
174.6906525241
  0
LINE
  5
2E8
100
AcDbEntity
  8
GEOM
100
AcDbLine
 62
7
  6
CONTINUOUS
 10
192.8398232651
 20
193.1906525241
 11
192.8398232651
 21
193.2340487741
  0
LINE
  5
2E9
100
AcDbEntity
  8
GEOM
100
AcDbLine
 62
7
  6
CONTINUOUS
 10
194.8480370041
 20
193.1906525241
 11
194.8480370041
 21
193.2340487741
  0
LINE
  5
2EA
100
AcDbEntity
  8
GEOM
100
AcDbLine
 62
7
  6
CONTINUOUS
 10
195.927214938
 20
193.1906525241
 11
195.927214938
 21
193.2340487741
  0
LINE
  5
2EB
100
AcDbEntity
  8
GEOM
100
AcDbLine
 62
7
  6
CONTINUOUS
 10
196.3828248927
 20
193.1906525241
 11
196.3828248927
 21
193.2340487741
  0
LINE
  5
2EC
100
AcDbEntity
  8
GEOM
100
AcDbLine
 62
7
  6
CONTINUOUS
 10
196.6932929711
 20
193.1906525241
 11
196.6932929711
 21
193.2340487741
  0
LINE
  5
2ED
100
AcDbEntity
  8
GEOM
100
AcDbLine
 62
7
  6
CONTINUOUS
 10
196.9002124978
 20
193.1906525241
 11
196.9002124978
 21
193.2340487741
  0
LINE
  5
2EE
100
AcDbEntity
  8
GEOM
100
AcDbLine
 62
7
  6
CONTINUOUS
 10
196.9851568494
 20
193.1906525241
 11
196.9851568494
 21
193.2340487741
  0
LINE
  5
2EF
100
AcDbEntity
  8
GEOM
100
AcDbLine
 62
7
  6
CONTINUOUS
 10
197.1530290151
 20
193.1906525241
 11
197.1530290151
 21
193.2340487741
  0
LINE
  5
2F0
100
AcDbEntity
  8
GEOM
100
AcDbLine
 62
7
  6
CONTINUOUS
 10
197.4484888641
 20
193.1906525241
 11
197.4484888641
 21
193.2340487741
  0
LINE
  5
2F1
100
AcDbEntity
  8
GEOM
100
AcDbLine
 62
7
  6
CONTINUOUS
 10
197.7959879594
 20
193.1906525241
 11
197.7959879594
 21
193.2340487741
  0
LINE
  5
2F2
100
AcDbEntity
  8
GEOM
100
AcDbLine
 62
7
  6
CONTINUOUS
 10
198.13769551
 20
193.1906525241
 11
198.13769551
 21
193.2340487741
  0
LINE
  5
2F3
100
AcDbEntity
  8
GEOM
100
AcDbLine
 62
7
  6
CONTINUOUS
 10
198.2805563129
 20
193.1906525241
 11
198.2805563129
 21
193.2340487741
  0
LINE
  5
2F4
100
AcDbEntity
  8
GEOM
100
AcDbLine
 62
7
  6
CONTINUOUS
 10
198.319167286
 20
193.1906525241
 11
198.319167286
 21
193.2340487741
  0
LINE
  5
2F5
100
AcDbEntity
  8
GEOM
100
AcDbLine
 62
7
  6
CONTINUOUS
 10
198.5431114024
 20
193.1906525241
 11
198.5431114024
 21
193.2340487741
  0
LINE
  5
2F6
100
AcDbEntity
  8
GEOM
100
AcDbLine
 62
7
  6
CONTINUOUS
 10
198.8285294845
 20
193.1906525241
 11
198.8285294845
 21
193.2340487741
  0
LINE
  5
2F7
100
AcDbEntity
  8
GEOM
100
AcDbLine
 62
7
  6
CONTINUOUS
 10
199.0413091742
 20
193.1906525241
 11
199.0413091742
 21
193.2340487741
  0
LINE
  5
2F8
100
AcDbEntity
  8
GEOM
100
AcDbLine
 62
7
  6
CONTINUOUS
 10
199.2361790781
 20
193.1906525241
 11
199.2361790781
 21
193.2340487741
  0
LINE
  5
2F9
100
AcDbEntity
  8
GEOM
100
AcDbLine
 62
7
  6
CONTINUOUS
 10
200.016121612
 20
193.1906525241
 11
200.016121612
 21
193.2340487741
  0
LINE
  5
2FA
100
AcDbEntity
  8
GEOM
100
AcDbLine
 62
7
  6
CONTINUOUS
 10
200.0875520135
 20
193.1906525241
 11
200.0875520135
 21
193.2340487741
  0
LINE
  5
2FB
100
AcDbEntity
  8
0
100
AcDbLine
 62
7
  6
CONTINUOUS
 10
156.5272969996
 20
33.8906525241
 11
154.7952461921
 21
30.8906525241
  0
LINE
  5
2FC
100
AcDbEntity
  8
GEOM
100
AcDbLine
 62
7
  6
CONTINUOUS
 10
97.0428066216
 20
149.9640065861
 11
97.3298064004
 21
149.9640065861
  0
LINE
  5
2FD
100
AcDbEntity
  8
GEOM
100
AcDbLine
 62
7
  6
CONTINUOUS
 10
97.0428066216
 20
150.6764389618
 11
122.2772969996
 21
150.6764389618
  0
LINE
  5
2FE
100
AcDbEntity
  8
GEOM
100
AcDbLine
 62
7
  6
CONTINUOUS
 10
97.0318755354
 20
151.3835457429
 11
122.5701902184
 21
151.3835457429
  0
LINE
  5
2FF
100
AcDbEntity
  8
GEOM
100
AcDbLine
 62
7
  6
CONTINUOUS
 10
122.7344037808
 20
151.5477593053
 11
96.8607821824
 21
151.5477593053
  0
LINE
  5
300
100
AcDbEntity
  8
GEOM
100
AcDbLine
 62
7
  6
CONTINUOUS
 10
96.2607978382
 20
152.2548660865
 11
123.0272969996
 21
152.2548660865
  0
LINE
  5
301
100
AcDbEntity
  8
0
100
AcDbLine
 62
7
  6
CONTINUOUS
 10
115.3007996915
 20
176.5987710751
 11
116.2272969996
 21
176.0638576049
  0
LINE
  5
302
100
AcDbEntity
  8
0
100
AcDbLine
 62
7
  6
CONTINUOUS
 10
115.3007996915
 20
179.9440705367
 11
114.5272969996
 21
180.3906525241
  0
LINE
  5
303
100
AcDbEntity
  8
GEOM
100
AcDbLine
 62
7
  6
CONTINUOUS
 10
200.3945096208
 20
193.1906525241
 11
200.3945096208
 21
193.2340487741
  0
LINE
  5
304
100
AcDbEntity
  8
GEOM
100
AcDbLine
 62
7
  6
CONTINUOUS
 10
200.7400778638
 20
193.1906525241
 11
200.7400778638
 21
193.2340487741
  0
LINE
  5
305
100
AcDbEntity
  8
GEOM
100
AcDbLine
 62
7
  6
CONTINUOUS
 10
201.139701874
 20
193.1906525241
 11
201.139701874
 21
193.2340487741
  0
LINE
  5
306
100
AcDbEntity
  8
GEOM
100
AcDbLine
 62
7
  6
CONTINUOUS
 10
201.2342991293
 20
193.1906525241
 11
201.2342991293
 21
193.2340487741
  0
LINE
  5
307
100
AcDbEntity
  8
GEOM
100
AcDbLine
 62
7
  6
CONTINUOUS
 10
201.2864237068
 20
193.1906525241
 11
201.2864237068
 21
193.2340487741
  0
LINE
  5
308
100
AcDbEntity
  8
GEOM
100
AcDbLine
 62
7
  6
CONTINUOUS
 10
201.4061183307
 20
193.1906525241
 11
201.4061183307
 21
193.2340487741
  0
LINE
  5
309
100
AcDbEntity
  8
GEOM
100
AcDbLine
 62
7
  6
CONTINUOUS
 10
201.7536170887
 20
193.1906525241
 11
201.7536170887
 21
193.2340487741
  0
LINE
  5
30A
100
AcDbEntity
  8
GEOM
100
AcDbLine
 62
7
  6
CONTINUOUS
 10
201.8114011498
 20
193.1906525241
 11
201.8114011498
 21
193.2340487741
  0
LINE
  5
30B
100
AcDbEntity
  8
GEOM
100
AcDbLine
 62
7
  6
CONTINUOUS
 10
201.9405242078
 20
193.1906525241
 11
201.9405242078
 21
193.2340487741
  0
LINE
  5
30C
100
AcDbEntity
  8
GEOM
100
AcDbLine
 62
7
  6
CONTINUOUS
 10
202.1455190392
 20
193.1906525241
 11
202.1455190392
 21
193.2340487741
  0
LINE
  5
30D
100
AcDbEntity
  8
GEOM
100
AcDbLine
 62
7
  6
CONTINUOUS
 10
202.4003517316
 20
193.1906525241
 11
202.4003517316
 21
193.2340487741
  0
LINE
  5
30E
100
AcDbEntity
  8
GEOM
100
AcDbLine
 62
7
  6
CONTINUOUS
 10
202.5200456808
 20
193.1906525241
 11
202.5200456808
 21
193.2340487741
  0
LINE
  5
30F
100
AcDbEntity
  8
GEOM
100
AcDbLine
 62
7
  6
CONTINUOUS
 10
202.7285453404
 20
193.1906525241
 11
202.7285453404
 21
193.2340487741
  0
LINE
  5
310
100
AcDbEntity
  8
GEOM
100
AcDbLine
 62
7
  6
CONTINUOUS
 10
203.0760447731
 20
193.1906525241
 11
203.0760447731
 21
193.2340487741
  0
LINE
  5
311
100
AcDbEntity
  8
GEOM
100
AcDbLine
 62
7
  6
CONTINUOUS
 10
91.3272969996
 20
153.2638576049
 11
91.0272969996
 21
153.2638576049
  0
LINE
  5
312
100
AcDbEntity
  8
0
100
AcDbLine
 62
7
  6
CONTINUOUS
 10
90.5272969996
 20
153.6906525241
 11
91.0272969996
 21
153.6906525241
  0
LINE
  5
313
100
AcDbEntity
  8
0
100
AcDbLine
 62
7
  6
CONTINUOUS
 10
113.0272969996
 20
153.6906525241
 11
120.5272969996
 21
153.6906525241
  0
LINE
  5
314
100
AcDbEntity
  8
GEOM
100
AcDbLine
 62
7
  6
CONTINUOUS
 10
91.0272969996
 20
156.7906525241
 11
96.5491999939
 21
156.7906525241
  0
LINE
  5
315
100
AcDbEntity
  8
GEOM
100
AcDbLine
 62
7
  6
CONTINUOUS
 10
96.103437644
 20
157.0906525241
 11
91.3272969996
 21
157.0906525241
  0
LINE
  5
316
100
AcDbEntity
  8
GEOM
100
AcDbLine
 62
7
  6
CONTINUOUS
 10
96.0272969996
 20
157.3906525241
 11
96.3952606735
 21
157.3906525241
  0
LINE
  5
317
100
AcDbEntity
  8
GEOM
100
AcDbLine
 62
7
  6
CONTINUOUS
 10
123.0272969996
 20
158.6764389618
 11
122.3419748573
 21
158.6764389618
  0
LINE
  5
318
100
AcDbEntity
  8
GEOM
100
AcDbLine
 62
7
  6
CONTINUOUS
 10
113.0272969996
 20
158.6764389618
 11
96.0272969996
 21
158.6764389618
  0
LINE
  5
319
100
AcDbEntity
  8
GEOM
100
AcDbLine
 62
7
  6
CONTINUOUS
 10
123.2772969996
 20
159.3378767895
 11
122.5827185385
 21
159.3378767895
  0
LINE
  5
31A
100
AcDbEntity
  8
GEOM
100
AcDbLine
 62
7
  6
CONTINUOUS
 10
113.0272969996
 20
159.3378767895
 11
95.7772969996
 21
159.3378767895
  0
LINE
  5
31B
100
AcDbEntity
  8
0
100
AcDbLine
 62
7
  6
CONTINUOUS
 10
90.5272969996
 20
160.6906525241
 11
94.5272969996
 21
160.6906525241
  0
LINE
  5
31C
100
AcDbEntity
  8
GEOM
100
AcDbLine
 62
7
  6
CONTINUOUS
 10
111.181277811
 20
162.8906525241
 11
95.7772969996
 21
162.8906525241
  0
LINE
  5
31D
100
AcDbEntity
  8
GEOM
100
AcDbLine
 62
7
  6
CONTINUOUS
 10
110.9295479217
 20
163.1906525241
 11
96.0772969996
 21
163.1906525241
  0
LINE
  5
31E
100
AcDbEntity
  8
0
100
AcDbLine
 62
7
  6
CONTINUOUS
 10
110.0904482905
 20
164.1906525241
 11
104.417452835
 21
164.1906525241
  0
LINE
  5
31F
100
AcDbEntity
  8
0
100
AcDbLine
 62
7
  6
CONTINUOUS
 10
99.5272969996
 20
165.1906525241
 11
109.2513486593
 21
165.1906525241
  0
LINE
  5
320
100
AcDbEntity
  8
0
100
AcDbLine
 62
7
  6
CONTINUOUS
 10
99.5536188938
 20
168.1133022549
 11
99.5272969996
 21
168.1133022549
  0
LINE
  5
321
100
AcDbEntity
  8
0
100
AcDbLine
 62
7
  6
CONTINUOUS
 10
103.9125178373
 20
168.1133022549
 11
105.1683980561
 21
168.1133022549
  0
LINE
  5
322
100
AcDbEntity
  8
0
100
AcDbLine
 62
7
  6
CONTINUOUS
 10
100.5272969996
 20
168.6906525241
 11
106.3144999502
 21
168.6906525241
  0
LINE
  5
323
100
AcDbEntity
  8
0
100
AcDbLine
 62
7
  6
CONTINUOUS
 10
107.364178039
 20
174.8906525241
 11
109.3466760563
 21
174.6906525241
  0
LINE
  5
324
100
AcDbEntity
  8
0
100
AcDbLine
 62
7
  6
CONTINUOUS
 10
105.4128002336
 20
174.8906525241
 11
107.2240296709
 21
174.6906525241
  0
LINE
  5
325
100
AcDbEntity
  8
0
100
AcDbLine
 62
7
  6
CONTINUOUS
 10
111.6904159603
 20
174.8906525241
 11
113.4355000344
 21
174.6906525241
  0
LINE
  5
326
100
AcDbEntity
  8
0
100
AcDbLine
 62
7
  6
CONTINUOUS
 10
103.864178039
 20
174.8906525241
 11
105.3268431395
 21
174.6906525241
  0
LINE
  5
327
100
AcDbEntity
  8
0
100
AcDbLine
 62
7
  6
CONTINUOUS
 10
113.6417937657
 20
174.8906525241
 11
115.0014350476
 21
174.6906525241
  0
LINE
  5
328
100
AcDbEntity
  8
0
100
AcDbLine
 62
7
  6
CONTINUOUS
 10
102.8699013856
 20
174.8906525241
 11
103.8408262981
 21
174.6906525241
  0
LINE
  5
329
100
AcDbEntity
  8
0
100
AcDbLine
 62
7
  6
CONTINUOUS
 10
115.1904159603
 20
174.8906525241
 11
116.0315232882
 21
174.6906525241
  0
LINE
  5
32A
100
AcDbEntity
  8
GEOM
100
AcDbLine
 62
7
  6
CONTINUOUS
 10
217.702533758
 20
193.1906525241
 11
217.702533758
 21
193.2340487741
  0
LINE
  5
32B
100
AcDbEntity
  8
GEOM
100
AcDbLine
 62
7
  6
CONTINUOUS
 10
217.9662135499
 20
193.1906525241
 11
217.9662135499
 21
193.2340487741
  0
LINE
  5
32C
100
AcDbEntity
  8
GEOM
100
AcDbLine
 62
7
  6
CONTINUOUS
 10
218.6637409285
 20
193.1906525241
 11
218.6637409285
 21
193.2340487741
  0
LINE
  5
32D
100
AcDbEntity
  8
GEOM
100
AcDbLine
 62
7
  6
CONTINUOUS
 10
219.3568002196
 20
193.1906525241
 11
219.3568002196
 21
193.2340487741
  0
LINE
  5
32E
100
AcDbEntity
  8
GEOM
100
AcDbLine
 62
7
  6
CONTINUOUS
 10
219.6153222206
 20
193.1906525241
 11
219.6153222206
 21
193.2340487741
  0
LINE
  5
32F
100
AcDbEntity
  8
GEOM
100
AcDbLine
 62
7
  6
CONTINUOUS
 10
219.9439754714
 20
193.1906525241
 11
219.9439754714
 21
193.2340487741
  0
LINE
  5
330
100
AcDbEntity
  8
GEOM
100
AcDbLine
 62
7
  6
CONTINUOUS
 10
219.9604768908
 20
193.1906525241
 11
219.9604768908
 21
193.2340487741
  0
LINE
  5
331
100
AcDbEntity
  8
GEOM
100
AcDbLine
 62
7
  6
CONTINUOUS
 10
220.3730121359
 20
193.1906525241
 11
220.3730121359
 21
193.2340487741
  0
LINE
  5
332
100
AcDbEntity
  8
GEOM
100
AcDbLine
 62
7
  6
CONTINUOUS
 10
221.2572128532
 20
193.1906525241
 11
221.2572128532
 21
193.2340487741
  0
LINE
  5
333
100
AcDbEntity
  8
GEOM
100
AcDbLine
 62
7
  6
CONTINUOUS
 10
221.3837236553
 20
193.1906525241
 11
221.3837236553
 21
193.2340487741
  0
LINE
  5
334
100
AcDbEntity
  8
GEOM
100
AcDbLine
 62
7
  6
CONTINUOUS
 10
221.5748649967
 20
193.1906525241
 11
221.5748649967
 21
193.2340487741
  0
LINE
  5
335
100
AcDbEntity
  8
GEOM
100
AcDbLine
 62
7
  6
CONTINUOUS
 10
221.673873272
 20
193.1906525241
 11
221.673873272
 21
193.2340487741
  0
LINE
  5
336
100
AcDbEntity
  8
GEOM
100
AcDbLine
 62
7
  6
CONTINUOUS
 10
222.0864085171
 20
193.1906525241
 11
222.0864085171
 21
193.2340487741
  0
LINE
  5
337
100
AcDbEntity
  8
GEOM
100
AcDbLine
 62
7
  6
CONTINUOUS
 10
222.9706092344
 20
193.1906525241
 11
222.9706092344
 21
193.2340487741
  0
LINE
  5
338
100
AcDbEntity
  8
GEOM
100
AcDbLine
 62
7
  6
CONTINUOUS
 10
223.0971200364
 20
193.1906525241
 11
223.0971200364
 21
193.2340487741
  0
LINE
  5
339
100
AcDbEntity
  8
GEOM
100
AcDbLine
 62
7
  6
CONTINUOUS
 10
224.9337842749
 20
193.1906525241
 11
224.9337842749
 21
193.2340487741
  0
LINE
  5
33A
100
AcDbEntity
  8
0
100
AcDbLine
 62
7
  6
CONTINUOUS
 10
102.6272969996
 20
170.2906525241
 11
104.9719405403
 21
170.2906525241
  0
LINE
  5
33B
100
AcDbEntity
  8
0
100
AcDbLine
 62
7
  6
CONTINUOUS
 10
90.8009268198
 20
170.6906525241
 11
104.6363006879
 21
170.6906525241
  0
LINE
  5
33C
100
AcDbEntity
  8
0
100
AcDbLine
 62
7
  6
CONTINUOUS
 10
104.909930508
 20
170.6906525241
 11
123.4084948461
 21
170.6906525241
  0
LINE
  5
33D
100
AcDbEntity
  8
0
100
AcDbLine
 62
7
  6
CONTINUOUS
 10
126.2952461921
 20
170.6906525241
 11
128.0272969996
 21
170.6906525241
  0
LINE
  5
33E
100
AcDbEntity
  8
0
100
AcDbLine
 62
7
  6
CONTINUOUS
 10
94.5272969996
 20
174.6906525241
 11
128.0272969996
 21
174.6906525241
  0
LINE
  5
33F
100
AcDbEntity
  8
0
100
AcDbLine
 62
7
  6
CONTINUOUS
 10
116.5272969996
 20
174.8906525241
 11
102.5272970021
 21
174.8906525241
  0
LINE
  5
340
100
AcDbEntity
  8
0
100
AcDbLine
 62
7
  6
CONTINUOUS
 10
102.5272969996
 20
175.5442423626
 11
116.5272969996
 21
175.5442423626
  0
LINE
  5
341
100
AcDbEntity
  8
0
100
AcDbLine
 62
7
  6
CONTINUOUS
 10
102.8272969996
 20
176.0638576049
 11
116.2272969996
 21
176.0638576049
  0
LINE
  5
342
100
AcDbEntity
  8
0
100
AcDbLine
 62
7
  6
CONTINUOUS
 10
109.5272969996
 20
174.8906525241
 11
111.4870028781
 21
174.6906525241
  0
LINE
  5
343
100
AcDbEntity
  8
GEOM
100
AcDbLine
 62
7
  6
CONTINUOUS
 10
227.2004691794
 20
193.1906525241
 11
227.2004691794
 21
193.2340487741
  0
LINE
  5
344
100
AcDbEntity
  8
GEOM
100
AcDbLine
 62
7
  6
CONTINUOUS
 10
230.2648877764
 20
193.1906525241
 11
230.2648877764
 21
193.2340487741
  0
LINE
  5
345
100
AcDbEntity
  8
0
100
AcDbLine
 62
7
  6
CONTINUOUS
 10
104.527355859
 20
180.3906525241
 11
114.5272381402
 21
180.3906525241
  0
LINE
  5
346
100
AcDbEntity
  8
0
100
AcDbLine
 62
7
  6
CONTINUOUS
 10
152.3272969996
 20
186.1906525241
 11
248.3272969996
 21
186.1906525241
  0
LINE
  5
347
100
AcDbEntity
  8
0
100
AcDbLine
 62
7
  6
CONTINUOUS
 10
238.5272969996
 20
186.1906525241
 11
238.5272969996
 21
193.1906525241
  0
LINE
  5
348
100
AcDbEntity
  8
0
100
AcDbLine
 62
7
  6
CONTINUOUS
 10
147.9267919362
 20
187.6906525241
 11
151.5272969996
 21
187.6906525241
  0
LINE
  5
349
100
AcDbEntity
  8
0
100
AcDbLine
 62
7
  6
CONTINUOUS
 10
151.5272969996
 20
189.3906525241
 11
251.5272969996
 21
189.3906525241
  0
LINE
  5
34A
100
AcDbEntity
  8
0
100
AcDbLine
 62
7
  6
CONTINUOUS
 10
151.5272969996
 20
189.9906525241
 11
251.5272969996
 21
189.9906525241
  0
LINE
  5
34B
100
AcDbEntity
  8
0
100
AcDbLine
 62
7
  6
CONTINUOUS
 10
151.5272969996
 20
191.6906525241
 11
147.5125783739
 21
191.6906525241
  0
LINE
  5
34C
100
AcDbEntity
  8
0
100
AcDbLine
 62
7
  6
CONTINUOUS
 10
152.3272969996
 20
193.1906525241
 11
248.3272969996
 21
193.1906525241
  0
LINE
  5
34D
100
AcDbEntity
  8
GEOM
100
AcDbLine
 62
7
  6
CONTINUOUS
 10
156.5650219996
 20
193.2340487741
 11
159.0650219996
 21
193.2340487741
  0
LINE
  5
34E
100
AcDbEntity
  8
GEOM
100
AcDbLine
 62
7
  6
CONTINUOUS
 10
160.4450925309
 20
193.2340487741
 11
172.8845159326
 21
193.2340487741
  0
LINE
  5
34F
100
AcDbEntity
  8
GEOM
100
AcDbLine
 62
7
  6
CONTINUOUS
 10
172.9039825151
 20
193.2340487741
 11
181.2926582651
 21
193.2340487741
  0
LINE
  5
350
100
AcDbEntity
  8
GEOM
100
AcDbLine
 62
7
  6
CONTINUOUS
 10
181.7907712651
 20
193.2340487741
 11
189.4096360151
 21
193.2340487741
  0
LINE
  5
351
100
AcDbEntity
  8
GEOM
100
AcDbLine
 62
7
  6
CONTINUOUS
 10
189.6586488487
 20
193.2340487741
 11
203.0760447731
 21
193.2340487741
  0
LINE
  5
352
100
AcDbEntity
  8
GEOM
100
AcDbLine
 62
7
  6
CONTINUOUS
 10
217.702533758
 20
193.2340487741
 11
219.6153222206
 21
193.2340487741
  0
LINE
  5
353
100
AcDbEntity
  8
GEOM
100
AcDbLine
 62
7
  6
CONTINUOUS
 10
219.9439754714
 20
193.2340487741
 11
221.5748649967
 21
193.2340487741
  0
LINE
  5
354
100
AcDbEntity
  8
GEOM
100
AcDbLine
 62
7
  6
CONTINUOUS
 10
221.673873272
 20
193.2340487741
 11
223.0971200364
 21
193.2340487741
  0
LINE
  5
355
100
AcDbEntity
  8
GEOM
100
AcDbLine
 62
7
  6
CONTINUOUS
 10
224.9337842749
 20
193.2340487741
 11
230.2647471837
 21
193.2340487741
  0
LINE
  5
356
100
AcDbEntity
  8
0
100
AcDbLine
 62
7
  6
CONTINUOUS
 10
251.5272969996
 20
189.3906525241
 11
251.5272969996
 21
189.9906525241
  0
ARC
  5
357
100
AcDbEntity
  8
GEOM
100
AcDbCircle
 62
7
  6
CONTINUOUS
 10
109.8971385847
 20
61.3906525241
 40
47.2261136339
100
AcDbArc
 50
177.2027194656
 51
182.7972805344
  0
ARC
  5
358
100
AcDbEntity
  8
GEOM
100
AcDbCircle
 62
7
  6
CONTINUOUS
 10
70.2544837165
 20
81.2950549663
 40
9.2728190621
100
AcDbArc
 50
0.064607833
 51
19.4176451637
  0
ARC
  5
359
100
AcDbEntity
  8
GEOM
100
AcDbCircle
 62
7
  6
CONTINUOUS
 10
76.8405451622
 20
100.4818856191
 40
8.6800815379
100
AcDbArc
 50
269.9955457701
 51
270.5853432919
  0
ARC
  5
35A
100
AcDbEntity
  8
GEOM
100
AcDbCircle
 62
7
  6
CONTINUOUS
 10
76.8405470758
 20
22.2994234358
 40
8.6800775315
100
AcDbArc
 50
89.41466907
 51
90.0044668633
  0
ARC
  5
35B
100
AcDbEntity
  8
0
100
AcDbCircle
 62
7
  6
CONTINUOUS
 10
140.5937387687
 20
87.2598826163
 40
4.5419214911
100
AcDbArc
 50
89.9998897853
 51
90.1706437146
  0
ARC
  5
35C
100
AcDbEntity
  8
0
100
AcDbCircle
 62
7
  6
CONTINUOUS
 10
140.5937387685
 20
35.5214222365
 40
4.5419212956
100
AcDbArc
 50
269.8293562805
 51
270.0001102097
  0
ARC
  5
35D
100
AcDbEntity
  8
GEOM
100
AcDbCircle
 62
7
  6
CONTINUOUS
 10
95.4841512491
 20
30.8906525241
 40
4.0
100
AcDbArc
 50
225.0
 51
270.0
  0
ARC
  5
35E
100
AcDbEntity
  8
GEOM
100
AcDbCircle
 62
7
  6
CONTINUOUS
 10
95.4841512491
 20
91.8906525241
 40
4.0
100
AcDbArc
 50
100.7001906231
 51
135.0
  0
ARC
  5
35F
100
AcDbEntity
  8
GEOM
100
AcDbCircle
 62
7
  6
CONTINUOUS
 10
85.1704427501
 20
92.8906525241
 40
4.0
100
AcDbArc
 50
270.0
 51
315.0
  0
ARC
  5
360
100
AcDbEntity
  8
GEOM
100
AcDbCircle
 62
7
  6
CONTINUOUS
 10
85.1704427501
 20
29.8906525241
 40
4.0
100
AcDbArc
 50
45.0
 51
90.0
  0
ARC
  5
361
100
AcDbEntity
  8
0
100
AcDbCircle
 62
7
  6
CONTINUOUS
 10
116.1919494749
 20
57.8291632272
 40
3.22
100
AcDbArc
 50
79.6230044397
 51
180.0
  0
ARC
  5
362
100
AcDbEntity
  8
0
100
AcDbCircle
 62
7
  6
CONTINUOUS
 10
115.1719494749
 20
58.0891632272
 40
3.2
100
AcDbArc
 50
90.0
 51
180.0
  0
ARC
  5
363
100
AcDbEntity
  8
GEOM
100
AcDbCircle
 62
7
  6
CONTINUOUS
 10
94.2772983995
 20
98.2776365515
 40
2.4999997705
100
AcDbArc
 50
280.7001383965
 51
359.9998885027
  0
ARC
  5
364
100
AcDbEntity
  8
GEOM
100
AcDbCircle
 62
7
  6
CONTINUOUS
 10
124.7772730959
 20
98.3906375335
 40
2.4999960814
100
AcDbArc
 50
179.9996564362
 51
270.0005478369
  0
ARC
  5
365
100
AcDbEntity
  8
0
100
AcDbCircle
 62
7
  6
CONTINUOUS
 10
113.7640526518
 20
59.9442795399
 40
2.1
100
AcDbArc
 50
112.1598560878
 51
148.5814933011
  0
ARC
  5
366
100
AcDbEntity
  8
GEOM
100
AcDbCircle
 62
7
  6
CONTINUOUS
 10
76.9292207883
 20
32.3906525241
 40
1.5
100
AcDbArc
 50
270.0
 51
330.0
  0
ARC
  5
367
100
AcDbEntity
  8
GEOM
100
AcDbCircle
 62
7
  6
CONTINUOUS
 10
76.9292207883
 20
90.3906525241
 40
1.5
100
AcDbArc
 50
30.0
 51
90.0
  0
ARC
  5
368
100
AcDbEntity
  8
0
100
AcDbCircle
 62
7
  6
CONTINUOUS
 10
125.2059766561
 20
25.3906525241
 40
1.5
100
AcDbArc
 50
44.9999999997
 51
90.0
  0
ARC
  5
369
100
AcDbEntity
  8
0
100
AcDbCircle
 62
7
  6
CONTINUOUS
 10
125.2059766561
 20
97.3906525241
 40
1.5
100
AcDbArc
 50
270.0
 51
315.0000000003
  0
ARC
  5
36A
100
AcDbEntity
  8
0
100
AcDbCircle
 62
7
  6
CONTINUOUS
 10
127.4486173432
 20
95.3906525241
 40
1.5
100
AcDbArc
 50
90.0
 51
135.0000000002
  0
ARC
  5
36B
100
AcDbEntity
  8
0
100
AcDbCircle
 62
7
  6
CONTINUOUS
 10
127.4486173432
 20
27.3906525241
 40
1.5
100
AcDbArc
 50
224.9999999998
 51
270.0
  0
ARC
  5
36C
100
AcDbEntity
  8
0
100
AcDbCircle
 62
7
  6
CONTINUOUS
 10
138.1881973685
 20
26.8906525241
 40
1.0
100
AcDbArc
 50
270.0
 51
350.0
  0
ARC
  5
36D
100
AcDbEntity
  8
0
100
AcDbCircle
 62
7
  6
CONTINUOUS
 10
138.1881973685
 20
95.8906525241
 40
1.0
100
AcDbArc
 50
10.0
 51
90.0
  0
ARC
  5
36E
100
AcDbEntity
  8
GEOM
100
AcDbCircle
 62
7
  6
CONTINUOUS
 10
76.8404330244
 20
77.805395294
 40
0.8055030516
100
AcDbArc
 50
83.6716288464
 51
90.0400222707
  0
ARC
  5
36F
100
AcDbEntity
  8
GEOM
100
AcDbCircle
 62
7
  6
CONTINUOUS
 10
76.8404319
 20
44.9759079122
 40
0.8055012087
100
AcDbArc
 50
269.9600576165
 51
276.3284661602
  0
ARC
  5
370
100
AcDbEntity
  8
0
100
AcDbCircle
 62
7
  6
CONTINUOUS
 10
140.5802116081
 20
30.0906525241
 40
0.8
100
AcDbArc
 50
90.0
 51
170.0
  0
ARC
  5
371
100
AcDbEntity
  8
0
100
AcDbCircle
 62
7
  6
CONTINUOUS
 10
140.5802116081
 20
92.6906525241
 40
0.8
100
AcDbArc
 50
190.0
 51
270.0
  0
ARC
  5
372
100
AcDbEntity
  8
GEOM
100
AcDbCircle
 62
7
  6
CONTINUOUS
 10
76.8403950807
 20
75.3200680692
 40
0.7385097732
100
AcDbArc
 50
269.9592909301
 51
276.9080867656
  0
ARC
  5
373
100
AcDbEntity
  8
GEOM
100
AcDbCircle
 62
7
  6
CONTINUOUS
 10
76.8403945318
 20
47.461237645
 40
0.7385091069
100
AcDbArc
 50
83.0918640703
 51
90.040666517
  0
ARC
  5
374
100
AcDbEntity
  8
0
100
AcDbCircle
 62
7
  6
CONTINUOUS
 10
140.5937413405
 20
43.7503867082
 40
0.420020191
100
AcDbArc
 50
89.9991574568
 51
91.8459367069
  0
ARC
  5
375
100
AcDbEntity
  8
0
100
AcDbCircle
 62
7
  6
CONTINUOUS
 10
140.5937413404
 20
79.0309183231
 40
0.4200201741
100
AcDbArc
 50
268.1540632428
 51
270.0008424919
  0
ARC
  5
376
100
AcDbEntity
  8
0
100
AcDbCircle
 62
7
  6
CONTINUOUS
 10
140.5937417618
 20
74.1970296796
 40
0.3845288029
100
AcDbArc
 50
89.9991406749
 51
92.0164438978
  0
ARC
  5
377
100
AcDbEntity
  8
0
100
AcDbCircle
 62
7
  6
CONTINUOUS
 10
140.5937417617
 20
48.5842753512
 40
0.3845287854
100
AcDbArc
 50
267.9835560329
 51
270.0008592553
  0
ARC
  5
378
100
AcDbEntity
  8
0
100
AcDbCircle
 62
7
  6
CONTINUOUS
 10
55.4397187353
 20
181.8688966708
 40
54.5358782259
100
AcDbArc
 50
352.4365383188
 51
352.6484523501
  0
ARC
  5
379
100
AcDbEntity
  8
GEOM
100
AcDbCircle
 62
7
  6
CONTINUOUS
 10
107.9237036688
 20
125.8409192766
 40
30.9358953367
100
AcDbArc
 50
287.9590775247
 51
288.4187076286
  0
ARC
  5
37A
100
AcDbEntity
  8
GEOM
100
AcDbCircle
 62
7
  6
CONTINUOUS
 10
111.1228680245
 20
125.8151216836
 40
30.9088877488
100
AcDbArc
 50
251.5783987637
 51
251.9631987679
  0
ARC
  5
37B
100
AcDbEntity
  8
0
100
AcDbCircle
 62
7
  6
CONTINUOUS
 10
110.3316803713
 20
147.6941276487
 40
21.0618654413
100
AcDbArc
 50
100.3499945415
 51
104.1906030355
  0
ARC
  5
37C
100
AcDbEntity
  8
0
100
AcDbCircle
 62
7
  6
CONTINUOUS
 10
147.5125783739
 20
186.6906525241
 40
5.0
100
AcDbArc
 50
90.0
 51
135.0
  0
ARC
  5
37D
100
AcDbEntity
  8
0
100
AcDbCircle
 62
7
  6
CONTINUOUS
 10
128.0272969996
 20
175.6906525241
 40
5.0
100
AcDbArc
 50
270.0
 51
315.0
  0
ARC
  5
37E
100
AcDbEntity
  8
0
100
AcDbCircle
 62
7
  6
CONTINUOUS
 10
94.5272969996
 20
170.6906525241
 40
4.0
100
AcDbArc
 50
90.0
 51
180.0
  0
ARC
  5
37F
100
AcDbEntity
  8
0
100
AcDbCircle
 62
7
  6
CONTINUOUS
 10
147.9267919362
 20
185.6906525241
 40
2.0
100
AcDbArc
 50
90.0
 51
135.0
  0
ARC
  5
380
100
AcDbEntity
  8
0
100
AcDbCircle
 62
7
  6
CONTINUOUS
 10
128.0272969996
 20
175.6906525241
 40
1.0
100
AcDbArc
 50
270.0
 51
315.0
  0
ARC
  5
381
100
AcDbEntity
  8
0
100
AcDbCircle
 62
7
  6
CONTINUOUS
 10
122.0272969996
 20
152.2548660865
 40
1.0
100
AcDbArc
 50
315.0
 51
360.0
  0
ARC
  5
382
100
AcDbEntity
  8
0
100
AcDbCircle
 62
7
  6
CONTINUOUS
 10
123.2772969996
 20
150.6764389618
 40
1.0
100
AcDbArc
 50
135.0
 51
180.0
  0
ARC
  5
383
100
AcDbEntity
  8
GEOM
100
AcDbCircle
 62
7
  6
CONTINUOUS
 10
124.0272969996
 20
158.6764389618
 40
1.0
100
AcDbArc
 50
138.5903778907
 51
180.0
  0
ARC
  5
384
100
AcDbEntity
  8
GEOM
100
AcDbCircle
 62
7
  6
CONTINUOUS
 10
95.0272969996
 20
158.6764389618
 40
1.0
100
AcDbArc
 50
0.0
 51
41.4096221093
  0
ARC
  5
385
100
AcDbEntity
  8
0
100
AcDbCircle
 62
7
  6
CONTINUOUS
 10
115.9272969996
 20
175.5442423626
 40
0.6
100
AcDbArc
 50
0.0
 51
60.0
  0
ARC
  5
386
100
AcDbEntity
  8
0
100
AcDbCircle
 62
7
  6
CONTINUOUS
 10
103.1272969996
 20
175.5442423626
 40
0.6
100
AcDbArc
 50
120.0
 51
180.0
  0
ARC
  5
387
100
AcDbEntity
  8
0
100
AcDbCircle
 62
7
  6
CONTINUOUS
 10
95.0272969996
 20
170.1906525241
 40
0.5
100
AcDbArc
 50
90.0
 51
180.0
  0
ARC
  5
388
100
AcDbEntity
  8
GEOM
100
AcDbCircle
 62
7
  6
CONTINUOUS
 10
95.7272969996
 20
157.3906525241
 40
0.3
100
AcDbArc
 50
270.0
 51
360.0
  0
ARC
  5
389
100
AcDbEntity
  8
GEOM
100
AcDbCircle
 62
7
  6
CONTINUOUS
 10
91.3272969996
 20
156.7906525241
 40
0.3
100
AcDbArc
 50
90.0
 51
180.0
  0
ARC
  5
38A
100
AcDbEntity
  8
GEOM
100
AcDbCircle
 62
7
  6
CONTINUOUS
 10
91.3272969996
 20
153.2638576049
 40
0.3
100
AcDbArc
 50
180.0
 51
240.0
  0
ARC
  5
38B
100
AcDbEntity
  8
GEOM
100
AcDbCircle
 62
7
  6
CONTINUOUS
 10
96.4773024131
 20
149.59768027
 40
0.2999998756
100
AcDbArc
 50
0.000596935
 51
60.0011938484
  0
ARC
  5
38C
100
AcDbEntity
  8
0
100
AcDbCircle
 62
7
  6
CONTINUOUS
 10
248.3272969996
 20
189.3906525241
 40
3.2
100
AcDbArc
 50
270.0
 51
360.0
  0
ARC
  5
38D
100
AcDbEntity
  8
0
100
AcDbCircle
 62
7
  6
CONTINUOUS
 10
248.3272969996
 20
189.9906525241
 40
3.2
100
AcDbArc
 50
0.0
 51
90.0
  0
ARC
  5
38E
100
AcDbEntity
  8
0
100
AcDbCircle
 62
7
  6
CONTINUOUS
 10
152.3272969996
 20
186.9906525241
 40
0.8
100
AcDbArc
 50
180.0
 51
270.0
  0
ARC
  5
38F
100
AcDbEntity
  8
0
100
AcDbCircle
 62
7
  6
CONTINUOUS
 10
152.3272969996
 20
192.3906525241
 40
0.8
100
AcDbArc
 50
90.0
 51
180.0
  0
SPLINE
  5
390
100
AcDbEntity
  8
0
100
AcDbSpline
 62
7
  6
CONTINUOUS
 70
0
 71
3
 72
11
 73
7
 74
0
 42
0.0000001
 43
0.0000001
 44
0.0000000001
 40
0.0
 40
0.0
 40
0.0
 40
0.0
 40
0.2616352191
 40
0.5144887546
 40
0.7595898472
 40
1.0
 40
1.0
 40
1.0
 40
1.0
 10
103.7537943077
 20
179.9440705367
 30
0.0
 10
103.8691723619
 20
180.0106840874
 30
0.0
 10
104.1012922282
 20
180.1330196332
 30
0.0
 10
104.4612106082
 20
180.2771165611
 30
0.0
 10
104.8270651427
 20
180.3693124306
 30
0.0
 10
105.074750882
 20
180.3906525241
 30
0.0
 10
105.1971699809
 20
180.3906525241
 30
0.0
  0
SPLINE
  5
391
100
AcDbEntity
  8
0
100
AcDbSpline
 62
7
  6
CONTINUOUS
 70
0
 71
3
 72
11
 73
7
 74
0
 42
0.0000001
 43
0.0000001
 44
0.0000000001
 40
0.0
 40
0.0
 40
0.0
 40
0.0
 40
0.2404052701
 40
0.4855029998
 40
0.7383572369
 40
1.0
 40
1.0
 40
1.0
 40
1.0
 10
105.1971699809
 20
180.3906525241
 30
0.0
 10
105.3195865239
 20
180.3906525241
 30
0.0
 10
105.5672676628
 20
180.3693097851
 30
0.0
 10
105.9331183891
 20
180.277116822
 30
0.0
 10
106.2930403041
 20
180.1330224603
 30
0.0
 10
106.5251643383
 20
180.0106859703
 30
0.0
 10
106.6405456537
 20
179.9440705367
 30
0.0
  0
SPLINE
  5
392
100
AcDbEntity
  8
0
100
AcDbSpline
 62
7
  6
CONTINUOUS
 70
0
 71
3
 72
15
 73
11
 74
0
 42
0.0000001
 43
0.0000001
 44
0.0000000001
 40
0.0
 40
0.0
 40
0.0
 40
0.0
 40
0.1308200694
 40
0.2572467302
 40
0.3797970158
 40
0.500000022
 40
0.6202030249
 40
0.7427533028
 40
0.8691799416
 40
1.0
 40
1.0
 40
1.0
 40
1.0
 10
106.6405456537
 20
176.5987710751
 30
0.0
 10
106.5251655977
 20
176.6653857815
 30
0.0
 10
106.2930380936
 20
176.787721121
 30
0.0
 10
105.933140331
 20
176.9318173742
 30
0.0
 10
105.5672075311
 20
177.0240067045
 30
0.0
 10
105.1971699179
 20
177.0559096211
 30
0.0
 10
104.8271323172
 20
177.0240066652
 30
0.0
 10
104.4611995536
 20
176.931817334
 30
0.0
 10
104.1013018272
 20
176.7877211022
 30
0.0
 10
103.869174354
 20
176.6653857759
 30
0.0
 10
103.7537943077
 20
176.5987710751
 30
0.0
  0
SPLINE
  5
393
100
AcDbEntity
  8
0
100
AcDbSpline
 62
7
  6
CONTINUOUS
 70
0
 71
3
 72
9
 73
5
 74
0
 42
0.0000001
 43
0.0000001
 44
0.0000000001
 40
0.0
 40
0.0
 40
0.0
 40
0.0
 40
0.2530923568
 40
1.0
 40
1.0
 40
1.0
 40
1.0
 10
109.5272969996
 20
174.8906525241
 30
0.0
 10
109.5991243845
 20
174.8735481991
 30
0.0
 10
109.8831336947
 20
174.8068552237
 30
0.0
 10
110.1675241698
 20
174.7417672054
 30
0.0
 10
110.3793430337
 20
174.6906525241
 30
0.0
  0
LINE
  5
394
100
AcDbEntity
  8
0
100
AcDbLine
 62
7
  6
CONTINUOUS
 10
108.5753830304
 20
174.6906525241
 11
108.5850115051
 21
174.7674913439
  0
SPLINE
  5
395
100
AcDbEntity
  8
0
100
AcDbSpline
 62
7
  6
CONTINUOUS
 70
0
 71
3
 72
11
 73
7
 74
0
 42
0.0000001
 43
0.0000001
 44
0.0000000001
 40
0.0
 40
0.0
 40
0.0
 40
0.0
 40
0.250004133
 40
0.5000063387
 40
0.7500033535
 40
1.0
 40
1.0
 40
1.0
 40
1.0
 10
106.6405456537
 20
179.9440705367
 30
0.0
 10
106.875165743
 20
180.0117995226
 30
0.0
 10
107.3478200299
 20
180.1358851749
 30
0.0
 10
108.06684673
 20
180.2789652137
 30
0.0
 10
108.7944787125
 20
180.3698214726
 30
0.0
 10
109.2831039812
 20
180.3906525241
 30
0.0
 10
109.5272969999
 20
180.3906525241
 30
0.0
  0
SPLINE
  5
396
100
AcDbEntity
  8
0
100
AcDbSpline
 62
7
  6
CONTINUOUS
 70
0
 71
3
 72
11
 73
7
 74
0
 42
0.0000001
 43
0.0000001
 44
0.0000000001
 40
0.0
 40
0.0
 40
0.0
 40
0.0
 40
0.2499913856
 40
0.4999850118
 40
0.7499883992
 40
1.0
 40
1.0
 40
1.0
 40
1.0
 10
109.5272969999
 20
180.3906525241
 30
0.0
 10
109.7714848401
 20
180.3906525241
 30
0.0
 10
110.2601014538
 20
180.3698188281
 30
0.0
 10
110.9877261213
 20
180.2789652816
 30
0.0
 10
111.7067585218
 20
180.1358880588
 30
0.0
 10
112.1794212861
 20
180.0118015347
 30
0.0
 10
112.4140483456
 20
179.9440705367
 30
0.0
  0
SPLINE
  5
397
100
AcDbEntity
  8
0
100
AcDbSpline
 62
7
  6
CONTINUOUS
 70
0
 71
3
 72
11
 73
7
 74
0
 42
0.0000001
 43
0.0000001
 44
0.0000000001
 40
0.0
 40
0.0
 40
0.0
 40
0.0
 40
0.2500114279
 40
0.5000145929
 40
0.7500082953
 40
1.0
 40
1.0
 40
1.0
 40
1.0
 10
112.4140483456
 20
176.5987710751
 30
0.0
 10
112.1794214479
 20
176.6665020264
 30
0.0
 10
111.7067590628
 20
176.7905884777
 30
0.0
 10
110.9877269776
 20
176.9336656787
 30
0.0
 10
110.2601021577
 20
177.0245194
 30
0.0
 10
109.771485152
 20
177.0453530625
 30
0.0
 10
109.5272969996
 20
177.0453530625
 30
0.0
  0
SPLINE
  5
398
100
AcDbEntity
  8
0
100
AcDbSpline
 62
7
  6
CONTINUOUS
 70
0
 71
3
 72
11
 73
7
 74
0
 42
0.0000001
 43
0.0000001
 44
0.0000000001
 40
0.0
 40
0.0
 40
0.0
 40
0.0
 40
0.2499921102
 40
0.4999859297
 40
0.7499889485
 40
1.0
 40
1.0
 40
1.0
 40
1.0
 10
109.5272969996
 20
177.0453530625
 30
0.0
 10
109.2831084506
 20
177.0453530625
 30
0.0
 10
108.7944909259
 20
177.0245194565
 30
0.0
 10
108.0668657659
 20
176.9336654521
 30
0.0
 10
107.3478340794
 20
176.7905882911
 30
0.0
 10
106.8751721986
 20
176.6665019246
 30
0.0
 10
106.6405456537
 20
176.5987710751
 30
0.0
  0
SPLINE
  5
399
100
AcDbEntity
  8
0
100
AcDbSpline
 62
7
  6
CONTINUOUS
 70
0
 71
3
 72
11
 73
7
 74
0
 42
0.0000001
 43
0.0000001
 44
0.0000000001
 40
0.0
 40
0.0
 40
0.0
 40
0.0
 40
0.2616352191
 40
0.5144887546
 40
0.7595898472
 40
1.0
 40
1.0
 40
1.0
 40
1.0
 10
112.4140483456
 20
179.9440705367
 30
0.0
 10
112.5294263997
 20
180.0106840874
 30
0.0
 10
112.761546266
 20
180.1330196332
 30
0.0
 10
113.1214646461
 20
180.2771165611
 30
0.0
 10
113.4873191805
 20
180.3693124306
 30
0.0
 10
113.7350049198
 20
180.3906525241
 30
0.0
 10
113.8574240187
 20
180.3906525241
 30
0.0
  0
SPLINE
  5
39A
100
AcDbEntity
  8
0
100
AcDbSpline
 62
7
  6
CONTINUOUS
 70
0
 71
3
 72
11
 73
7
 74
0
 42
0.0000001
 43
0.0000001
 44
0.0000000001
 40
0.0
 40
0.0
 40
0.0
 40
0.0
 40
0.2404052701
 40
0.4855029998
 40
0.7383572369
 40
1.0
 40
1.0
 40
1.0
 40
1.0
 10
113.8574240187
 20
180.3906525241
 30
0.0
 10
113.9798405617
 20
180.3906525241
 30
0.0
 10
114.2275217006
 20
180.3693097851
 30
0.0
 10
114.593372427
 20
180.277116822
 30
0.0
 10
114.953294342
 20
180.1330224603
 30
0.0
 10
115.1854183761
 20
180.0106859703
 30
0.0
 10
115.3007996915
 20
179.9440705367
 30
0.0
  0
SPLINE
  5
39B
100
AcDbEntity
  8
0
100
AcDbSpline
 62
7
  6
CONTINUOUS
 70
0
 71
3
 72
15
 73
11
 74
0
 42
0.0000001
 43
0.0000001
 44
0.0000000001
 40
0.0
 40
0.0
 40
0.0
 40
0.0
 40
0.1308200694
 40
0.2572467302
 40
0.3797970158
 40
0.500000022
 40
0.6202030249
 40
0.7427533028
 40
0.8691799416
 40
1.0
 40
1.0
 40
1.0
 40
1.0
 10
115.3007996915
 20
176.5987710751
 30
0.0
 10
115.1854196355
 20
176.6653857815
 30
0.0
 10
114.9532921315
 20
176.787721121
 30
0.0
 10
114.5933943689
 20
176.9318173742
 30
0.0
 10
114.2274615689
 20
177.0240067045
 30
0.0
 10
113.8574239557
 20
177.0559096211
 30
0.0
 10
113.4873863551
 20
177.0240066652
 30
0.0
 10
113.1214535915
 20
176.931817334
 30
0.0
 10
112.761555865
 20
176.7877211022
 30
0.0
 10
112.5294283919
 20
176.6653857759
 30
0.0
 10
112.4140483456
 20
176.5987710751
 30
0.0
  0
SPLINE
  5
39C
100
AcDbEntity
  8
0
100
AcDbSpline
 62
7
  6
CONTINUOUS
 70
0
 71
3
 72
11
 73
7
 74
0
 42
0.0000001
 43
0.0000001
 44
0.0000000001
 40
0.0
 40
0.0
 40
0.0
 40
0.0
 40
0.346596882
 40
0.589657753
 40
0.7779301
 40
1.0
 40
1.0
 40
1.0
 40
1.0
 10
99.0568895419
 20
164.7122755578
 30
0.0
 10
99.0561435952
 20
164.7126638351
 30
0.0
 10
99.0549226437
 20
164.7134002696
 30
0.0
 10
99.053536602
 20
164.7147912192
 30
0.0
 10
99.0533331343
 20
164.7165045472
 30
0.0
 10
99.0539956776
 20
164.7173511573
 30
0.0
 10
99.0543768029
 20
164.717732023
 30
0.0
  0
SPLINE
  5
39D
100
AcDbEntity
  8
0
100
AcDbSpline
 62
7
  6
CONTINUOUS
 70
0
 71
3
 72
9
 73
5
 74
0
 42
0.0000001
 43
0.0000001
 44
0.0000000001
 40
0.0
 40
0.0
 40
0.0
 40
0.0
 40
0.3460088381
 40
1.0
 40
1.0
 40
1.0
 40
1.0
 10
98.5348855355
 20
163.9671054197
 30
0.0
 10
98.5337431928
 20
163.9665105804
 30
0.0
 10
98.5306358447
 20
163.9647483973
 30
0.0
 10
98.5272975573
 20
163.9616359082
 30
0.0
 10
98.5272997761
 20
163.9592015807
 30
0.0
  0
SPLINE
  5
39E
100
AcDbEntity
  8
0
100
AcDbSpline
 62
7
  6
CONTINUOUS
 70
0
 71
3
 72
9
 73
5
 74
0
 42
0.0000001
 43
0.0000001
 44
0.0000000001
 40
0.0
 40
0.0
 40
0.0
 40
0.0
 40
0.1800162614
 40
1.0
 40
1.0
 40
1.0
 40
1.0
 10
98.527306856
 20
163.6551056288
 30
0.0
 10
98.5273069597
 20
163.6544282759
 30
0.0
 10
98.5283807788
 20
163.6506662214
 30
0.0
 10
98.5321538845
 20
163.6486278356
 30
0.0
 10
98.5348899357
 20
163.6472017972
 30
0.0
  0
SPLINE
  5
39F
100
AcDbEntity
  8
0
100
AcDbSpline
 62
7
  6
CONTINUOUS
 70
0
 71
3
 72
26
 73
22
 74
0
 42
0.0000001
 43
0.0000001
 44
0.0000000001
 40
0.0
 40
0.0
 40
0.0
 40
0.0
 40
0.0013364536
 40
0.003217234
 40
0.0086503263
 40
0.0163303466
 40
0.026254651
 40
0.038403418
 40
0.0527512732
 40
0.0692691356
 40
0.0879173749
 40
0.1314321495
 40
0.1828955974
 40
0.2418340086
 40
0.3076995265
 40
0.3798810179
 40
0.4577102097
 40
0.5404633066
 40
0.6273716282
 40
0.8103965771
 40
1.0
 40
1.0
 40
1.0
 40
1.0
 10
99.3354811345
 20
164.3841800549
 30
0.0
 10
99.3395604737
 20
164.3863057057
 30
0.0
 10
99.3500173931
 20
164.3901341674
 30
0.0
 10
99.378813715
 20
164.3976852001
 30
0.0
 10
99.4297803563
 20
164.4063226227
 30
0.0
 10
99.5084331893
 20
164.4162490148
 30
0.0
 10
99.6103729006
 20
164.4262285749
 30
0.0
 10
99.7353220627
 20
164.4363253375
 30
0.0
 10
99.8830305967
 20
164.4464570204
 30
0.0
 10
100.0531501648
 20
164.4566222744
 30
0.0
 10
100.3235840849
 20
164.4709500044
 30
0.0
 10
100.714287517
 20
164.4884678685
 30
0.0
 10
101.2436689866
 20
164.5086810798
 30
0.0
 10
101.850025959
 20
164.5289560194
 30
0.0
 10
102.5277255432
 20
164.54928202
 30
0.0
 10
103.270470777
 20
164.5696393985
 30
0.0
 10
104.0713607319
 20
164.5900189371
 30
0.0
 10
104.9229537986
 20
164.610415336
 30
0.0
 10
106.1365481225
 20
164.6381037752
 30
0.0
 10
107.7178589771
 20
164.6721887544
 30
0.0
 10
109.0001288188
 20
164.6989097049
 30
0.0
 10
109.6525821776
 20
164.7125221423
 30
0.0
  0
SPLINE
  5
3A0
100
AcDbEntity
  8
0
100
AcDbSpline
 62
7
  6
CONTINUOUS
 70
0
 71
3
 72
30
 73
26
 74
0
 42
0.0000001
 43
0.0000001
 44
0.0000000001
 40
0.0
 40
0.0
 40
0.0
 40
0.0
 40
0.0005833875
 40
0.0010428768
 40
0.0016386548
 40
0.003263592
 40
0.0054847971
 40
0.0117428706
 40
0.0204269739
 40
0.0315218957
 40
0.0450046582
 40
0.0608384749
 40
0.0789818238
 40
0.0993878538
 40
0.1219987452
 40
0.1735885791
 40
0.2331883664
 40
0.3001478606
 40
0.3737359025
 40
0.453146503
 40
0.5375104649
 40
0.6259051077
 40
0.7173629777
 40
0.8108823424
 40
1.0
 40
1.0
 40
1.0
 40
1.0
 10
99.3273017757
 20
163.2386505822
 30
0.0
 10
99.3273039028
 20
163.2408433081
 30
0.0
 10
99.3303657467
 20
163.2442835801
 30
0.0
 10
99.3355391036
 20
163.2473198846
 30
0.0
 10
99.3448292345
 20
163.251455589
 30
0.0
 10
99.360841899
 20
163.2561626549
 30
0.0
 10
99.3979602328
 20
163.264358109
 30
0.0
 10
99.4618280453
 20
163.2737407932
 30
0.0
 10
99.5590948102
 20
163.2845483812
 30
0.0
 10
99.6836522499
 20
163.2954034614
 30
0.0
 10
99.8351487121
 20
163.3063721075
 30
0.0
 10
100.0131953321
 20
163.3173770788
 30
0.0
 10
100.2173035517
 20
163.3284169669
 30
0.0
 10
100.4469161871
 20
163.3394755459
 30
0.0
 10
100.8021711585
 20
163.3549298363
 30
0.0
 10
101.3047209381
 20
163.3739031699
 30
0.0
 10
101.973954688
 20
163.3958877653
 30
0.0
 10
102.7259090085
 20
163.4179258671
 30
0.0
 10
103.5523518334
 20
163.4400061127
 30
0.0
 10
104.4442320257
 20
163.4621134718
 30
0.0
 10
105.3917799213
 20
163.4842403822
 30
0.0
 10
106.384620201
 20
163.506380521
 30
0.0
 10
107.4118800857
 20
163.5285296006
 30
0.0
 10
108.8176446992
 20
163.5581789177
 30
0.0
 10
109.8797388166
 20
163.5802139534
 30
0.0
 10
110.5904022202
 20
163.5951209243
 30
0.0
  0
SPLINE
  5
3A1
100
AcDbEntity
  8
0
100
AcDbSpline
 62
7
  6
CONTINUOUS
 70
0
 71
3
 72
11
 73
7
 74
0
 42
0.0000001
 43
0.0000001
 44
0.0000000001
 40
0.0
 40
0.0
 40
0.0
 40
0.0
 40
0.2065269958
 40
0.4519875639
 40
0.7218171392
 40
1.0
 40
1.0
 40
1.0
 40
1.0
 10
101.8208477042
 20
163.1906527595
 30
0.0
 10
102.4357749444
 20
163.2102351964
 30
0.0
 10
103.7817469865
 20
163.2468967535
 30
0.0
 10
105.9314391613
 20
163.2970053319
 30
0.0
 10
108.2946408709
 20
163.3473684141
 30
0.0
 10
109.9268065291
 20
163.3811723907
 30
0.0
 10
110.75532367
 20
163.3985834774
 30
0.0
  0
SPLINE
  5
3A2
100
AcDbEntity
  8
0
100
AcDbSpline
 62
7
  6
CONTINUOUS
 70
0
 71
3
 72
11
 73
7
 74
0
 42
0.0000001
 43
0.0000001
 44
0.0000000001
 40
0.0
 40
0.0
 40
0.0
 40
0.0
 40
0.2592111028
 40
0.511222125
 40
0.7573110754
 40
1.0
 40
1.0
 40
1.0
 40
1.0
 10
99.5536188938
 20
168.1133022549
 30
0.0
 10
99.7291556814
 20
168.2016538338
 30
0.0
 10
100.082428616
 20
168.3624787382
 30
0.0
 10
100.627057786
 20
168.5477669187
 30
0.0
 10
101.1780179594
 20
168.6640870493
 30
0.0
 10
101.5490768492
 20
168.6906525264
 30
0.0
 10
101.7330683657
 20
168.6906525241
 30
0.0
  0
SPLINE
  5
3A3
100
AcDbEntity
  8
0
100
AcDbSpline
 62
7
  6
CONTINUOUS
 70
0
 71
3
 72
11
 73
7
 74
0
 42
0.0000001
 43
0.0000001
 44
0.0000000001
 40
0.0
 40
0.0
 40
0.0
 40
0.0
 40
0.2426863618
 40
0.4887729527
 40
0.7407841591
 40
1.0
 40
1.0
 40
1.0
 40
1.0
 10
101.7330683657
 20
168.6906525241
 30
0.0
 10
101.9170578764
 20
168.6906525218
 30
0.0
 10
102.2881127733
 20
168.6640847346
 30
0.0
 10
102.8390690107
 20
168.5477656917
 30
0.0
 10
103.3837012008
 20
168.3624809856
 30
0.0
 10
103.736977901
 20
168.2016554187
 30
0.0
 10
103.9125178373
 20
168.1133022549
 30
0.0
  0
SPLINE
  5
3A4
100
AcDbEntity
  8
0
100
AcDbSpline
 62
7
  6
CONTINUOUS
 70
0
 71
3
 72
31
 73
27
 74
0
 42
0.0000001
 43
0.0000001
 44
0.0000000001
 40
0.0
 40
0.0
 40
0.0
 40
0.0
 40
0.191347568
 40
0.2854842304
 40
0.3772802233
 40
0.4657770304
 40
0.5500501353
 40
0.6292187978
 40
0.7024568923
 40
0.769000385
 40
0.8281545391
 40
0.854763969
 40
0.8793020308
 40
0.9017044352
 40
0.921911809
 40
0.9398742361
 40
0.9555436768
 40
0.9688811118
 40
0.9798552057
 40
0.9884388546
 40
0.9946207269
 40
0.9968130475
 40
0.9984129057
 40
0.9989968102
 40
0.9994443236
 40
1.0
 40
1.0
 40
1.0
 40
1.0
 10
110.2478267808
 20
164.0033057441
 30
0.0
 10
109.499646493
 20
163.9888013158
 30
0.0
 10
108.3833834486
 20
163.9673076651
 30
0.0
 10
106.908203639
 20
163.9382907335
 30
0.0
 10
105.8351847254
 20
163.9166516083
 30
0.0
 10
104.8007480266
 20
163.8950218273
 30
0.0
 10
103.8157051418
 20
163.8734056111
 30
0.0
 10
102.890350655
 20
163.8518079482
 30
0.0
 10
102.0343524077
 20
163.8302385327
 30
0.0
 10
101.2566529099
 20
163.8087052925
 30
0.0
 10
100.6612963277
 20
163.7902205876
 30
0.0
 10
100.2301891186
 20
163.7752384713
 30
0.0
 10
99.9427540301
 20
163.7644104242
 30
0.0
 10
99.6803748828
 20
163.7535938931
 30
0.0
 10
99.4437349376
 20
163.7427905917
 30
0.0
 10
99.2334558255
 20
163.7320077806
 30
0.0
 10
99.0500806621
 20
163.7212586831
 30
0.0
 10
98.8940889758
 20
163.7105414801
 30
0.0
 10
98.7658703289
 20
163.699943044
 30
0.0
 10
98.6657589496
 20
163.6893834924
 30
0.0
 10
98.6000413877
 20
163.6802217795
 30
0.0
 10
98.5618253444
 20
163.6722142776
 30
0.0
 10
98.5453548744
 20
163.6676267875
 30
0.0
 10
98.5357787171
 20
163.6635778309
 30
0.0
 10
98.5305174379
 20
163.6606488612
 30
0.0
 10
98.5273065233
 20
163.6572787646
 30
0.0
 10
98.527306856
 20
163.6551056288
 30
0.0
  0
SPLINE
  5
3A5
100
AcDbEntity
  8
0
100
AcDbSpline
 62
7
  6
CONTINUOUS
 70
0
 71
3
 72
23
 73
19
 74
0
 42
0.0000001
 43
0.0000001
 44
0.0000000001
 40
0.0
 40
0.0
 40
0.0
 40
0.0
 40
0.2091522212
 40
0.3997724941
 40
0.5685779275
 40
0.6438762793
 40
0.7126661283
 40
0.7746491502
 40
0.8295649116
 40
0.8771736908
 40
0.917278834
 40
0.9497079753
 40
0.9630043366
 40
0.974338575
 40
0.9837004016
 40
0.9910875126
 40
0.9965090501
 40
1.0
 40
1.0
 40
1.0
 40
1.0
 10
104.417452835
 20
164.1906525241
 30
0.0
 10
104.0069421995
 20
164.1816850798
 30
0.0
 10
103.2223060475
 20
164.1639898683
 30
0.0
 10
102.1064106415
 20
164.1364317022
 30
0.0
 10
101.2532847265
 20
164.1127445573
 30
0.0
 10
100.6393120743
 20
164.0934783231
 30
0.0
 10
100.2349895251
 20
164.079600749
 30
0.0
 10
99.8707070751
 20
164.0657444121
 30
0.0
 10
99.5480397982
 20
164.0519189514
 30
0.0
 10
99.2683643649
 20
164.0381426895
 30
0.0
 10
99.0328957131
 20
164.0244283959
 30
0.0
 10
98.8648063143
 20
164.0124639125
 30
0.0
 10
98.7532221739
 20
164.002583951
 30
0.0
 10
98.6868351319
 20
163.9957056506
 30
0.0
 10
98.6321372867
 20
163.9888567728
 30
0.0
 10
98.5890892152
 20
163.9821267049
 30
0.0
 10
98.5578507909
 20
163.9754456787
 30
0.0
 10
98.5409642407
 20
163.9702707157
 30
0.0
 10
98.5348855355
 20
163.9671054197
 30
0.0
  0
SPLINE
  5
3A6
100
AcDbEntity
  8
0
100
AcDbSpline
 62
7
  6
CONTINUOUS
 70
0
 71
3
 72
9
 73
5
 74
0
 42
0.0000001
 43
0.0000001
 44
0.0000000001
 40
0.0
 40
0.0
 40
0.0
 40
0.0
 40
0.48787631
 40
1.0
 40
1.0
 40
1.0
 40
1.0
 10
104.417452835
 20
164.1906525241
 30
0.0
 10
105.3086056164
 20
164.2304149172
 30
0.0
 10
107.1354013257
 20
164.3073974724
 30
0.0
 10
108.9623025414
 20
164.3817156815
 30
0.0
 10
109.8978789134
 20
164.4203480323
 30
0.0
  0
SPLINE
  5
3A7
100
AcDbEntity
  8
0
100
AcDbSpline
 62
7
  6
CONTINUOUS
 70
0
 71
3
 72
30
 73
26
 74
0
 42
0.0000001
 43
0.0000001
 44
0.0000000001
 40
0.0
 40
0.0
 40
0.0
 40
0.0
 40
0.0006999202
 40
0.0019512087
 40
0.0037762577
 40
0.0061808109
 40
0.009166726
 40
0.0127344826
 40
0.0216103518
 40
0.0327900332
 40
0.0462514941
 40
0.061967217
 40
0.0798992439
 40
0.1000080749
 40
0.1222492574
 40
0.1729131569
 40
0.2314244759
 40
0.2972361511
 40
0.3697281801
 40
0.4482164981
 40
0.5319541816
 40
0.6201445668
 40
0.7119421037
 40
0.8064570069
 40
1.0
 40
1.0
 40
1.0
 40
1.0
 10
99.0543768029
 20
164.717732023
 30
0.0
 10
99.0560955178
 20
164.7194495671
 30
0.0
 10
99.0627253215
 20
164.7219215684
 30
0.0
 10
99.075258078
 20
164.7251264796
 30
0.0
 10
99.0941161073
 20
164.7283310661
 30
0.0
 10
99.1189098178
 20
164.7316440595
 30
0.0
 10
99.1498470116
 20
164.7349686858
 30
0.0
 10
99.2031888279
 20
164.7397922453
 30
0.0
 10
99.285002159
 20
164.7456041051
 30
0.0
 10
99.4011668533
 20
164.7522615317
 30
0.0
 10
99.5411098353
 20
164.7589545102
 30
0.0
 10
99.7045135897
 20
164.7656801914
 30
0.0
 10
99.8910104896
 20
164.7724268926
 30
0.0
 10
100.1001731424
 20
164.7791902922
 30
0.0
 10
100.4229369325
 20
164.7886390177
 30
0.0
 10
100.879007764
 20
164.8002637381
 30
0.0
 10
101.4863329395
 20
164.8137503604
 30
0.0
 10
102.1694508822
 20
164.8272863781
 30
0.0
 10
102.9219311551
 20
164.8408653131
 30
0.0
 10
103.7366510178
 20
164.8544777522
 30
0.0
 10
104.605874963
 20
164.8681199213
 30
0.0
 10
105.521307379
 20
164.8817885072
 30
0.0
 10
106.4741569949
 20
164.8954808805
 30
0.0
 10
107.7927121122
 20
164.9139121066
 30
0.0
 10
108.7926244018
 20
164.9275260387
 30
0.0
 10
109.464454379
 20
164.9366946019
 30
0.0
  0
SPLINE
  5
3A8
100
AcDbEntity
  8
0
100
AcDbSpline
 62
7
  6
CONTINUOUS
 70
0
 71
3
 72
28
 73
24
 74
0
 42
0.0000001
 43
0.0000001
 44
0.0000000001
 40
0.0
 40
0.0
 40
0.0
 40
0.0
 40
0.0005939419
 40
0.0016304546
 40
0.0053748507
 40
0.0114570865
 40
0.0198917942
 40
0.0306696342
 40
0.0437723864
 40
0.0591687577
 40
0.0768239595
 40
0.0966988962
 40
0.1187440577
 40
0.1691347694
 40
0.2275158266
 40
0.2933316895
 40
0.3659521534
 40
0.4446813923
 40
0.5287670826
 40
0.6174038584
 40
0.7097421542
 40
0.8048981852
 40
1.0
 40
1.0
 40
1.0
 40
1.0
 10
99.3273075703
 20
164.5756569636
 30
0.0
 10
99.3273095712
 20
164.5776709735
 30
0.0
 10
99.3313341138
 20
164.5825350508
 30
0.0
 10
99.3477329365
 20
164.5899236135
 30
0.0
 10
99.3839666156
 20
164.5988254606
 30
0.0
 10
99.4449314754
 20
164.6084938318
 30
0.0
 10
99.5302190105
 20
164.6185814324
 30
0.0
 10
99.639294775
 20
164.6287452346
 30
0.0
 10
99.7721014081
 20
164.6390022073
 30
0.0
 10
99.9282659621
 20
164.6492977007
 30
0.0
 10
100.1074413021
 20
164.659624282
 30
0.0
 10
100.3091920666
 20
164.669968679
 30
0.0
 10
100.6218776041
 20
164.684434099
 30
0.0
 10
101.0651156287
 20
164.7021945708
 30
0.0
 10
101.6567728709
 20
164.7227639135
 30
0.0
 10
102.3238480033
 20
164.7433828656
 30
0.0
 10
103.0599503696
 20
164.7640421399
 30
0.0
 10
103.8580258958
 20
164.7847274412
 30
0.0
 10
104.7104279252
 20
164.8054312915
 30
0.0
 10
105.6089897049
 20
164.8261482844
 30
0.0
 10
106.5450994283
 20
164.8468751573
 30
0.0
 10
107.8421537049
 20
164.8747506442
 30
0.0
 10
108.8261813495
 20
164.895281712
 30
0.0
 10
109.4876124902
 20
164.9090805291
 30
0.0
  0
SPLINE
  5
3A9
100
AcDbEntity
  8
0
100
AcDbSpline
 62
7
  6
CONTINUOUS
 70
0
 71
3
 72
11
 73
7
 74
0
 42
0.0000001
 43
0.0000001
 44
0.0000000001
 40
0.0
 40
0.0
 40
0.0
 40
0.0
 40
0.2505476804
 40
0.500000001
 40
0.7494523136
 40
1.0
 40
1.0
 40
1.0
 40
1.0
 10
140.5937484892
 20
78.6108981491
 30
0.0
 10
140.7566908063
 20
79.7046077227
 30
0.0
 10
141.0168363078
 20
81.8979329267
 30
0.0
 10
141.1552497166
 20
85.2063511049
 30
0.0
 10
141.0168362703
 20
88.5147693086
 30
0.0
 10
140.7566907668
 20
90.7080945008
 30
0.0
 10
140.5937484892
 20
91.8018041073
 30
0.0
  0
SPLINE
  5
3AA
100
AcDbEntity
  8
0
100
AcDbSpline
 62
7
  6
CONTINUOUS
 70
0
 71
3
 72
11
 73
7
 74
0
 42
0.0000001
 43
0.0000001
 44
0.0000000001
 40
0.0
 40
0.0
 40
0.0
 40
0.0
 40
0.2782576537
 40
0.5424178218
 40
0.78284753
 40
1.0
 40
1.0
 40
1.0
 40
1.0
 10
140.5802116081
 20
78.6111161161
 30
0.0
 10
140.4867770071
 20
78.6141287589
 30
0.0
 10
140.3044611927
 20
78.6439218493
 30
0.0
 10
140.0624198047
 20
78.7552793918
 30
0.0
 10
139.8792391246
 20
78.9207051396
 30
0.0
 10
139.80886881
 20
79.063200203
 30
0.0
 10
139.7923654057
 20
79.1342633493
 30
0.0
  0
SPLINE
  5
3AB
100
AcDbEntity
  8
0
100
AcDbSpline
 62
7
  6
CONTINUOUS
 70
0
 71
3
 72
11
 73
7
 74
0
 42
0.0000001
 43
0.0000001
 44
0.0000000001
 40
0.0
 40
0.0
 40
0.0
 40
0.0
 40
0.2499482707
 40
0.4991416827
 40
0.7488179045
 40
1.0
 40
1.0
 40
1.0
 40
1.0
 10
139.7923654057
 20
79.1342633493
 30
0.0
 10
139.9593122561
 20
80.2350989891
 30
0.0
 10
140.2264991397
 20
82.4445337792
 30
0.0
 10
140.3687590141
 20
85.7810238685
 30
0.0
 10
140.2260270982
 20
89.1229686133
 30
0.0
 10
139.959161679
 20
91.3401106774
 30
0.0
 10
139.7923654057
 20
92.4465277701
 30
0.0
  0
SPLINE
  5
3AC
100
AcDbEntity
  8
0
100
AcDbSpline
 62
7
  6
CONTINUOUS
 70
0
 71
3
 72
11
 73
7
 74
0
 42
0.0000001
 43
0.0000001
 44
0.0000000001
 40
0.0
 40
0.0
 40
0.0
 40
0.0
 40
0.2552063605
 40
0.5070759304
 40
0.7549567146
 40
1.0
 40
1.0
 40
1.0
 40
1.0
 10
140.5802116081
 20
91.8017839634
 30
0.0
 10
140.4866467104
 20
91.8015051388
 30
0.0
 10
140.299031472
 20
91.8334889318
 30
0.0
 10
140.053621774
 20
91.9728435816
 30
0.0
 10
139.8726286426
 20
92.184497339
 30
0.0
 10
139.8083111262
 20
92.3581149461
 30
0.0
 10
139.7923654057
 20
92.4465277701
 30
0.0
  0
SPLINE
  5
3AD
100
AcDbEntity
  8
0
100
AcDbSpline
 62
7
  6
CONTINUOUS
 70
0
 71
3
 72
9
 73
5
 74
0
 42
0.0000001
 43
0.0000001
 44
0.0000000001
 40
0.0
 40
0.0
 40
0.0
 40
0.0
 40
0.5000034333
 40
1.0
 40
1.0
 40
1.0
 40
1.0
 10
140.5937484892
 20
48.1997465659
 30
0.0
 10
140.7572170803
 20
50.3942313608
 30
0.0
 10
141.0173408356
 20
54.7885793671
 30
0.0
 10
141.1091927835
 20
59.1901179322
 30
0.0
 10
141.1091925502
 20
61.3906525241
 30
0.0
  0
SPLINE
  5
3AE
100
AcDbEntity
  8
0
100
AcDbSpline
 62
7
  6
CONTINUOUS
 70
0
 71
3
 72
12
 73
8
 74
0
 42
0.0000001
 43
0.0000001
 44
0.0000000001
 40
0.0
 40
0.0
 40
0.0
 40
0.0
 40
0.3416948957
 40
0.6405466429
 40
0.8649118574
 40
0.9435910967
 40
1.0
 40
1.0
 40
1.0
 40
1.0
 10
140.5802116081
 20
48.1999846777
 30
0.0
 10
140.4880528385
 20
48.2032308209
 30
0.0
 10
140.3148485914
 20
48.2027986637
 30
0.0
 10
140.0824184255
 20
48.1819858687
 30
0.0
 10
139.921866575
 20
48.1495806808
 30
0.0
 10
139.8323911041
 20
48.1119550244
 30
0.0
 10
139.8019283502
 20
48.0902331664
 30
0.0
 10
139.7923654057
 20
48.0783880979
 30
0.0
  0
SPLINE
  5
3AF
100
AcDbEntity
  8
0
100
AcDbSpline
 62
7
  6
CONTINUOUS
 70
0
 71
3
 72
9
 73
5
 74
0
 42
0.0000001
 43
0.0000001
 44
0.0000000001
 40
0.0
 40
0.0
 40
0.0
 40
0.0
 40
0.5000034974
 40
1.0
 40
1.0
 40
1.0
 40
1.0
 10
139.7923654057
 20
48.0783880979
 30
0.0
 10
139.9597892177
 20
50.2929486658
 30
0.0
 10
140.226802599
 20
54.7276162671
 30
0.0
 10
140.3213464677
 20
59.1698033075
 30
0.0
 10
140.3213463478
 20
61.3906525241
 30
0.0
  0
SPLINE
  5
3B0
100
AcDbEntity
  8
0
100
AcDbSpline
 62
7
  6
CONTINUOUS
 70
0
 71
3
 72
9
 73
5
 74
0
 42
0.0000001
 43
0.0000001
 44
0.0000000001
 40
0.0
 40
0.0
 40
0.0
 40
0.0
 40
0.4999965666
 40
1.0
 40
1.0
 40
1.0
 40
1.0
 10
141.1091925502
 20
61.3906525241
 30
0.0
 10
141.1091927947
 20
63.591187116
 30
0.0
 10
141.0173408263
 20
67.992725681
 30
0.0
 10
140.7572170793
 20
72.3870736873
 30
0.0
 10
140.5937484892
 20
74.5815584824
 30
0.0
  0
SPLINE
  5
3B1
100
AcDbEntity
  8
0
100
AcDbSpline
 62
7
  6
CONTINUOUS
 70
0
 71
3
 72
9
 73
5
 74
0
 42
0.0000001
 43
0.0000001
 44
0.0000000001
 40
0.0
 40
0.0
 40
0.0
 40
0.0
 40
0.4999965026
 40
1.0
 40
1.0
 40
1.0
 40
1.0
 10
140.3213463478
 20
61.3906525241
 30
0.0
 10
140.3213464734
 20
63.6115017408
 30
0.0
 10
140.2268025961
 20
68.0536887812
 30
0.0
 10
139.9597892174
 20
72.4883563826
 30
0.0
 10
139.7923654057
 20
74.7029169506
 30
0.0
  0
SPLINE
  5
3B2
100
AcDbEntity
  8
0
100
AcDbSpline
 62
7
  6
CONTINUOUS
 70
0
 71
3
 72
12
 73
8
 74
0
 42
0.0000001
 43
0.0000001
 44
0.0000000001
 40
0.0
 40
0.0
 40
0.0
 40
0.0
 40
0.3416948951
 40
0.6405466415
 40
0.8649118547
 40
0.9435910953
 40
1.0
 40
1.0
 40
1.0
 40
1.0
 10
140.5802116081
 20
74.5813203706
 30
0.0
 10
140.4880528385
 20
74.5780742272
 30
0.0
 10
140.3148485913
 20
74.5785063836
 30
0.0
 10
140.0824184264
 20
74.5993191799
 30
0.0
 10
139.9218665743
 20
74.6317243623
 30
0.0
 10
139.832391104
 20
74.6693500222
 30
0.0
 10
139.8019283504
 20
74.6910718818
 30
0.0
 10
139.7923654057
 20
74.7029169506
 30
0.0
  0
SPLINE
  5
3B3
100
AcDbEntity
  8
0
100
AcDbSpline
 62
7
  6
CONTINUOUS
 70
0
 71
3
 72
11
 73
7
 74
0
 42
0.0000001
 43
0.0000001
 44
0.0000000001
 40
0.0
 40
0.0
 40
0.0
 40
0.0
 40
0.2505476864
 40
0.499999999
 40
0.7494523196
 40
1.0
 40
1.0
 40
1.0
 40
1.0
 10
140.5937484892
 20
30.9795009409
 30
0.0
 10
140.756690768
 20
32.0732105473
 30
0.0
 10
141.0168362666
 20
34.26653574
 30
0.0
 10
141.1552497167
 20
37.5749539431
 30
0.0
 10
141.0168363111
 20
40.8833721218
 30
0.0
 10
140.7566908052
 20
43.0766973252
 30
0.0
 10
140.5937484892
 20
44.1704068992
 30
0.0
  0
SPLINE
  5
3B4
100
AcDbEntity
  8
0
100
AcDbSpline
 62
7
  6
CONTINUOUS
 70
0
 71
3
 72
11
 73
7
 74
0
 42
0.0000001
 43
0.0000001
 44
0.0000000001
 40
0.0
 40
0.0
 40
0.0
 40
0.0
 40
0.2552063606
 40
0.5070759307
 40
0.7549567156
 40
1.0
 40
1.0
 40
1.0
 40
1.0
 10
140.5802116081
 20
30.9795210849
 30
0.0
 10
140.4866467103
 20
30.9797999095
 30
0.0
 10
140.2990314719
 20
30.9478161164
 30
0.0
 10
140.0536217736
 20
30.8084614663
 30
0.0
 10
139.8726286426
 20
30.5968077088
 30
0.0
 10
139.8083111261
 20
30.4231901019
 30
0.0
 10
139.7923654057
 20
30.3347772782
 30
0.0
  0
SPLINE
  5
3B5
100
AcDbEntity
  8
0
100
AcDbSpline
 62
7
  6
CONTINUOUS
 70
0
 71
3
 72
11
 73
7
 74
0
 42
0.0000001
 43
0.0000001
 44
0.0000000001
 40
0.0
 40
0.0
 40
0.0
 40
0.0
 40
0.2511820955
 40
0.5008583173
 40
0.7500517293
 40
1.0
 40
1.0
 40
1.0
 40
1.0
 10
139.7923654057
 20
30.3347772782
 30
0.0
 10
139.9591616794
 20
31.4411943708
 30
0.0
 10
140.226027098
 20
33.6583364349
 30
0.0
 10
140.3687590142
 20
37.0002811798
 30
0.0
 10
140.2264991397
 20
40.3367712691
 30
0.0
 10
139.9593122557
 20
42.5462060593
 30
0.0
 10
139.7923654057
 20
43.6470416991
 30
0.0
  0
SPLINE
  5
3B6
100
AcDbEntity
  8
0
100
AcDbSpline
 62
7
  6
CONTINUOUS
 70
0
 71
3
 72
11
 73
7
 74
0
 42
0.0000001
 43
0.0000001
 44
0.0000000001
 40
0.0
 40
0.0
 40
0.0
 40
0.0
 40
0.278257654
 40
0.5424178226
 40
0.7828475319
 40
1.0
 40
1.0
 40
1.0
 40
1.0
 10
140.5802116081
 20
44.1701889321
 30
0.0
 10
140.4867770071
 20
44.1671762893
 30
0.0
 10
140.3044611928
 20
44.1373831986
 30
0.0
 10
140.0624198042
 20
44.0260256557
 30
0.0
 10
139.8792391265
 20
43.8605999065
 30
0.0
 10
139.8088688098
 20
43.7181048447
 30
0.0
 10
139.7923654057
 20
43.6470416991
 30
0.0
  0
SPLINE
  5
3B7
100
AcDbEntity
  8
0
100
AcDbSpline
 62
7
  6
CONTINUOUS
 70
0
 71
3
 72
10
 73
6
 74
0
 42
0.0000001
 43
0.0000001
 44
0.0000000001
 40
0.0
 40
0.0
 40
0.0
 40
0.0
 40
0.2500457564
 40
0.5000915293
 40
1.0
 40
1.0
 40
1.0
 40
1.0
 10
156.5272969996
 20
61.3906525251
 30
0.0
 10
156.5272969996
 20
62.5019770175
 30
0.0
 10
156.4490217907
 20
64.7254687745
 30
0.0
 10
155.9898399842
 20
69.1487200486
 30
0.0
 10
155.3335066523
 20
72.4259081226
 30
0.0
 10
154.7952461921
 20
74.5815584824
 30
0.0
  0
SPLINE
  5
3B8
100
AcDbEntity
  8
0
100
AcDbSpline
 62
7
  6
CONTINUOUS
 70
0
 71
3
 72
11
 73
7
 74
0
 42
0.0000001
 43
0.0000001
 44
0.0000000001
 40
0.0
 40
0.0
 40
0.0
 40
0.0
 40
0.2590858939
 40
0.5110578876
 40
0.7571987173
 40
1.0
 40
1.0
 40
1.0
 40
1.0
 10
154.7952461921
 20
30.9795009409
 30
0.0
 10
155.0606374618
 20
31.5109265502
 30
0.0
 10
155.5434982411
 20
32.580434212
 30
0.0
 10
156.0991928016
 20
34.2287261545
 30
0.0
 10
156.4477413483
 20
35.8958006347
 30
0.0
 10
156.5272970082
 20
37.0182817849
 30
0.0
 10
156.5272969996
 20
37.5749541033
 30
0.0
  0
SPLINE
  5
3B9
100
AcDbEntity
  8
0
100
AcDbSpline
 62
7
  6
CONTINUOUS
 70
0
 71
3
 72
11
 73
7
 74
0
 42
0.0000001
 43
0.0000001
 44
0.0000000001
 40
0.0
 40
0.0
 40
0.0
 40
0.0
 40
0.242801294
 40
0.488942135
 40
0.740914112
 40
1.0
 40
1.0
 40
1.0
 40
1.0
 10
156.5272969996
 20
37.5749541033
 30
0.0
 10
156.5272969911
 20
38.131626418
 30
0.0
 10
156.4477412944
 20
39.2541075573
 30
0.0
 10
156.0991927259
 20
40.9211819541
 30
0.0
 10
155.5434981708
 20
42.569473772
 30
0.0
 10
155.0606374416
 20
43.6389813304
 30
0.0
 10
154.7952461921
 20
44.1704068992
 30
0.0
  0
SPLINE
  5
3BA
100
AcDbEntity
  8
0
100
AcDbSpline
 62
7
  6
CONTINUOUS
 70
0
 71
3
 72
11
 73
7
 74
0
 42
0.0000001
 43
0.0000001
 44
0.0000000001
 40
0.0
 40
0.0
 40
0.0
 40
0.0
 40
0.2590858938
 40
0.5110578876
 40
0.7571987174
 40
1.0
 40
1.0
 40
1.0
 40
1.0
 10
154.7952461921
 20
78.6108981491
 30
0.0
 10
155.0606374546
 20
79.142323744
 30
0.0
 10
155.5434982222
 20
80.2118313767
 30
0.0
 10
156.099192775
 20
81.8601232729
 30
0.0
 10
156.4477413268
 20
83.5271977059
 30
0.0
 10
156.5272969997
 20
84.6496788251
 30
0.0
 10
156.5272969996
 20
85.2063511287
 30
0.0
  0
SPLINE
  5
3BB
100
AcDbEntity
  8
0
100
AcDbSpline
 62
7
  6
CONTINUOUS
 70
0
 71
3
 72
11
 73
7
 74
0
 42
0.0000001
 43
0.0000001
 44
0.0000000001
 40
0.0
 40
0.0
 40
0.0
 40
0.0
 40
0.242801294
 40
0.4889421349
 40
0.7409141119
 40
1.0
 40
1.0
 40
1.0
 40
1.0
 10
156.5272969996
 20
85.2063511287
 30
0.0
 10
156.5272969996
 20
85.7630234583
 30
0.0
 10
156.4477413159
 20
86.8855046285
 30
0.0
 10
156.0991927525
 20
88.5525790726
 30
0.0
 10
155.5434981898
 20
90.2008709367
 30
0.0
 10
155.0606374487
 20
91.2703785242
 30
0.0
 10
154.7952461921
 20
91.8018041073
 30
0.0
  0
SPLINE
  5
3BC
100
AcDbEntity
  8
0
100
AcDbSpline
 62
7
  6
CONTINUOUS
 70
0
 71
3
 72
10
 73
6
 74
0
 42
0.0000001
 43
0.0000001
 44
0.0000000001
 40
0.0
 40
0.0
 40
0.0
 40
0.0
 40
0.4999084933
 40
0.7499542553
 40
1.0
 40
1.0
 40
1.0
 40
1.0
 10
154.7952461921
 20
48.1997465659
 30
0.0
 10
155.3335066767
 20
50.3553970234
 30
0.0
 10
155.9898400095
 20
53.6325851515
 30
0.0
 10
156.4490218009
 20
58.0558364275
 30
0.0
 10
156.5272969997
 20
60.2793280845
 30
0.0
 10
156.5272969996
 20
61.3906525251
 30
0.0
  0
SPLINE
  5
3BD
100
AcDbEntity
  8
GEOM
100
AcDbSpline
 62
7
  6
CONTINUOUS
 70
0
 71
3
 72
9
 73
5
 74
0
 42
0.0000001
 43
0.0000001
 44
0.0000000001
 40
0.0
 40
0.0
 40
0.0
 40
0.0
 40
0.499610219
 40
1.0
 40
1.0
 40
1.0
 40
1.0
 10
62.7272969996
 20
38.7273268851
 30
0.0
 10
62.6904094515
 20
38.3448193847
 30
0.0
 10
62.6516922356
 20
37.5752566235
 30
0.0
 10
62.6903518944
 20
36.8056852974
 30
0.0
 10
62.7272969996
 20
36.422580955
 30
0.0
  0
SPLINE
  5
3BE
100
AcDbEntity
  8
GEOM
100
AcDbSpline
 62
7
  6
CONTINUOUS
 70
0
 71
3
 72
9
 73
5
 74
0
 42
0.0000001
 43
0.0000001
 44
0.0000000001
 40
0.0
 40
0.0
 40
0.0
 40
0.0
 40
0.4941324669
 40
1.0
 40
1.0
 40
1.0
 40
1.0
 10
78.228258894
 20
31.7029461643
 30
0.0
 10
78.099340285
 20
31.4845496456
 30
0.0
 10
77.7132665412
 20
31.1061476392
 30
0.0
 10
77.1888379854
 20
30.9763755521
 30
0.0
 10
76.9292207883
 20
30.9790480202
 30
0.0
  0
SPLINE
  5
3BF
100
AcDbEntity
  8
GEOM
100
AcDbSpline
 62
7
  6
CONTINUOUS
 70
0
 71
3
 72
11
 73
7
 74
0
 42
0.0000001
 43
0.0000001
 44
0.0000000001
 40
0.0
 40
0.0
 40
0.0
 40
0.0
 40
0.1897010059
 40
0.4205448734
 40
0.6917520301
 40
1.0
 40
1.0
 40
1.0
 40
1.0
 10
79.5272971353
 20
35.0095708043
 30
0.0
 10
79.5272961696
 20
35.1821189901
 30
0.0
 10
79.4654319458
 20
35.563624275
 30
0.0
 10
79.2746664058
 20
36.1635405716
 30
0.0
 10
78.9963890555
 20
36.8467111312
 30
0.0
 10
78.777388884
 20
37.3261196489
 30
0.0
 10
78.658790792
 20
37.5801772198
 30
0.0
  0
SPLINE
  5
3C0
100
AcDbEntity
  8
GEOM
100
AcDbSpline
 62
7
  6
CONTINUOUS
 70
0
 71
3
 72
9
 73
5
 74
0
 42
0.0000001
 43
0.0000001
 44
0.0000000001
 40
0.0
 40
0.0
 40
0.0
 40
0.0
 40
0.4758558817
 40
1.0
 40
1.0
 40
1.0
 40
1.0
 10
78.228258894
 20
44.8803830338
 30
0.0
 10
78.0893331125
 20
44.6854481476
 30
0.0
 10
77.6844668971
 20
44.3553132378
 30
0.0
 10
77.1912562471
 20
44.2045839684
 30
0.0
 10
76.9292207883
 20
44.1753151752
 30
0.0
  0
SPLINE
  5
3C1
100
AcDbEntity
  8
GEOM
100
AcDbSpline
 62
7
  6
CONTINUOUS
 70
0
 71
3
 72
9
 73
5
 74
0
 42
0.0000001
 43
0.0000001
 44
0.0000000001
 40
0.0
 40
0.0
 40
0.0
 40
0.0
 40
0.495379686
 40
1.0
 40
1.0
 40
1.0
 40
1.0
 10
97.0257159235
 20
149.6274634036
 30
0.0
 10
97.0695812445
 20
149.6021390545
 30
0.0
 10
97.1450535188
 20
149.5244936221
 30
0.0
 10
97.1683517371
 20
149.4192204689
 30
0.0
 10
97.1665621827
 20
149.3676560376
 30
0.0
  0
SPLINE
  5
3C2
100
AcDbEntity
  8
GEOM
100
AcDbSpline
 62
7
  6
CONTINUOUS
 70
0
 71
3
 72
11
 73
7
 74
0
 42
0.0000001
 43
0.0000001
 44
0.0000000001
 40
0.0
 40
0.0
 40
0.0
 40
0.0
 40
0.2736499908
 40
0.5307987759
 40
0.7726379943
 40
1.0
 40
1.0
 40
1.0
 40
1.0
 10
79.5272947721
 20
41.4757641616
 30
0.0
 10
79.5273054569
 20
41.1089375969
 30
0.0
 10
79.483305474
 20
40.3967705354
 30
0.0
 10
79.303594377
 20
39.374715159
 30
0.0
 10
79.0281945318
 20
38.438735402
 30
0.0
 10
78.7874883359
 20
37.8564495638
 30
0.0
 10
78.658790792
 20
37.5801772198
 30
0.0
  0
SPLINE
  5
3C3
100
AcDbEntity
  8
GEOM
100
AcDbSpline
 62
7
  6
CONTINUOUS
 70
0
 71
3
 72
10
 73
6
 74
0
 42
0.0000001
 43
0.0000001
 44
0.0000000001
 40
0.0
 40
0.0
 40
0.0
 40
0.0
 40
0.1838445677
 40
0.4206440716
 40
1.0
 40
1.0
 40
1.0
 40
1.0
 10
78.228258894
 20
48.2132156546
 30
0.0
 10
78.1514663711
 20
48.1908763425
 30
0.0
 10
77.9698503225
 20
48.1611596865
 30
0.0
 10
77.5352200884
 20
48.1387251557
 30
0.0
 10
77.1793968489
 20
48.1638660027
 30
0.0
 10
76.9292207883
 20
48.1943853771
 30
0.0
  0
SPLINE
  5
3C4
100
AcDbEntity
  8
GEOM
100
AcDbSpline
 62
7
  6
CONTINUOUS
 70
0
 71
3
 72
9
 73
5
 74
0
 42
0.0000001
 43
0.0000001
 44
0.0000000001
 40
0.0
 40
0.0
 40
0.0
 40
0.0
 40
0.5034349485
 40
1.0
 40
1.0
 40
1.0
 40
1.0
 10
78.9773641246
 20
59.9271802776
 30
0.0
 10
79.1408738449
 20
59.097602896
 30
0.0
 10
79.4118936096
 20
57.4385242266
 30
0.0
 10
79.5272808566
 20
55.7585005086
 30
0.0
 10
79.5272940868
 20
54.9245010218
 30
0.0
  0
SPLINE
  5
3C5
100
AcDbEntity
  8
GEOM
100
AcDbSpline
 62
7
  6
CONTINUOUS
 70
0
 71
3
 72
16
 73
12
 74
0
 42
0.0000001
 43
0.0000001
 44
0.0000000001
 40
0.0
 40
0.0
 40
0.0
 40
0.0
 40
0.1262352817
 40
0.2532884464
 40
0.3150470941
 40
0.3757354059
 40
0.4989484628
 40
0.6261798338
 40
0.7520829839
 40
0.8761120545
 40
1.0
 40
1.0
 40
1.0
 40
1.0
 10
78.9773641246
 20
59.9271802776
 30
0.0
 10
78.9204625949
 20
59.8876391182
 30
0.0
 10
78.8116447039
 20
59.8002546891
 30
0.0
 10
78.6976726746
 20
59.6678816621
 30
0.0
 10
78.6321704233
 20
59.5468773377
 30
0.0
 10
78.5913380838
 20
59.4174773455
 30
0.0
 10
78.5820333222
 20
59.2451130106
 30
0.0
 10
78.5968804786
 20
59.0393464666
 30
0.0
 10
78.5972097944
 20
58.831958027
 30
0.0
 10
78.5804180333
 20
58.6273887603
 30
0.0
 10
78.5683061448
 20
58.4918444655
 30
0.0
 10
78.5638698719
 20
58.4239864682
 30
0.0
  0
SPLINE
  5
3C6
100
AcDbEntity
  8
GEOM
100
AcDbSpline
 62
7
  6
CONTINUOUS
 70
0
 71
3
 72
10
 73
6
 74
0
 42
0.0000001
 43
0.0000001
 44
0.0000000001
 40
0.0
 40
0.0
 40
0.0
 40
0.0
 40
0.183844189
 40
0.4206437291
 40
1.0
 40
1.0
 40
1.0
 40
1.0
 10
78.228258894
 20
74.5680893936
 30
0.0
 10
78.1514666054
 20
74.5904288394
 30
0.0
 10
77.9698502622
 20
74.6201430766
 30
0.0
 10
77.5352204727
 20
74.6425784972
 30
0.0
 10
77.1793969511
 20
74.6174387701
 30
0.0
 10
76.9292207883
 20
74.5869195994
 30
0.0
  0
SPLINE
  5
3C7
100
AcDbEntity
  8
GEOM
100
AcDbSpline
 62
7
  6
CONTINUOUS
 70
0
 71
3
 72
9
 73
5
 74
0
 42
0.0000001
 43
0.0000001
 44
0.0000000001
 40
0.0
 40
0.0
 40
0.0
 40
0.0
 40
0.4758565301
 40
1.0
 40
1.0
 40
1.0
 40
1.0
 10
78.228258894
 20
77.9009220145
 30
0.0
 10
78.0893326171
 20
78.0958572524
 30
0.0
 10
77.6844702789
 20
78.4259982702
 30
0.0
 10
77.1912562424
 20
78.5767216539
 30
0.0
 10
76.9292207883
 20
78.6059900099
 30
0.0
  0
SPLINE
  5
3C8
100
AcDbEntity
  8
GEOM
100
AcDbSpline
 62
7
  6
CONTINUOUS
 70
0
 71
3
 72
15
 73
11
 74
0
 42
0.0000001
 43
0.0000001
 44
0.0000000001
 40
0.0
 40
0.0
 40
0.0
 40
0.0
 40
0.1843931293
 40
0.3529305141
 40
0.4789118095
 40
0.5811887221
 40
0.6888902943
 40
0.7941337271
 40
0.8970567196
 40
1.0
 40
1.0
 40
1.0
 40
1.0
 10
78.9998677867
 20
84.3778184706
 30
0.0
 10
78.9437154767
 20
84.376999218
 30
0.0
 10
78.8358187182
 20
84.3623662721
 30
0.0
 10
78.6982178469
 20
84.3167520703
 30
0.0
 10
78.593591012
 20
84.2400330654
 30
0.0
 10
78.5779482218
 20
84.1320438514
 30
0.0
 10
78.5971707366
 20
84.0385379918
 30
0.0
 10
78.5997632482
 20
83.941444916
 30
0.0
 10
78.5836390164
 20
83.8479045935
 30
0.0
 10
78.5720167982
 20
83.7862859405
 30
0.0
 10
78.5680359218
 20
83.755187565
 30
0.0
  0
SPLINE
  5
3C9
100
AcDbEntity
  8
GEOM
100
AcDbSpline
 62
7
  6
CONTINUOUS
 70
0
 71
3
 72
9
 73
5
 74
0
 42
0.0000001
 43
0.0000001
 44
0.0000000001
 40
0.0
 40
0.0
 40
0.0
 40
0.0
 40
0.4941326409
 40
1.0
 40
1.0
 40
1.0
 40
1.0
 10
78.228258894
 20
91.078358884
 30
0.0
 10
78.0993400054
 20
91.2967553522
 30
0.0
 10
77.7132666505
 20
91.6751576689
 30
0.0
 10
77.1888379051
 20
91.8049295713
 30
0.0
 10
76.9292207883
 20
91.8022570476
 30
0.0
  0
SPLINE
  5
3CA
100
AcDbEntity
  8
GEOM
100
AcDbSpline
 62
7
  6
CONTINUOUS
 70
0
 71
3
 72
9
 73
5
 74
0
 42
0.0000001
 43
0.0000001
 44
0.0000000001
 40
0.0
 40
0.0
 40
0.0
 40
0.0
 40
0.2453103564
 40
1.0
 40
1.0
 40
1.0
 40
1.0
 10
79.527297045
 20
87.7717332992
 30
0.0
 10
79.4521714583
 20
88.0526830866
 30
0.0
 10
79.1097539978
 20
89.18830753
 30
0.0
 10
78.6347021832
 20
90.281306215
 30
0.0
 10
78.228258894
 20
91.078358884
 30
0.0
  0
SPLINE
  5
3CB
100
AcDbEntity
  8
GEOM
100
AcDbSpline
 62
7
  6
CONTINUOUS
 70
0
 71
3
 72
8
 73
4
 74
0
 42
0.0000001
 43
0.0000001
 44
0.0000000001
 40
0.0
 40
0.0
 40
0.0
 40
0.0
 40
1.0
 40
1.0
 40
1.0
 40
1.0
 10
78.228258894
 20
48.2132156546
 30
0.0
 10
78.7819886104
 20
50.4234963074
 30
0.0
 10
79.2285741875
 20
52.6654885513
 30
0.0
 10
79.5272940868
 20
54.9244094407
 30
0.0
  0
SPLINE
  5
3CC
100
AcDbEntity
  8
GEOM
100
AcDbSpline
 62
7
  6
CONTINUOUS
 70
0
 71
3
 72
9
 73
5
 74
0
 42
0.0000001
 43
0.0000001
 44
0.0000000001
 40
0.0
 40
0.0
 40
0.0
 40
0.0
 40
0.2445058207
 40
1.0
 40
1.0
 40
1.0
 40
1.0
 10
79.5272947718
 20
41.4753216469
 30
0.0
 10
79.4520227958
 20
41.7629660597
 30
0.0
 10
79.1085895384
 20
42.9301016093
 30
0.0
 10
78.634145733
 20
44.0561907061
 30
0.0
 10
78.228258894
 20
44.8803830338
 30
0.0
  0
SPLINE
  5
3CD
100
AcDbEntity
  8
GEOM
100
AcDbSpline
 62
7
  6
CONTINUOUS
 70
0
 71
3
 72
9
 73
5
 74
0
 42
0.0000001
 43
0.0000001
 44
0.0000000001
 40
0.0
 40
0.0
 40
0.0
 40
0.0
 40
0.2554200105
 40
1.0
 40
1.0
 40
1.0
 40
1.0
 10
78.228258894
 20
31.7029461643
 30
0.0
 10
78.3658528343
 20
31.9727777201
 30
0.0
 10
78.8824138543
 20
33.0400089276
 30
0.0
 10
79.2993001001
 20
34.158077135
 30
0.0
 10
79.5272971356
 20
35.0110875916
 30
0.0
  0
SPLINE
  5
3CE
100
AcDbEntity
  8
GEOM
100
AcDbSpline
 62
7
  6
CONTINUOUS
 70
0
 71
3
 72
9
 73
5
 74
0
 42
0.0000001
 43
0.0000001
 44
0.0000000001
 40
0.0
 40
0.0
 40
0.0
 40
0.0
 40
0.2559238
 40
1.0
 40
1.0
 40
1.0
 40
1.0
 10
78.228258894
 20
77.9009220145
 30
0.0
 10
78.3657193824
 20
78.1800502124
 30
0.0
 10
78.880789911
 20
79.2811079411
 30
0.0
 10
79.2983025897
 20
80.4303607094
 30
0.0
 10
79.5272968833
 20
81.3055087051
 30
0.0
  0
SPLINE
  5
3CF
100
AcDbEntity
  8
GEOM
100
AcDbSpline
 62
7
  6
CONTINUOUS
 70
0
 71
3
 72
9
 73
5
 74
0
 42
0.0000001
 43
0.0000001
 44
0.0000000001
 40
0.0
 40
0.0
 40
0.0
 40
0.0
 40
0.2500519183
 40
1.0
 40
1.0
 40
1.0
 40
1.0
 10
79.5272969379
 20
67.8568773257
 30
0.0
 10
79.4525690954
 20
68.4219059917
 30
0.0
 10
79.1171558873
 20
70.6766854328
 30
0.0
 10
78.6436586609
 20
72.9099581181
 30
0.0
 10
78.228258894
 20
74.5680893936
 30
0.0
  0
SPLINE
  5
3D0
100
AcDbEntity
  8
GEOM
100
AcDbSpline
 62
7
  6
CONTINUOUS
 70
0
 71
3
 72
15
 73
11
 74
0
 42
0.0000001
 43
0.0000001
 44
0.0000000001
 40
0.0
 40
0.0
 40
0.0
 40
0.0
 40
0.3377899752
 40
0.4995013877
 40
0.6479919122
 40
0.7716330665
 40
0.8596974444
 40
0.8933100838
 40
0.925406876
 40
1.0
 40
1.0
 40
1.0
 40
1.0
 10
97.0428066216
 20
149.9640065861
 30
0.0
 10
97.0576179183
 20
149.9212526734
 30
0.0
 10
97.0768863141
 20
149.8569650147
 30
0.0
 10
97.0932726949
 20
149.7717028132
 30
0.0
 10
97.0986502634
 20
149.7135584085
 30
0.0
 10
97.0959907748
 20
149.6655280429
 30
0.0
 10
97.0844325116
 20
149.6328762932
 30
0.0
 10
97.0675384873
 20
149.6199285148
 30
0.0
 10
97.0484425828
 20
149.6165363532
 30
0.0
 10
97.0343691534
 20
149.62246782
 30
0.0
 10
97.0257160708
 20
149.6274636587
 30
0.0
  0
SPLINE
  5
3D1
100
AcDbEntity
  8
GEOM
100
AcDbSpline
 62
7
  6
CONTINUOUS
 70
0
 71
3
 72
10
 73
6
 74
0
 42
0.0000001
 43
0.0000001
 44
0.0000000001
 40
0.0
 40
0.0
 40
0.0
 40
0.0
 40
0.3714123055
 40
0.6612657262
 40
1.0
 40
1.0
 40
1.0
 40
1.0
 10
96.103437644
 20
157.0906525241
 30
0.0
 10
96.1479089123
 20
157.0906527759
 30
0.0
 10
96.213087599
 20
157.0171829112
 30
0.0
 10
96.2513125053
 20
156.9077771086
 30
0.0
 10
96.260796186
 20
156.8312110693
 30
0.0
 10
96.2607978382
 20
156.7906525241
 30
0.0
  0
SPLINE
  5
3D2
100
AcDbEntity
  8
GEOM
100
AcDbSpline
 62
7
  6
CONTINUOUS
 70
0
 71
3
 72
9
 73
5
 74
0
 42
0.0000001
 43
0.0000001
 44
0.0000000001
 40
0.0
 40
0.0
 40
0.0
 40
0.0
 40
0.510842026
 40
1.0
 40
1.0
 40
1.0
 40
1.0
 10
76.8398703642
 20
78.6108981491
 30
0.0
 10
77.2694606362
 20
79.4331777046
 30
0.0
 10
78.0155162667
 20
81.0964831867
 30
0.0
 10
78.4551825488
 20
82.8740305449
 30
0.0
 10
78.5680359218
 20
83.755187565
 30
0.0
  0
SPLINE
  5
3D3
100
AcDbEntity
  8
GEOM
100
AcDbSpline
 62
7
  6
CONTINUOUS
 70
0
 71
3
 72
11
 73
7
 74
0
 42
0.0000001
 43
0.0000001
 44
0.0000000001
 40
0.0
 40
0.0
 40
0.0
 40
0.0
 40
0.2432117091
 40
0.4880671209
 40
0.7394783012
 40
1.0
 40
1.0
 40
1.0
 40
1.0
 10
78.5680359218
 20
83.755187565
 30
0.0
 10
78.6541367948
 20
84.4272444447
 30
0.0
 10
78.7083433538
 20
85.7946534715
 30
0.0
 10
78.4131750435
 20
87.8437428815
 30
0.0
 10
77.7772155477
 20
89.8616165213
 30
0.0
 10
77.1759438468
 20
91.1585306407
 30
0.0
 10
76.8398703642
 20
91.8018041073
 30
0.0
  0
SPLINE
  5
3D4
100
AcDbEntity
  8
GEOM
100
AcDbSpline
 62
7
  6
CONTINUOUS
 70
0
 71
3
 72
10
 73
6
 74
0
 42
0.0000001
 43
0.0000001
 44
0.0000000001
 40
0.0
 40
0.0
 40
0.0
 40
0.0
 40
0.2430100689
 40
0.4899701196
 40
1.0
 40
1.0
 40
1.0
 40
1.0
 10
62.7272969996
 20
86.3587240933
 30
0.0
 10
62.7718008938
 20
86.8202097207
 30
0.0
 10
62.9150702196
 20
87.7463032244
 30
0.0
 10
63.4041991371
 20
89.5930243925
 30
0.0
 10
63.9689411032
 20
90.9312621353
 30
0.0
 10
64.4036853745
 20
91.8018041073
 30
0.0
  0
SPLINE
  5
3D5
100
AcDbEntity
  8
GEOM
100
AcDbSpline
 62
7
  6
CONTINUOUS
 70
0
 71
3
 72
10
 73
6
 74
0
 42
0.0000001
 43
0.0000001
 44
0.0000000001
 40
0.0
 40
0.0
 40
0.0
 40
0.0
 40
0.5100298912
 40
0.7569899414
 40
1.0
 40
1.0
 40
1.0
 40
1.0
 10
64.4036853745
 20
78.6108981491
 30
0.0
 10
63.968941094
 20
79.4814401395
 30
0.0
 10
63.4041992219
 20
80.8196779317
 30
0.0
 10
62.9150701327
 20
82.6663990568
 30
0.0
 10
62.7718008919
 20
83.5924925552
 30
0.0
 10
62.7272969996
 20
84.0539781631
 30
0.0
  0
SPLINE
  5
3D6
100
AcDbEntity
  8
GEOM
100
AcDbSpline
 62
7
  6
CONTINUOUS
 70
0
 71
3
 72
9
 73
5
 74
0
 42
0.0000001
 43
0.0000001
 44
0.0000000001
 40
0.0
 40
0.0
 40
0.0
 40
0.0
 40
0.5000286612
 40
1.0
 40
1.0
 40
1.0
 40
1.0
 10
76.8398703642
 20
48.1997465659
 30
0.0
 10
77.277147685
 20
49.8737442066
 30
0.0
 10
78.0284742608
 20
53.2557928024
 30
0.0
 10
78.4509201579
 20
56.6977084999
 30
0.0
 10
78.5638698719
 20
58.4239864682
 30
0.0
  0
SPLINE
  5
3D7
100
AcDbEntity
  8
GEOM
100
AcDbSpline
 62
7
  6
CONTINUOUS
 70
0
 71
3
 72
10
 73
6
 74
0
 42
0.0000001
 43
0.0000001
 44
0.0000000001
 40
0.0
 40
0.0
 40
0.0
 40
0.0
 40
0.2500860028
 40
0.5001581966
 40
1.0
 40
1.0
 40
1.0
 40
1.0
 10
78.5638698719
 20
58.4239864682
 30
0.0
 10
78.6527349098
 20
59.7809026085
 30
0.0
 10
78.7092970592
 20
62.5044463652
 30
0.0
 10
78.328262183
 20
67.9344262042
 30
0.0
 10
77.5267751855
 20
71.9519439377
 30
0.0
 10
76.8398703642
 20
74.5815584824
 30
0.0
  0
SPLINE
  5
3D8
100
AcDbEntity
  8
GEOM
100
AcDbSpline
 62
7
  6
CONTINUOUS
 70
0
 71
3
 72
9
 73
5
 74
0
 42
0.0000001
 43
0.0000001
 44
0.0000000001
 40
0.0
 40
0.0
 40
0.0
 40
0.0
 40
0.4999741745
 40
1.0
 40
1.0
 40
1.0
 40
1.0
 10
62.7272969996
 20
63.6953984543
 30
0.0
 10
62.8158139522
 20
65.5311614683
 30
0.0
 10
63.2054013433
 20
69.194991999
 30
0.0
 10
63.9583918887
 20
72.7982265569
 30
0.0
 10
64.4036853745
 20
74.5815584824
 30
0.0
  0
SPLINE
  5
3D9
100
AcDbEntity
  8
GEOM
100
AcDbSpline
 62
7
  6
CONTINUOUS
 70
0
 71
3
 72
9
 73
5
 74
0
 42
0.0000001
 43
0.0000001
 44
0.0000000001
 40
0.0
 40
0.0
 40
0.0
 40
0.0
 40
0.500025838
 40
1.0
 40
1.0
 40
1.0
 40
1.0
 10
64.4036853745
 20
48.1997465659
 30
0.0
 10
63.9583918777
 20
49.9830785355
 30
0.0
 10
63.2054013965
 20
53.5863131044
 30
0.0
 10
62.81581395
 20
57.2501436264
 30
0.0
 10
62.7272969996
 20
59.085906594
 30
0.0
  0
SPLINE
  5
3DA
100
AcDbEntity
  8
GEOM
100
AcDbSpline
 62
7
  6
CONTINUOUS
 70
0
 71
3
 72
11
 73
7
 74
0
 42
0.0000001
 43
0.0000001
 44
0.0000000001
 40
0.0
 40
0.0
 40
0.0
 40
0.0
 40
0.2598342788
 40
0.5120340978
 40
0.7578625317
 40
1.0
 40
1.0
 40
1.0
 40
1.0
 10
76.8398703642
 20
30.9795009409
 30
0.0
 10
77.1173022142
 20
31.5105433173
 30
0.0
 10
77.6234492302
 20
32.5792499336
 30
0.0
 10
78.209098789
 20
34.2295514293
 30
0.0
 10
78.5786075454
 20
35.9009149326
 30
0.0
 10
78.6609825976
 20
37.0278808187
 30
0.0
 10
78.6610463149
 20
37.5862189783
 30
0.0
  0
SPLINE
  5
3DB
100
AcDbEntity
  8
GEOM
100
AcDbSpline
 62
7
  6
CONTINUOUS
 70
0
 71
3
 72
9
 73
5
 74
0
 42
0.0000001
 43
0.0000001
 44
0.0000000001
 40
0.0
 40
0.0
 40
0.0
 40
0.0
 40
0.5001164472
 40
1.0
 40
1.0
 40
1.0
 40
1.0
 10
96.8286476832
 20
151.1714137086
 30
0.0
 10
96.8949186153
 20
151.1079239175
 30
0.0
 10
97.0040444486
 20
150.9536512958
 30
0.0
 10
97.0428063942
 20
150.768171983
 30
0.0
 10
97.0428066216
 20
150.6764389618
 30
0.0
  0
SPLINE
  5
3DC
100
AcDbEntity
  8
GEOM
100
AcDbSpline
 62
7
  6
CONTINUOUS
 70
0
 71
3
 72
11
 73
7
 74
0
 42
0.0000001
 43
0.0000001
 44
0.0000000001
 40
0.0
 40
0.0
 40
0.0
 40
0.0
 40
0.2421250787
 40
0.4879656708
 40
0.740177206
 40
1.0
 40
1.0
 40
1.0
 40
1.0
 10
78.6610463149
 20
37.5862189783
 30
0.0
 10
78.6604653035
 20
38.1427135272
 30
0.0
 10
78.5754323802
 20
39.2658208136
 30
0.0
 10
78.2057828928
 20
40.9313513684
 30
0.0
 10
77.6209819782
 20
42.575952988
 30
0.0
 10
77.1163892029
 20
43.6411145443
 30
0.0
 10
76.8398703642
 20
44.1704068992
 30
0.0
  0
LINE
  5
3DD
100
AcDbEntity
  8
GEOM
100
AcDbLine
 62
7
  6
CONTINUOUS
 10
96.6573331151
 20
151.335627271
 11
96.8286476832
 21
151.1714137086
  0
SPLINE
  5
3DE
100
AcDbEntity
  8
GEOM
100
AcDbSpline
 62
7
  6
CONTINUOUS
 70
0
 71
3
 72
10
 73
6
 74
0
 42
0.0000001
 43
0.0000001
 44
0.0000000001
 40
0.0
 40
0.0
 40
0.0
 40
0.0
 40
0.2430100689
 40
0.4899701196
 40
1.0
 40
1.0
 40
1.0
 40
1.0
 10
62.7272969996
 20
38.7273268851
 30
0.0
 10
62.7718008938
 20
39.1888125126
 30
0.0
 10
62.9150702196
 20
40.1149060163
 30
0.0
 10
63.4041991371
 20
41.9616271844
 30
0.0
 10
63.9689411032
 20
43.2998649272
 30
0.0
 10
64.4036853745
 20
44.1704068992
 30
0.0
  0
SPLINE
  5
3DF
100
AcDbEntity
  8
GEOM
100
AcDbSpline
 62
7
  6
CONTINUOUS
 70
0
 71
3
 72
9
 73
5
 74
0
 42
0.0000001
 43
0.0000001
 44
0.0000000001
 40
0.0
 40
0.0
 40
0.0
 40
0.0
 40
0.4998982547
 40
1.0
 40
1.0
 40
1.0
 40
1.0
 10
96.2607978382
 20
152.2548660865
 30
0.0
 10
96.2607092258
 20
152.0845866184
 30
0.0
 10
96.3323541269
 20
151.7403103614
 30
0.0
 10
96.5343950952
 20
151.4535465607
 30
0.0
 10
96.6573331151
 20
151.335627271
 30
0.0
  0
SPLINE
  5
3E0
100
AcDbEntity
  8
GEOM
100
AcDbSpline
 62
7
  6
CONTINUOUS
 70
0
 71
3
 72
10
 73
6
 74
0
 42
0.0000001
 43
0.0000001
 44
0.0000000001
 40
0.0
 40
0.0
 40
0.0
 40
0.0
 40
0.5100298912
 40
0.7569899414
 40
1.0
 40
1.0
 40
1.0
 40
1.0
 10
64.4036853745
 20
30.9795009409
 30
0.0
 10
63.968941094
 20
31.8500429314
 30
0.0
 10
63.4041992219
 20
33.1882807235
 30
0.0
 10
62.9150701327
 20
35.0350018487
 30
0.0
 10
62.7718008919
 20
35.9610953471
 30
0.0
 10
62.7272969996
 20
36.422580955
 30
0.0
  0
SPLINE
  5
3E1
100
AcDbEntity
  8
GEOM
100
AcDbSpline
 62
7
  6
CONTINUOUS
 70
0
 71
3
 72
9
 73
5
 74
0
 42
0.0000001
 43
0.0000001
 44
0.0000000001
 40
0.0
 40
0.0
 40
0.0
 40
0.0
 40
0.1929936939
 40
1.0
 40
1.0
 40
1.0
 40
1.0
 10
97.7863062902
 20
97.9097905557
 30
0.0
 10
98.0108393
 20
97.8064807686
 30
0.0
 10
99.1791961395
 20
97.2821755889
 30
0.0
 10
100.3749055018
 20
96.8166871968
 30
0.0
 10
101.3554507741
 20
96.4900999082
 30
0.0
  0
SPLINE
  5
3E2
100
AcDbEntity
  8
GEOM
100
AcDbSpline
 62
7
  6
CONTINUOUS
 70
0
 71
3
 72
11
 73
7
 74
0
 42
0.0000001
 43
0.0000001
 44
0.0000000001
 40
0.0
 40
0.0
 40
0.0
 40
0.0
 40
0.2358107191
 40
0.4996723711
 40
0.7637168063
 40
1.0
 40
1.0
 40
1.0
 40
1.0
 10
101.5526172115
 20
96.4251635134
 30
0.0
 10
102.7616731751
 20
96.0314677169
 30
0.0
 10
105.3795890567
 20
95.3553280585
 30
0.0
 10
109.5019995777
 20
94.970366926
 30
0.0
 10
113.627893913
 20
95.3465461083
 30
0.0
 10
116.2503913632
 20
96.019475769
 30
0.0
 10
117.4624046493
 20
96.4123140788
 30
0.0
  0
SPLINE
  5
3E3
100
AcDbEntity
  8
GEOM
100
AcDbSpline
 62
7
  6
CONTINUOUS
 70
0
 71
3
 72
25
 73
21
 74
0
 42
0.0000001
 43
0.0000001
 44
0.0000000001
 40
0.0
 40
0.0
 40
0.0
 40
0.0
 40
0.2148463635
 40
0.409313711
 40
0.580788178
 40
0.6570436517
 40
0.7265122377
 40
0.788847283
 40
0.8436992825
 40
0.89074061
 40
0.9296930284
 40
0.946050596
 40
0.9602834306
 40
0.9723627015
 40
0.9822740412
 40
0.9900054504
 40
0.9955449225
 40
0.9974889283
 40
0.9988804446
 40
1.0
 40
1.0
 40
1.0
 40
1.0
 10
117.6981731918
 20
96.4897801875
 30
0.0
 10
118.0353086963
 20
96.6020492133
 30
0.0
 10
118.6739799296
 20
96.8269745285
 30
0.0
 10
119.5699546831
 20
97.1736030698
 30
0.0
 10
120.2451049256
 20
97.4549588392
 30
0.0
 10
120.7259873717
 20
97.6646821514
 30
0.0
 10
121.0401153947
 20
97.8051810729
 30
0.0
 10
121.3208496825
 20
97.933608337
 30
0.0
 10
121.5670235032
 20
98.048398015
 30
0.0
 10
121.7775599913
 20
98.1480938765
 30
0.0
 10
121.9301640356
 20
98.2213594246
 30
0.0
 10
122.0336855566
 20
98.2714858232
 30
0.0
 10
122.0971448207
 20
98.3023561884
 30
0.0
 10
122.1510097417
 20
98.3285993489
 30
0.0
 10
122.1951225184
 20
98.350245949
 30
0.0
 10
122.2296644422
 20
98.367005698
 30
0.0
 10
122.2519955347
 20
98.3783779379
 30
0.0
 10
122.2654917194
 20
98.3845214738
 30
0.0
 10
122.2715077605
 20
98.3884117839
 30
0.0
 10
122.2763696198
 20
98.3890498487
 30
0.0
 10
122.2772969996
 20
98.3906525241
 30
0.0
  0
SPLINE
  5
3E4
100
AcDbEntity
  8
GEOM
100
AcDbSpline
 62
7
  6
CONTINUOUS
 70
0
 71
3
 72
31
 73
27
 74
0
 42
0.0000001
 43
0.0000001
 44
0.0000000001
 40
0.0
 40
0.0
 40
0.0
 40
0.0
 40
0.1003393723
 40
0.2402769647
 40
0.4032812367
 40
0.4885757969
 40
0.5736234364
 40
0.6563567313
 40
0.7347906517
 40
0.8069980638
 40
0.8401549289
 40
0.8709959486
 40
0.8992443402
 40
0.9246044202
 40
0.9467734258
 40
0.9654501239
 40
0.9733850021
 40
0.9803393236
 40
0.9862836826
 40
0.9911886485
 40
0.9950262905
 40
0.9977808018
 40
0.9987487212
 40
0.9994420685
 40
0.9998595821
 40
1.0
 40
1.0
 40
1.0
 40
1.0
 10
95.4841512491
 20
95.4422812293
 30
0.0
 10
96.4285222043
 20
95.1037287895
 30
0.0
 10
98.7125474149
 20
94.3543587018
 30
0.0
 10
102.6330113317
 20
93.3878419795
 30
0.0
 10
106.4941491168
 20
92.8852462468
 30
0.0
 10
109.8282505255
 20
92.7951685478
 30
0.0
 10
112.3583169142
 20
92.9058769303
 30
0.0
 10
114.8063483795
 20
93.1815931167
 30
0.0
 10
117.1054881797
 20
93.5874274758
 30
0.0
 10
118.8958741193
 20
94.0052351776
 30
0.0
 10
120.2104346579
 20
94.3611882077
 30
0.0
 10
121.0956148242
 20
94.6204492259
 30
0.0
 10
121.9015264641
 20
94.8724439813
 30
0.0
 10
122.6209760204
 20
95.1100570377
 30
0.0
 10
123.2466973581
 20
95.3260792912
 30
0.0
 10
123.7058724362
 20
95.4905184018
 30
0.0
 10
124.0210263574
 20
95.6058730829
 30
0.0
 10
124.2163542575
 20
95.6782353825
 30
0.0
 10
124.3830590524
 20
95.7406467935
 30
0.0
 10
124.5204120943
 20
95.7925973745
 30
0.0
 10
124.627883685
 20
95.8333518764
 30
0.0
 10
124.6984469021
 20
95.8605231334
 30
0.0
 10
124.7397360121
 20
95.8760612856
 30
0.0
 10
124.7590286754
 20
95.8839611291
 30
0.0
 10
124.7708968651
 20
95.8876660654
 30
0.0
 10
124.7759022757
 20
95.8904919379
 30
0.0
 10
124.7772969996
 20
95.8906525241
 30
0.0
  0
SPLINE
  5
3E5
100
AcDbEntity
  8
GEOM
100
AcDbSpline
 62
7
  6
CONTINUOUS
 70
0
 71
3
 72
19
 73
15
 74
0
 42
0.0000001
 43
0.0000001
 44
0.0000000001
 40
0.0
 40
0.0
 40
0.0
 40
0.0
 40
0.0862022117
 40
0.1841826439
 40
0.2943163991
 40
0.4163802168
 40
0.4813680812
 40
0.5498719973
 40
0.6223095523
 40
0.6943214935
 40
0.7653007948
 40
0.8394926588
 40
0.9184285993
 40
1.0
 40
1.0
 40
1.0
 40
1.0
 10
79.527297045
 20
87.7717339484
 30
0.0
 10
79.5272978619
 20
87.6689918116
 30
0.0
 10
79.5053968448
 20
87.4494487564
 30
0.0
 10
79.4274524358
 20
87.107023433
 30
0.0
 10
79.310309973
 20
86.7309163718
 30
0.0
 10
79.1815175431
 20
86.4008278099
 30
0.0
 10
79.0743840063
 20
86.1157646953
 30
0.0
 10
78.9756046155
 20
85.8905875494
 30
0.0
 10
78.8520347151
 20
85.6692704623
 30
0.0
 10
78.7496193861
 20
85.4310087683
 30
0.0
 10
78.7304173641
 20
85.1681332827
 30
0.0
 10
78.7847574506
 20
84.9041890345
 30
0.0
 10
78.8917882532
 20
84.6452611028
 30
0.0
 10
78.9675236598
 20
84.4695034173
 30
0.0
 10
78.9998677867
 20
84.3778184706
 30
0.0
  0
SPLINE
  5
3E6
100
AcDbEntity
  8
GEOM
100
AcDbSpline
 62
7
  6
CONTINUOUS
 70
0
 71
3
 72
15
 73
11
 74
0
 42
0.0000001
 43
0.0000001
 44
0.0000000001
 40
0.0
 40
0.0
 40
0.0
 40
0.0
 40
0.1229482138
 40
0.2468249981
 40
0.3714595264
 40
0.4966763334
 40
0.622304007
 40
0.7481753688
 40
0.8741135645
 40
1.0
 40
1.0
 40
1.0
 40
1.0
 10
79.5272969379
 20
67.8568745639
 30
0.0
 10
79.5272982633
 20
67.5286279652
 30
0.0
 10
79.509269972
 20
66.8695507
 30
0.0
 10
79.435517501
 20
65.8803318517
 30
0.0
 10
79.3226190973
 20
64.8886140596
 30
0.0
 10
79.1694052451
 20
63.8980102446
 30
0.0
 10
79.003635118
 20
62.9052523903
 30
0.0
 10
78.7441051607
 20
61.930436747
 30
0.0
 10
78.7144201159
 20
60.904815826
 30
0.0
 10
78.9123511366
 20
60.2569233675
 30
0.0
 10
78.9773641246
 20
59.9271802776
 30
0.0
  0
SPLINE
  5
3E7
100
AcDbEntity
  8
GEOM
100
AcDbSpline
 62
7
  6
CONTINUOUS
 70
0
 71
3
 72
9
 73
5
 74
0
 42
0.0000001
 43
0.0000001
 44
0.0000000001
 40
0.0
 40
0.0
 40
0.0
 40
0.0
 40
0.5000462267
 40
1.0
 40
1.0
 40
1.0
 40
1.0
 10
96.5491999939
 20
152.2548660865
 30
0.0
 10
96.5491640424
 20
152.1233152322
 30
0.0
 10
96.6059838976
 20
151.857297789
 30
0.0
 10
96.7648570996
 20
151.6377460176
 30
0.0
 10
96.8607821824
 20
151.5477593053
 30
0.0
  0
SPLINE
  5
3E8
100
AcDbEntity
  8
GEOM
100
AcDbSpline
 62
7
  6
CONTINUOUS
 70
0
 71
3
 72
9
 73
5
 74
0
 42
0.0000001
 43
0.0000001
 44
0.0000000001
 40
0.0
 40
0.0
 40
0.0
 40
0.0
 40
0.4997800521
 40
1.0
 40
1.0
 40
1.0
 40
1.0
 10
97.0318755354
 20
151.3835457429
 30
0.0
 10
97.1248556898
 20
151.2921294496
 30
0.0
 10
97.2766432389
 20
151.0705296295
 30
0.0
 10
97.3298063791
 20
150.8069463983
 30
0.0
 10
97.3298064004
 20
150.6764389618
 30
0.0
  0
SPLINE
  5
3E9
100
AcDbEntity
  8
GEOM
100
AcDbSpline
 62
7
  6
CONTINUOUS
 70
0
 71
3
 72
13
 73
9
 74
0
 42
0.0000001
 43
0.0000001
 44
0.0000000001
 40
0.0
 40
0.0
 40
0.0
 40
0.0
 40
0.1120932052
 40
0.2076201347
 40
0.3295505034
 40
0.4748102112
 40
0.6388717732
 40
1.0
 40
1.0
 40
1.0
 40
1.0
 10
96.3952606735
 20
157.3906525241
 30
0.0
 10
96.4191609298
 20
157.3906528205
 30
0.0
 10
96.4528693577
 20
157.3472418984
 30
0.0
 10
96.4799808512
 20
157.2860677539
 30
0.0
 10
96.50359835
 20
157.2110518362
 30
0.0
 10
96.5228657152
 20
157.1214528327
 30
0.0
 10
96.5434109618
 20
156.9797473107
 30
0.0
 10
96.5491965682
 20
156.8676514569
 30
0.0
 10
96.5491999939
 20
156.7906525241
 30
0.0
  0
SPLINE
  5
3EA
100
AcDbEntity
  8
GEOM
100
AcDbSpline
 62
7
  6
CONTINUOUS
 70
0
 71
3
 72
12
 73
8
 74
0
 42
0.0000001
 43
0.0000001
 44
0.0000000001
 40
0.0
 40
0.0
 40
0.0
 40
0.0
 40
0.1894727667
 40
0.3740451244
 40
0.547525493
 40
0.7022263878
 40
1.0
 40
1.0
 40
1.0
 40
1.0
 10
97.3298064004
 20
149.9640065861
 30
0.0
 10
97.3298055529
 20
149.9236187985
 30
0.0
 10
97.327919743
 20
149.8435850335
 30
0.0
 10
97.3199701584
 20
149.7283691149
 30
0.0
 10
97.3042798708
 20
149.6157974018
 30
0.0
 10
97.2836221176
 20
149.5025893061
 30
0.0
 10
97.2212014107
 20
149.3353633181
 30
0.0
 10
97.1665570116
 20
149.3676560376
 30
0.0
  0
SPLINE
  5
3EB
100
AcDbEntity
  8
GEOM
100
AcDbSpline
 62
7
  6
CONTINUOUS
 70
0
 71
3
 72
21
 73
17
 74
0
 42
0.0000001
 43
0.0000001
 44
0.0000000001
 40
0.0
 40
0.0
 40
0.0
 40
0.0
 40
0.0009682575
 40
0.0038746354
 40
0.0087196711
 40
0.0155039143
 40
0.0348922904
 40
0.0620453072
 40
0.0969739659
 40
0.1396927388
 40
0.1902181126
 40
0.248567231
 40
0.3888206603
 40
0.5606615882
 40
0.7643458319
 40
1.0
 40
1.0
 40
1.0
 40
1.0
 10
96.7772969996
 20
98.2776316865
 30
0.0
 10
96.7773279034
 20
98.2779773332
 30
0.0
 10
96.7794136051
 20
98.2765690109
 30
0.0
 10
96.7817148072
 20
98.2767791775
 30
0.0
 10
96.7871519189
 20
98.2748484646
 30
0.0
 10
96.7976336361
 20
98.2722894858
 30
0.0
 10
96.8162496998
 20
98.2669748599
 30
0.0
 10
96.8442952811
 20
98.2592882042
 30
0.0
 10
96.8804589104
 20
98.2489661912
 30
0.0
 10
96.9245373339
 20
98.2360894134
 30
0.0
 10
96.9765642895
 20
98.2204111347
 30
0.0
 10
97.0618018774
 20
98.1938275987
 30
0.0
 10
97.1878346879
 20
98.1520282609
 30
0.0
 10
97.3617095972
 20
98.0891899762
 30
0.0
 10
97.5653202583
 20
98.0083102219
 30
0.0
 10
97.709573928
 20
97.9450815656
 30
0.0
 10
97.7863062902
 20
97.9097905557
 30
0.0
  0
SPLINE
  5
3EC
100
AcDbEntity
  8
GEOM
100
AcDbSpline
 62
7
  6
CONTINUOUS
 70
0
 71
3
 72
21
 73
17
 74
0
 42
0.0000001
 43
0.0000001
 44
0.0000000001
 40
0.0
 40
0.0
 40
0.0
 40
0.0
 40
0.0009363893
 40
0.0037484682
 40
0.008439121
 40
0.0150112372
 40
0.033811443
 40
0.0601769542
 40
0.0941662554
 40
0.135850787
 40
0.1853039454
 40
0.2426202172
 40
0.38130371
 40
0.5529160158
 40
0.7587014478
 40
1.0
 40
1.0
 40
1.0
 40
1.0
 10
94.741471711
 20
95.8211012394
 30
0.0
 10
94.7415198374
 20
95.8213571175
 30
0.0
 10
94.7429406894
 20
95.8200663033
 30
0.0
 10
94.7446407995
 20
95.8199710463
 30
0.0
 10
94.7484793505
 20
95.8179193045
 30
0.0
 10
94.7559746503
 20
95.8148435115
 30
0.0
 10
94.7692467449
 20
95.8088068353
 30
0.0
 10
94.7893010268
 20
95.7999687362
 30
0.0
 10
94.8152016455
 20
95.7882965265
 30
0.0
 10
94.8468575697
 20
95.7738935932
 30
0.0
 10
94.8843367072
 20
95.7565852223
 30
0.0
 10
94.9461163395
 20
95.7275863385
 30
0.0
 10
95.0381247011
 20
95.6830481846
 30
0.0
 10
95.1661612622
 20
95.6182361982
 30
0.0
 10
95.317956341
 20
95.5372582298
 30
0.0
 10
95.426178972
 20
95.4760561968
 30
0.0
 10
95.4841512491
 20
95.4422812293
 30
0.0
  0
LINE
  5
3ED
100
AcDbEntity
  8
GEOM
100
AcDbLine
 62
7
  6
CONTINUOUS
 10
96.8607821824
 20
151.5477593053
 11
97.0318755354
 21
151.3835457429
  0
SPLINE
  5
3EE
100
AcDbEntity
  8
GEOM
100
AcDbSpline
 62
7
  6
CONTINUOUS
 70
0
 71
3
 72
11
 73
7
 74
0
 42
0.0000001
 43
0.0000001
 44
0.0000000001
 40
0.0
 40
0.0
 40
0.0
 40
0.0
 40
0.2465503459
 40
0.4954820848
 40
0.7470777859
 40
1.0
 40
1.0
 40
1.0
 40
1.0
 10
96.103437644
 20
157.0906525241
 30
0.0
 10
96.1413892738
 20
157.0906525241
 30
0.0
 10
96.2184452348
 20
157.106601526
 30
0.0
 10
96.3157100219
 20
157.1733743734
 30
0.0
 10
96.3800340207
 20
157.2733184451
 30
0.0
 10
96.3952606737
 20
157.3517200692
 30
0.0
 10
96.3952606735
 20
157.3906525241
 30
0.0
  0
SPLINE
  5
3EF
100
AcDbEntity
  8
GEOM
100
AcDbSpline
 62
7
  6
CONTINUOUS
 70
0
 71
3
 72
12
 73
8
 74
0
 42
0.0000001
 43
0.0000001
 44
0.0000000001
 40
0.0
 40
0.0
 40
0.0
 40
0.0
 40
0.2402740782
 40
0.3641098742
 40
0.4899368532
 40
0.7446147637
 40
1.0
 40
1.0
 40
1.0
 40
1.0
 10
95.4841512481
 20
95.4422562275
 30
0.0
 10
95.776832046
 20
95.4619026702
 30
0.0
 10
96.2192312369
 20
95.5849392194
 30
0.0
 10
96.7304060501
 20
95.8998091045
 30
0.0
 10
97.1906429205
 20
96.3135731007
 30
0.0
 10
97.621515227
 20
96.9786519
 30
0.0
 10
97.7681674662
 20
97.5985336627
 30
0.0
 10
97.7863574859
 20
97.9097905575
 30
0.0
  0
SPLINE
  5
3F0
100
AcDbEntity
  8
GEOM
100
AcDbSpline
 62
7
  6
CONTINUOUS
 70
0
 71
3
 72
9
 73
5
 74
0
 42
0.0000001
 43
0.0000001
 44
0.0000000001
 40
0.0
 40
0.0
 40
0.0
 40
0.0
 40
0.5003897788
 40
1.0
 40
1.0
 40
1.0
 40
1.0
 10
62.7272969996
 20
86.3587240933
 30
0.0
 10
62.6903518945
 20
85.9756197523
 30
0.0
 10
62.651692197
 20
85.2060484264
 30
0.0
 10
62.6904094513
 20
84.4364856655
 30
0.0
 10
62.7272969996
 20
84.0539781631
 30
0.0
  0
ELLIPSE
  5
3F1
100
AcDbEntity
  8
0
100
AcDbEllipse
 62
7
  6
CONTINUOUS
 10
122.2537943077
 20
167.2055780934
 30
0.0
 11
2.0131567266
 21
5.5311026482
 31
0.0
 40
0.5096773721
 41
-1.5707963268
 42
-0.9506573207
  0
ELLIPSE
  5
3F2
100
AcDbEntity
  8
0
100
AcDbEllipse
 62
7
  6
CONTINUOUS
 10
126.2952461921
 20
169.6906525241
 30
0.0
 11
-0.0
 21
1.0
 31
0.0
 40
0.5773502692
 41
-0.0
 42
1.5707963268
  0
ELLIPSE
  5
3F3
100
AcDbEntity
  8
0
100
AcDbEllipse
 62
7
  6
CONTINUOUS
 10
119.944393231
 20
160.8605507825
 30
0.0
 11
2.0131567266
 21
5.5311026482
 31
0.0
 40
0.5096773721
 41
-1.5707963268
 42
-0.9506573207
  0
ELLIPSE
  5
3F4
100
AcDbEntity
  8
0
100
AcDbEllipse
 62
7
  6
CONTINUOUS
 10
125.7178959229
 20
170.6906525241
 30
0.0
 11
0.0
 21
4.0
 31
0.0
 40
0.5773502692
 41
-0.0
 42
1.5707963268
  0
ELLIPSE
  5
3F5
100
AcDbEntity
  8
0
100
AcDbEllipse
 62
7
  6
CONTINUOUS
 10
100.909930508
 20
170.6906525241
 30
0.0
 11
-0.0
 21
4.0
 31
0.0
 40
1.0
 41
-1.5707963268
 42
0.0
  0
ENDSEC
  0
SECTION
  2
OBJECTS
  0
DICTIONARY
  5
3F6
100
AcDbDictionary
  3
ACAD_GROUP
350
3F7
  3
ACAD_MLINESTYLE
350
3F8
  0
DICTIONARY
  5
3F7
102
{ACAD_REACTORS
330
3F6
102
}
100
AcDbDictionary
  0
DICTIONARY
  5
3F8
102
{ACAD_REACTORS
330
3F6
102
}
100
AcDbDictionary
  3
STANDARD
350
3F9
  0
MLINESTYLE
  5
3F9
102
{ACAD_REACTORS
330
3F8
102
}
100
AcDbMlineStyle
  2
STANDARD
 70
0
  3

 62
256
 51
90.0
 52
90.0
 71
2
 49
0.5
 62
256
  6
BYLAYER
 49
-0.5
 62
256
  6
BYLAYER
  0
ENDSEC
  0
EOF
